Oops, an error
Loading. Please wait.
ver2
ver2

Whole song

More versions @911Tabs.com
245 views 1 this week
no commentswrite comment
1 2 3 4 5
please rate
Autoscroll
+/-
esc
set tempo
stop
Contributor
Difficulty
WARNING: You are trying to view
                                    content from Ultimate-Guitar.com
                                    in an unauthorized application,
                                    which is prohibited.

                                    Please use an official Ultimate
                                    Guitar Tabs application for iPhone,
                                    iPad or Android to access legitimate
                                    chords, guitar, bass, and drum tabs
                                    from Ultimate-Guitar.com database.

                                    Type "ultimate guitar tabs" in Apple
                                    App Store's or Android Market's
                                    search to find the application.
Mindless Self Indulgence - 1989
Tuning: Standard
Tabbed by: Everything-Ends
Email: The-Wicked-End@live.co.uk

Verse

Play this twice:

  1 + 2 + 3 + 4 +    1 + 2 + 3 + 4 +    1 + 2 + 3 + 4 +    1 + 2 + 3 + 4 +
|------------------|------------------|------------------|------------------|
|------------------|------------------|------------------|------------------|
|-3---3-3---3-3----|-3---3-3---3-3----|-2----------------|------------------| 
|-3---3-3---3-3----|-3---3-3---3-3----|-2----------------|-6----------------|
|-1---1-1---1-1----|-1---1-1---1-1----|-0----------------|-6----------------|
|------------------|------------------|------------------|-4----------------|



Pre-Chorus

  1 + 2 + 3 + 4 +    1 + 2 + 3 + 4 +    1 + 2 + 3 + 4 +    1 + 2 + 3 + 4 +
|------------------|------------------|------------------|------------------|
|------------------|------------------|------------------|------------------|
|-3---3---3---3----|-3---3---3---3----|-5----------------|------------------|
|-3---3---3---3----|-3---3---3---3----|-5-------6--------|------------------|
|-1---1---1---1----|-1---1---1---1----|-3-------6--------|------------------|
|------------------|------------------|---------4--------|------------------|



Chorus

Riff 1

  1 + 2 + 3 + 4 +    1 + 2 + 3 + 4 +    1 + 2 + 3 + 4 +    1 + 2 + 3 + 4 +
|------------------|------------------|------------------|------------------|
|------------------|------------------|------------------|------------------|
|------------------|-------------2----|-3---3---3---5----|-6---6------------|
|-3---3---3---5----|-6---6---6---2----|-3---3---3---5----|-6---6------------|
|-3---3---3---5----|-6---6---6---0----|-1---1---1---3----|-4---4------------|
|-1---1---1---3----|-4---4---4--------|------------------|------------------|


  1 + 2 + 3 + 4 +    1 + 2 + 3 + 4 +    1 + 2 + 3 + 4 +    1 + 2 + 3 + 4 +
|------------------|------------------|------------------|------------------|
|------------------|------------------|------------------|------------------|
|------------------|-------------2----|-3---3---3---5----|-6---6---6---6----|
|-3---3---3---5----|-6---6---6---2----|-3---3---3---5----|-6---6---6---6----|
|-3---3---3---5----|-6---6---6---0----|-1---1---1---3----|-4---4---4---4----|
|-1---1---1---3----|-4---4---4--------|------------------|------------------


Riff 2

  1 + 2 + 3 + 4 +    1 + 2 + 3 + 4 +    1 + 2 + 3 + 4 +    1 + 2 + 3 + 4 +
|------------------|------------------|------------------|------------------|
|------------------|------------------|------------------|-4-----4-----4----|
|------------------|------------------|-3-----3-----3----|-3-----3-----3----|
|-4---4---4---4----|-3---3---3---3----|-3-----3-----3----|-1-----1-----1----|
|-4---4---4---4----|-3---3---3---3----|-1-----1-----1----|------------------|
|-2---2---2---2----|-1---1---1---1----|------------------|------------------|


  1 + 2 + 3 + 4 +    1 + 2 + 3 + 4 +    1 + 2 + 3 + 4 + 
|------------------|------------------|------------------|
|------------------|------------------|------------------|
|------------------|------------------|-3-----3-----3----|
|-4---4---4---4----|-3---3---3---3----|-3-----3-----3----|
|-4---4---4---4----|-3---3---3---3----|-1-----1-----1----|
|-2---2---2---2----|-1---1---1---1----|------------------|



Verse 2

Play this twice:

  1 + 2 + 3 + 4 +    1 + 2 + 3 + 4 +    1 + 2 + 3 + 4 +    1 + 2 + 3 + 4 +
|------------------|------------------|------------------|------------------|
|------------------|------------------|------------------|------------------|
|-3---3-3---3-3----|-3---3-3---3-3----|-2----------------|------------------| 
|-3---3-3---3-3----|-3---3-3---3-3----|-2----------------|-6----------------|
|-1---1-1---1-1----|-1---1-1---1-1----|-0----------------|-6----------------|
|------------------|------------------|------------------|-4----------------|



Pre-Chorus 2

  1 + 2 + 3 + 4 +    1 + 2 + 3 + 4 +    1 + 2 + 3 + 4 +    1 + 2 + 3 + 4 +
|------------------|------------------|------------------|------------------|
|------------------|------------------|------------------|------------------|
|-3---3---3---3----|-3---3---3---3----|-5----------------|------------------|
|-3---3---3---3----|-3---3---3---3----|-5-------6--------|------------------|
|-1---1---1---1----|-1---1---1---1----|-3-------6--------|------------------|
|------------------|------------------|---------4--------|------------------|



Chorus 2

Riff 1

  1 + 2 + 3 + 4 +    1 + 2 + 3 + 4 +    1 + 2 + 3 + 4 +    1 + 2 + 3 + 4 +
|------------------|------------------|------------------|------------------|
|------------------|------------------|------------------|------------------|
|------------------|-------------2----|-3---3---3---5----|-6---6------------|
|-3---3---3---5----|-6---6---6---2----|-3---3---3---5----|-6---6------------|
|-3---3---3---5----|-6---6---6---0----|-1---1---1---3----|-4---4------------|
|-1---1---1---3----|-4---4---4--------|------------------|------------------|


  1 + 2 + 3 + 4 +    1 + 2 + 3 + 4 +    1 + 2 + 3 + 4 +    1 + 2 + 3 + 4 +
|------------------|------------------|------------------|------------------|
|------------------|------------------|------------------|------------------|
|------------------|-------------2----|-3---3---3---5----|-6---6---6---6----|
|-3---3---3---5----|-6---6---6---2----|-3---3---3---5----|-6---6---6---6----|
|-3---3---3---5----|-6---6---6---0----|-1---1---1---3----|-4---4---4---4----|
|-1---1---1---3----|-4---4---4--------|------------------|------------------|


Riff 2

  1 + 2 + 3 + 4 +    1 + 2 + 3 + 4 +    1 + 2 + 3 + 4 +    1 + 2 + 3 + 4 +
|------------------|------------------|------------------|------------------|
|------------------|------------------|------------------|-4-----4-----4----|
|------------------|------------------|-3-----3-----3----|-3-----3-----3----|
|-4---4---4---4----|-3---3---3---3----|-3-----3-----3----|-1-----1-----1----|
|-4---4---4---4----|-3---3---3---3----|-1-----1-----1----|------------------|
|-2---2---2---2----|-1---1---1---1----|------------------|------------------|


  1 + 2 + 3 + 4 +    1 + 2 + 3 + 4 +    1 + 2 + 3 + 4 + 
|------------------|------------------|------------------|
|------------------|------------------|------------------|
|------------------|------------------|-3-----3-----3----|
|-4---4---4---4----|-3---3---3---3----|-3-----3-----3----|
|-4---4---4---4----|-3---3---3---3----|-1-----1-----1----|
|-2---2---2---2----|-1---1---1---1----|------------------|



Bridge

Play this Twice:


  1 + 2 + 3 + 4 +    1 + 2 + 3 + 4 +    1 + 2 + 3 + 4 +    1 + 2 + 3 + 4 +
|------------------|------------------|------------------|------------------|
|------------------|------------------|------------------|------------------|
|------------------|------------------|------------------|------------------|
|-3-----3-----3----|-4-----4-----4----|-6-----6-----6----|-6----------------|
|-3-----3-----3----|-4-----4-----4----|-6-----6-----6----|-6----------------|
|-1-----1-----1----|-2-----2-----2----|-4-----4-----4----|-4----------------|


 1 + 2 + 3 + 4 +    1 + 2 + 3 + 4 +    1 + 2 + 3 + 4 +    1 + 2 + 3 + 4 +
|------------------|------------------|------------------|------------------|
|------------------|------------------|------------------|------------------|
|------------------|------------------|------------------|------------------|
|-3-----3-----3----|-4-----4-----4----|-6----------------|------------------|
|-3-----3-----3----|-4-----4-----4----|-6----------------|------------------|
|-1-----1-----1----|-2-----2-----2----|-4----------------|------------------|



Chorus 3

Riff 1

  1 + 2 + 3 + 4 +    1 + 2 + 3 + 4 +    1 + 2 + 3 + 4 +    1 + 2 + 3 + 4 +
|------------------|------------------|------------------|------------------|
|------------------|------------------|------------------|------------------|
|------------------|-------------2----|-3---3---3---5----|-6---6------------|
|-3---3---3---5----|-6---6---6---2----|-3---3---3---5----|-6---6------------|
|-3---3---3---5----|-6---6---6---0----|-1---1---1---3----|-4---4------------|
|-1---1---1---3----|-4---4---4--------|------------------|------------------|


  1 + 2 + 3 + 4 +    1 + 2 + 3 + 4 +    1 + 2 + 3 + 4 +    1 + 2 + 3 + 4 +
|------------------|------------------|------------------|------------------|
|------------------|------------------|------------------|------------------|
|------------------|-------------2----|-3---3---3---5----|-6---6---6---6----|
|-3---3---3---5----|-6---6---6---2----|-3---3---3---5----|-6---6---6---6----|
|-3---3---3---5----|-6---6---6---0----|-1---1---1---3----|-4---4---4---4----|
|-1---1---1---3----|-4---4---4--------|------------------|------------------|


Riff 2

  1 + 2 + 3 + 4 +    1 + 2 + 3 + 4 +    1 + 2 + 3 + 4 +    1 + 2 + 3 + 4 +
|------------------|------------------|------------------|------------------|
|------------------|------------------|------------------|-4-----4-----4----|
|------------------|------------------|-3-----3-----3----|-3-----3-----3----|
|-4---4---4---4----|-3---3---3---3----|-3-----3-----3----|-1-----1-----1----|
|-4---4---4---4----|-3---3---3---3----|-1-----1-----1----|------------------|
|-2---2---2---2----|-1---1---1---1----|------------------|------------------|


  1 + 2 + 3 + 4 +    1 + 2 + 3 + 4 +    1 + 2 + 3 + 4 + 
|------------------|------------------|------------------|
|------------------|------------------|------------------|
|------------------|------------------|-3----------------|
|-4---4---4---4----|-3---3---3---3----|-3----------------|
|-4---4---4---4----|-3---3---3---3----|-1----------------|
|-2---2---2---2----|-1---1---1---1----|------------------|
comments
We did not receive enough feedback on this tab! Please rate:
print report bad tab
1 2 3 4 5
I want to post or [tab]
guest
You may want to rate the tab now too:
select rating
Please do not post tabs as comments. Select "correction" instead!