Oops, an error
Loading. Please wait.

Youll Rebel To Anything Tab

2,036 views 12 this week
1 commentread comment
1 2 3 4 5
excellent!
x 4
Autoscroll
+/-
esc
set tempo
stop
Contributor
Difficulty
Tuning
novice
D A D G B E
Hey! There's an official Ultimate Guitar app which is ideal
for learning songs when you're away from computer. Get the app
WARNING: You are trying to view
                                    content from Ultimate-Guitar.com
                                    in an unauthorized application,
                                    which is prohibited.

                                    Please use an official Ultimate
                                    Guitar Tabs application for iPhone,
                                    iPad or Android to access legitimate
                                    chords, guitar, bass, and drum tabs
                                    from Ultimate-Guitar.com database.

                                    Type "ultimate guitar tabs" in Apple
                                    App Store's or Android Market's
                                    search to find the application.
Artist: Mindless Self Indulgence
Album: You'll Rebel To Anything
Year: 2005
Tabbed By: AnthonyFMiller
PM=Palm Mute


01. Shut Me UP
Tuning: Drop D

Intro/Verse 0:00, 1:06,
e|---------------------------------------------------------|
B|---------------------------------------------------------|
G|----------PM------------PM------------PM------------PM---|
D|-4-4-4-4-4/6---7-7-7-7-76---7-7-7-7-76---3-3-3-3-3/4-----|
A|-4-4-4-4-4/6---7-7-7-7-76---7-7-7-7-76---3-3-3-3-3/4-----|
D|-4-4-4-4-4/6---7-7-7-7-76---7-7-7-7-76---3-3-3-3-3/4-----|3X
The bass, the rock, the mic, the metal...

e|-------------------------------------------------|
B|-------------------------------------------------|
G|----------PM------------PM------------PM---------|
D|-4-4-4-4-4/6---7-7-7-7-76---7-7-7-7-76---3-4-----|
A|-4-4-4-4-4/6---7-7-7-7-76---7-7-7-7-76---3-4-----|
D|-4-4-4-4-4/6---7-7-7-7-76---7-7-7-7-76---3-4-----|1X

Chorus   0:33, 1:29, 2:23
e|-----------------------------------------------------------------|
B|-----------------------------------------------------------------|
G|-----------------------------------------------------------------|
D|-4-4-4-4/7-7-7-76-6-6-6-3---3-3---4-4-4-4/7-7-7-76-6-6-6-3-3-----|
A|-4-4-4-4/7-7-7-76-6-6-6-3---3-3---4-4-4-4/7-7-7-76-6-6-6-3-3-----|
D|-4-4-4-4/7-7-7-76-6-6-6-3---3-3---4-4-4-4/7-7-7-76-6-6-6-3-3-----|
I can't wait for you to...

After Chorus   0:55
e|-----------------------------------------------------------|
B|-----------------------------------------------------------|
G|-----------------------------------------------------------|
D|-6-6-6-6-6-6-6-6-6-6-6-6-6-6-6-6-4-4-4-4-4-4-4-4---2--2--2-|
A|-4-4-4-4-4-4-4-4-4-4-4-4-4-4-4-4-2-2-2-2-2-2-2-2---0--0--0-|
D|-----------------------------------------------------------|

e|-----------------------------------------------------|
B|-----------------------------------------------------|
G|-----------------------------------------------------|
D|-6-6-6-6-6-6-6-6-6-6-6-6-6-6-6-6-4-4-4-4-4-4-4-4---2-|
A|-4-4-4-4-4-4-4-4-4-4-4-4-4-4-4-4-2-2-2-2-2-2-2-2---0-|
D|-----------------------------------------------------|

Fill 2   1:50
e|-------------------------------------------------------------------------|
B|-------------------------------------------------------------------------|
G|-------------------------------------------------------------------------|
D|-4-4-4-4-4-4-4-4-2-2-2-2-2-2-2-2-6-6-6-6-6-6-6-6-10-10-10-10-11-11-11-11-|
A|-2-2-2-2-2-2-2-2-0-0-0-0-0-0-0-0-4-4-4-4-4-4-4-4--8--8--8--8--9--9--9--9-|
D|-------------------------------------------------------------------------|

Outro   2:23
e|---------------------------------------------------------|
B|---------------------------------------------------------|
G|---------------------------------------------------------|
D|-4-4-4-4-4/6---7-7-7-7-76---7-7-7-7-76---3-3-3-3-3/4-----|
A|-4-4-4-4-4/6---7-7-7-7-76---7-7-7-7-76---3-3-3-3-3/4-----|
D|-4-4-4-4-4/6---7-7-7-7-76---7-7-7-7-76---3-3-3-3-3/4-----|3X

e|-------------------------------------------------|
B|-------------------------------------------------|
G|-------------------------------------------------|
D|-4-4-4-4-4/6---7-7-7-7-76---7-7-7-7-76---3-4-----|
A|-4-4-4-4-4/6---7-7-7-7-76---7-7-7-7-76---3-4-----|
D|-4-4-4-4-4/6---7-7-7-7-76---7-7-7-7-76---3-4-----|1X

The bass, the rock
The mic, the treble
I like my coffee black
Just like my metal

The bass, the rock
The mic, the treble
I like my coffee black
Just like my metal

I can't wait for you to knock me up
In a minute, minute
In a fuckin' minute

I can't wait for you to knock me up
In a minute, minute
In a second

I can't wait for you to shut me up
And make me hip like badass
I can't wait for you to shut me up
Shut it up

I can't wait for you to shut me up
And make me hip like badass
I can't wait for you to shut me up
Shut it up

The bass, the rock
The mic, the treble
I like my coffee black
Just like my metal

The bass, the rock
The mic, the treble
I like my coffee black
Just like my metal

I can't wait for you to knock me up
In a minute, minute
In a fucking minute

I can't wait for you to knock me up
In a minute, minute
In a second

I can't wait for you to shut me up
And make me hip like badass
I can't wait for you to shut me up
Shut it up

I can't wait for you to shut me up
And make me hip like badass
I can't wait for you to shut me up
Shut it up

I don't buy your body right now (right now)
I'm almost over my body right now (now)
I'm on my way to the party right now (right now)

I don't buy your body right now (right now)
I'm almost over my body right now (now)
I'm on my way to the party right now (right now)

Because the break, the break, the break

I can't wait for you to shut me up
And make me hip like badass
I can't wait for you to shut me up
Shut it up

I can't wait for you to shut me up
And make me hip like badass
I can't wait for you to shut me up
Shut it up

02. 1989
Tuning: Drop D

Intro (Keyboard)   0:00
e|-------|
B|-13-14-|
G|-------|
D|-------|
A|-------|
D|-------|

Verse   0:03,
e|---------------------------------------------------------------|
B|---------------------------------------------------------------|
G|---------------------------------------------------------------|
D|-8--8--8--8--8-8--8---7---6------8--8--8--8--8-8--8---7---6----|
A|-8--8--8--8--8-8--8---7---6------8--8--8--8--8-8--8---7---6----|
D|-8--8--8--8--8-8--8---7---6------8--8--8--8--8-8--8---7---6----|
   Goodbye 1989 I wanna be the one in control...

Chorus   0:13,
e|------------------------------------------------------------------------------|
B|------------------------------------------------------------------------------|
G|------------------------------------------------------------------------------|
D|-8-8-8-8-8-8-8-8-106---3-3-3-3-3-5-6-6-6-6-6-7-8-8-8-8-8-10-11-11-11-11-11----|
A|-8-8-8-8-8-8-8-8-106---3-3-3-3-3-5-6-6-6-6-6-7-8-8-8-8-8-10-11-11-11-11-11----|
D|-8-8-8-8-8-8-8-8-106---3-3-3-3-3-5-6-6-6-6-6-7-8-8-8-8-8-10-11-11-11-11-11----|
   It's not your turn, it's not your turn yet.

   0:29
e|----------------------------------------------------------------------------|
B|----------------------------------------------------------------------------|
G|----------------------------------------------------------------------------|
D|-11----10----8--8--8-13--13--13--11----10----8------------------------------|
A|-11----10----8--8--8-13--13--13--11----10----8------------------------------|
D|-11----10----8--8--8-13--13--13--11----10----8------------------------------|
   My body's not even cold

Verse  0:37
e|---------------------------------------------------------------|
B|---------------------------------------------------------------|
G|---------------------------------------------------------------|
D|-8--8--8--8--8-8--8---7---6------8--8--8--8--8-8--8---7---6----|
A|-8--8--8--8--8-8--8---7---6------8--8--8--8--8-8--8---7---6----|
D|-8--8--8--8--8-8--8---7---6------8--8--8--8--8-8--8---7---6----|
   Goodbye 1989 I wanna be the one in control...

Chorus   0:47
e|------------------------------------------------------------------------------|
B|------------------------------------------------------------------------------|
G|------------------------------------------------------------------------------|
D|-8-8-8-8-8-8-8-8-106---3-3-3-3-3-5-6-6-6-6-6-7-8-8-8-8-8-10-11-11-11-11-11----|
A|-8-8-8-8-8-8-8-8-106---3-3-3-3-3-5-6-6-6-6-6-7-8-8-8-8-8-10-11-11-11-11-11----|
D|-8-8-8-8-8-8-8-8-106---3-3-3-3-3-5-6-6-6-6-6-7-8-8-8-8-8-10-11-11-11-11-11----|
   It's not your turn, it's not your turn yet.

   1:02
e|----------------------------------------------------------------------------|
B|----------------------------------------------------------------------------|
G|----------------------------------------------------------------------------|
D|-11----10----8--8--8-13--13--13--11----10----8------------------------------|
A|-11----10----8--8--8-13--13--13--11----10----8------------------------------|
D|-11----10----8--8--8-13--13--13--11----10----8------------------------------|
   My body's not even cold

   1:10                   *Hold
e|----------------------------------------------------------------------------|
B|----------------------------------------------------------------------------|
G|------------------------*--------------------*------------------------------|
D|-3--3-3-4--4-4-6--6-6-6-6------3--3-3-4--4-4-6------------------------------|
A|-3--3-3-4--4-4-6--6-6-6-6------3--3-3-4--4-4-6------------------------------|
D|-3--3-3-4--4-4-6--6-6-6-6------3--3-3-4--4-4-6------------------------------|2X
   Some babies wanna get down like this

   1:32
e|-----------------------------------------------------|
B|-----------------------------------------------------|
G|-----------------------------------------------------|
D|-3-3-3-3-3-5-6-6-6-6-6-7-8-8-8-8-8-10-11-11-11-11-11-|
A|-3-3-3-3-3-5-6-6-6-6-6-7-8-8-8-8-8-10-11-11-11-11-11-|
D|-3-3-3-3-3-5-6-6-6-6-6-7-8-8-8-8-8-10-11-11-11-11-11-|2X
   Back off you little shits

   1:43                                        *Hold
e|----------------------------------------------------------------------------|
B|----------------------------------------------------------------------------|
G|---------------------------------------------*------------------------------|
D|-11----10----8--8--8-13--13--13--11----10----8------------------------------|
A|-11----10----8--8--8-13--13--13--11----10----8------------------------------|
D|-11----10----8--8--8-13--13--13--11----10----8------------------------------|2X
   My body's not even cold


Goodbye 1989 I wanna be the one in control
Rock my white shoes polo tie
The next big thing for 5 years running

It's not your turn
It's not your turn....yet

Back off you little shits
Gnawing at my fists
I see they breed you by the boatload

Back off you little hoes
Get em all onboard
And let me beat you to the fucking punch

My body's not even cold
My act is just getting old

Goodbye 1989 I wanna be the one in control
Rock my white shoes polo tie
The next big thing for 5 years running

It's not your turn
It's not your turn....yet

Back off you little shits
Gnawing at my fists
I see they breed you by the boatload

Back off you little hoes
Get em all onboard
And let me beat you to the fucking punch

My body's not even cold
My act is just getting old

Some babies wanna get down like this
We eat what we like

Some babies wanna get down like this
We eat what we like
Back off you little shits
Gnawing at my fists
I see they breed you by the boatload

Back off you little hoes
Get em all onboard
And let me beat you to the fucking punch

My body's not even cold
My act is just getting old

03. Straight To Video
Tuning: Drop D

   0:00 (Synth Intro)
e|---------------------------------------------------------------|
B|---------------------------------------------------------------|
G|---------------------------------------------------------------|
D|---------------------------------------------------------------|
A|---------------------------------------------------------------|
D|-2---4-5---7-10---9-7---0-2----2---4-5---7-10---9-7------------|

   Verse   0:16
e|---------------------------------------------------------------|
B|---------------------------------------------------------------|
G|---------------------------------------------------------------|
D|-2-2-2---5-5-5---7-7-7---5-5-5---2-2-2---5-5-5---7-7-7---2-2-2-|
A|-2-2-2---5-5-5---7-7-7---5-5-5---2-2-2---5-5-5---7-7-7---2-2-2-|
D|-2-2-2---5-5-5---7-7-7---5-5-5---2-2-2---5-5-5---7-7-7---2-2-2-|
   All aboard, hit the road, all the bullshit, can't be ignored

   Chorus   0:31
e|---------------------------------------------------------------|
B|---------------------------------------------------------------|
G|---------------------------------------------------------------|
D|-2--2--2--2/7--7--5---5--5--9--9--9--9--4-4--2-----------------|
A|-2--2--2--2/7--7--5---5--5--9--9--9--9--4-4--2-----------------|
D|-2--2--2--2/7--7--5---5--5--9--9--9--9--4-4--2-----------------|
All the problems make me wanna go like a bad girl straight to video


e|---------------------------------------------------------------|
B|---------------------------------------------------------------|
G|---------------------------------------------------------------|
D|---------------------------------------------------------------|
A|---------------------------------------------------------------|
D|-2---4-5---7-10---9-7---0-2----2---4-5---7-10---9-7------------|

   1:02
e|---------------------------------------------------------------|
B|---------------------------------------------------------------|
G|---------------------------------------------------------------|
D|-2-2-2---5-5-5---7-7-7---5-5-5---2-2-2---5-5-5---7-7-7---2-2-2-|
A|-2-2-2---5-5-5---7-7-7---5-5-5---2-2-2---5-5-5---7-7-7---2-2-2-|
D|-2-2-2---5-5-5---7-7-7---5-5-5---2-2-2---5-5-5---7-7-7---2-2-2-|2X
   Hiney-ho, Here we go, No solution, Strong undertow

   Chorus  1:18
e|---------------------------------------------------------------|
B|---------------------------------------------------------------|
G|---------------------------------------------------------------|
D|-2--2--2--2/7--7--5---5--5--9--9--9--9--4-4--2-----------------|
A|-2--2--2--2/7--7--5---5--5--9--9--9--9--4-4--2-----------------|
D|-2--2--2--2/7--7--5---5--5--9--9--9--9--4-4--2-----------------|2X
   All the problems make me wanna go like a bad girl straight to video

         1:33
e|---------------------------------------------------------------|
B|---------------------------------------------------------------|
G|---------------------------------------------------------------|
D|---------------------------------------------------------------|
A|---------------------------------------------------------------|
D|-2---4-5---7-10---9-7--------2---4-5---7-10---9-7--------------|

   2:04
e|----------------------------------|  |-----------------------|
B|----------------------------------|  |-----------------------|
G|----------------------------------|  |-----------------------|
D|----------------------------------|  |-----------------------|
A|-------2-------2-0---0---0--------|  |---------------2-------|
D|-2-2-5---2-2-5-----5---5---5-7-2--|3X|-2-2-5---2-2-5---5-----|1X

   Outro  3:18
e|-----------------------|  |------------------------------------|
B|-----------------------|  |------------------------------------|
G|-----------------------|  |------------------------------------|
D|-2---5-5---10---12-12--|  |-2---5-5---10---12-12-12---2--------|
A|-2---5-5---10---12-12--|  |-2---5-5---10---12-12-12---2--------|
D|-2---5-5---10---12-12--|3X|-2---5-5---10---12-12-12---2--------|


All aboard
Hit the road
All the bullshit
Can't be ignored
It's hard to place
In my face
No emotion

All the problems make me wanna go
Like a bad girl straight to video
Little darling welcome to the show
You're a failure played in stereo

Hiney-ho
Here we go
No solution
Strong undertow
Quite unfair
Quite a pair
No box office

All the problems make me wanna go
Like a bad girl straight to video
Little darling welcome to the show
You're a failure played in stereo

I'm never noticed
No, never noticed
You're so amazing
So amazing
I'm never noticed
No, never noticed
You're so amazing
So amazing

All aboard
Hit the road
All aboard
Here we go

All the problems make me wanna go
Like a bad girl straight to video
Little darling welcome to the show
You're a failure played in stereo

I'm never noticed
No, never noticed
You're so amazing
So amazing
I've never said it
No, never said
You're suffocating
Suffocating
I'm never noticed
No, never noticed
Your beauty's fading
F-f-fading

04. Tom Sawyer
Tuning: 7 String Standard (Low to High: BEADGBe)

   Intro   0:00
e|-----|
B|-----|
G|-----|
D|-----|
A|--2--|
E|--2--|
B|--0--|2X  Let ring
A modern-day warrior mean mean stride todays Tom Sawyer....

   Verse   0:07
e|-----------------------------------------------------------------|
B|-----------------------------------------------------------------|
G|-----------------------------------------------------------------|
D|-------------9--------------7--------------2-------------5-------|
A|-------------9--------------7--------------2-------------5-------|
E|-------------7--------------5--------------0-------------3-------|
B|--0--0---0---0---0--0---0--------0--0---0------0--0---0----------|2X
No his mind is not for rent to any god or government....


e|--------------|
B|--------------|
G|--------------|
D|--5--4--2-----|
A|--5--4--2--5--|
E|--3--2--0--5--|
B|-----------3--|1X


e|----------------------------------|-------------------------------|
B|----------------------------------|-------------------------------|
G|----------------------------------|-------------------------------|
D|----------------------------------|-------------------------------|
A|-------------------22-------------|-----------------2-2-----------|
E|----------------------3-232-0-----|---------------------3---3-3-2-|
B|-00-22-02-33-55-35------------3-2-|-0-0-2---3-3-5-----------------|
What you say about his company


e|---------------------------------------------------------------------|
B|---------------------------------------------------------------------|
G|---------------------------------------------------------------------|
D|-4---4---4--2----4--2-----2---9--------------------------------------|
A|-4---4---4--2--5-4--2--5--2---9--------------------------------------|
E|-2---2---2--0--5-2--0--5--0---7--------------------------------------|
B|---------------3-------3---------------------------------------------|
The world is, the world is Love and life are deep Maybe as his skies are wide


e|-----|
B|-----|
G|-----|
D|-----|
A|--2--|
E|--2--|
B|--0--|2X  Let ring
The tom with the sawyer with the high on you...


e|---------------|   |---------|
B|---------------|   |---------|
G|---------------|   |---------|
D|---------------|   |---------|
A|-7-4-6---4-----|   |---------|
E|-------7---5---|   |-----5-7-|
B|---------------|13X|-5-7-----|
Doo doo doo doo doo – doo doo doo doo doo doo

   2:09
e|-----------------------------------------------------------------|
B|-----------------------------------------------------------------|
G|-----------------------------------------------------------------|
D|-----------------------------------------------------------------|
A|-----------------------------------------------------------------|
E|-0-7--9-9-9--0-7--9-9-9--0-7--9-9-9--0-7--9-9-9--0---------------|
B|-----------------------------------------------------------------|

   Outro   2:16
e|---------------|  |---------|
B|---------------|  |---------|
G|---------------|  |---------|
D|---------------|  |---------|
A|-7-4-6---4-----|  |---------|
E|-------7---5---|  |-----5-7-|
B|---------------|7X|-5-7-----|


A modern-day warrior
Mean mean stride,
Today's Tom Sawyer
Mean mean pride.

No his mind is not for rent
To any god or government
Always hopeful, yet discontent
He knows changes aren't permanent
But change is

What you say about his company
Is what you say about society
Catch the mist, catch the myth
Catch the mystery, catch the drift
Ohh… Ohh… Ohh

The world is, the world is
Love and life are deep
Maybe as his skies are wide

Today's Tom Sawyer
He gets high on you
And the space he invades
He gets by on you

Doo doo doo doo doo – doo doo doo doo doo doo
Pow pow pow pow
Woo ah woo woo ah
Woo ah woo woo ah
Woo ah woo woo ah
Woo ah woo woo ah

No his mind is not for rent
To any god or government
Always hopeful, yet discontent
He knows changes aren't permanent
But change is

What you say about his company
Is what you say about society
Catch the witness, catch the wit
Catch the spirit, catch the spit
Ohh.…

The world is, the world is
Love and life are deep
Maybe as his eyes are wide

Exit the warrior
Today's Tom Sawyer
He gets high on you
And the energy you trade
He gets right on to the friction of the day
That day
Hoo hoo
That day
Ha ha
That day
Oh That day – That
Pow pow pow


05. You'll Rebel To Anything (As Long As It's Not Challenging)
Tuning: Drop D

   0:05
e|---------------------------------|
B|---------------------------------|
G|-------9-9-8-8----------9-9-8-8--|
D|-8-8-8-9-9-8-8----8-8-8-9-9-8-8--|
A|-8-8-8-7-7-6-6----8-8-8-7-7-6-6--|
D|-8-8-8------------8-8-8----------|
   (You don't mean it)

   0:10
e|---------------------------------|
B|---------------------------------|
G|-6--6--6--6-10----11-11-11-11--8-|
D|-6--6--6--6-10----11-11-11-11--8-|
A|-4--4--4--4--8-----9--9--9--9--6-|
D|---------------------------------|2X
   You need a uniform, so you won't be ignored

   0:19
e|---------------------------------|
B|---------------------------------|
G|-9-9-9-8-9-8---------------------|
D|-9-9-9-8-9-8---------------------|
A|-7-7-7-6-7-6---------------------|
D|---------------------------------|1X

   0:21
e|---------------------------------------------|-------------|
B|----------------------8--8--8--8-10-10-10-10-|-------------|
G|-6-6-6-6-10-10-10-10--8--8--8--8-10-10-10-10-|-9-9-9-8-9-8-|
D|-6-6-6-6-10-10-10-10--6--6--6--6--8--8--8--8-|-9-9-9-8-9-8-|
A|-4-4-4-4--8--8--8--8-------------------------|-7-7-7-6-7-6-|
D|---------------------------------------------|-------------|
It's time that you invested in a bottle of poison

   0:33
e|---------------------------------|
B|---------------------------------|
G|-------9-9-8-8----------9-9-8-8--|
D|-8-8-8-9-9-8-8----8-8-8-9-9-8-8--|
A|-8-8-8-7-7-6-6----8-8-8-7-7-6-6--|
D|-8-8-8------------8-8-8----------|

   0:47
e|---------------------------------|
B|---------------------------------|
G|-------9-9-8-8----------9-9-8-8--|
D|-8-8-8-9-9-8-8----8-8-8-9-9-8-8--|
A|-8-8-8-7-7-6-6----8-8-8-7-7-6-6--|
D|-8-8-8------------8-8-8----------|
   (You don't mean it)

   0:53
e|---------------------------------|
B|---------------------------------|
G|-6--6--6--6-10----11-11-11-11--8-|
D|-6--6--6--6-10----11-11-11-11--8-|
A|-4--4--4--4--8-----9--9--9--9--6-|
D|---------------------------------|2X
   You need a uniform, so you won't be ignored

   1:01
e|---------------------------------|
B|---------------------------------|
G|-9-9-9-8-9-8---------------------|
D|-9-9-9-8-9-8---------------------|
A|-7-7-7-6-7-6---------------------|
D|---------------------------------|1X

   1:04
e|---------------------------------------------|-------------|
B|----------------------8--8--8--8-10-10-10-10-|-------------|
G|-6-6-6-6-10-10-10-10--8--8--8--8-10-10-10-10-|-9-9-9-8-9-8-|
D|-6-6-6-6-10-10-10-10--6--6--6--6--8--8--8--8-|-9-9-9-8-9-8-|
A|-4-4-4-4--8--8--8--8-------------------------|-7-7-7-6-7-6-|
D|---------------------------------------------|-------------|
It's time that you invested in a bottle of poison

   1:15
e|---------------------------------|
B|---------------------------------|
G|-------9-9-8-8----------9-9-8-8--|
D|-8-8-8-9-9-8-8----8-8-8-9-9-8-8--|
A|-8-8-8-7-7-6-6----8-8-8-7-7-6-6--|
D|-8-8-8------------8-8-8----------|

   1:30
e|---------------------------------|
B|---------------------------------|
G|-------9-9-8-8----------9-9-8-8--|
D|-8-8-8-9-9-8-8----8-8-8-9-9-8-8--|
A|-8-8-8-7-7-6-6----8-8-8-7-7-6-6--|
D|-8-8-8------------8-8-8----------|

   2:22
e|---------------------------------|
B|---------------------------------|
G|-------9-9-8-8----------9-9-8-8--|
D|-8-8-8-9-9-8-8----8-8-8-9-9-8-8--|
A|-8-8-8-7-7-6-6----8-8-8-7-7-6-6--|
D|-8-8-8------------8-8-8----------|2X


(you don't mean it)

You need a uniform
So you won't be ignored
You are affected
And so you're accepted

It's time that you invested in a bottle of poison
So we don't have to hear about you bitchin and moanin
You think you could afford a fuckin bottle of asprin

Boo fuckin hoo you're not the only one whose life's a piece of shit
And yet miraculously somehow we all seem to deal with it
Did anybody think that you would really seriously slit your wrists
In fact I think that everybody thinks you're seriously full of shit

(you don't mean it)

You need a uniform
So you won't be ignored
You are affected
And so you're accepted

It's time that you invested in a bottle of poison
So we don't have to hear about you bitchin and moanin
You think you could afford a fuckin bottle of asprin

You think you're saying something relevant as you connect the dots
You never realized you have to get in line to suck a cock
You're telling me that fifty million screaming fans are never wrong
I'm telling you that fifty million screaming fans are fucking morons

(you don't mean it)

so you're accepted
so you're accepted
so you're accepted
so you're accepted

Boo fuckin hoo you're not the only one whose life's a piece of shit
And yet miraculously somehow we all seem to deal with it
Did anybody think that you would really seriously slit your wrists
In fact I think that everybody thinks you're seriously full of shit
You think you're saying something relevant as you connect the dots
You never realized you have to get in line to suck a cock
You're telling me that fifty million screaming fans are never wrong
I'm telling you that fifty million screaming fans are fucking morons x2

(you don't mean it)


06. What Do They Know?
Tuning: Drop D

   0:00   Intro - Lyrics

   Verse   0:18
e|--------------------------------------|
B|--------------------------------------|
G|------4-4-5-5-------------4-4-5-5-----|
D|-2-2--4-4-5-5-4-4----2-2--4-4-5-5-4-4-|
A|-2-2--2-2-3-3-4-4----2-2--2-2-3-3-4-4-|
D|-2-2----------4-4----2-2----------4-4-|
yo yo word,my tendency's never returned

   0:31
e|--------------------------------------|
B|--------------------------------------|
G|-5--4--7--7-5-4-2---2-----------------|
D|-5--4--7--7-5-4-2-5-2-----------------|
A|-3--2--5--5-3-2-0-5-0-----------------|
D|------------------5-------------------|
Oh the facts the consequence

   0:47
e|--------------------------------------|
B|--------------------------------------|
G|-3-3-3-3-3-3-3-3-3--------------------|
D|-3-3-3-3-3-3-3-3-3--------------------|
A|-1-1-1-1-1-1-1-1-1--------------------|
D|--------------------------------------|
im quite a wreck, im quite a mess

   1:46
e|--------------------------------------|
B|--------------------------------------|
G|------4-4-5-5-------------4-4-5-5-----|
D|-2-2--4-4-5-5-4-4----2-2--4-4-5-5-4-4-|
A|-2-2--2-2-3-3-4-4----2-2--2-2-3-3-4-4-|
D|-2-2----------4-4----2-2----------4-4-|


Beat me up
Oh Beat me down
Mess me up beyond all recognition
For what its worth
I'd do it again
with no consequence I will do it again
ohhh no
so hunt me down (down down)
Jump the gun bust a cap hit the ground

yo yo
word,my tendency's never returned
recieved like a big fat jerk
I been silly but not a sir
cuz you know thats what I heard
tell ya thoughts thats mostly pure
so everything's splendid,sure
I'm just there to injure

Oh the facts
the consequence
what do they know about that

On the track
behind the back
what do they know about that

im quite a wreck
im quite a mess

Well Beat me up
Oh Beat me down
mess me up beyond all recognition
for what its worth
I'd do it again
with no consequence i wll do it again
ohhh no
so hunt me down (down down down)

Jump the gun bust a cap hit the ground

yo yo
word,my tendency's never returned
recieved like a big fat jerk
I been silly but not a sir
cuz you know thats what I heard
tell ya thoughts thats mostly pure
so everything's splendid,sure
I'm just there to injure

oh the facts
the consequence
what do they know about that
on the track
behind the back
what do they know about that

im quite a wreck
im quite a mess

hey!  I'm someone to stab in the back
hey!  I'm someone to fall through the cracks
hey!  I'm someone to punch in the face
hey!  I'm someone to fall through the cracks

resent all over my face
resent all over my face
(turning into rubbed in all over my face)

jump the gun
bust a cap
hit the ground

yo yo
word,my tendency's never returned
recieved like a big fat jerk
I been silly but not a sir
cuz you know thats what I heard
tell ya thoughts thats mostly pure
No everything's splendid,sure
I'm just there to injure

oh the facts
the consequence
what do they know about that?
on the track
behind the back
what do they know about that?

im quite a threat
im quite a mess


07. Stupid MF
Tuning: Drop D

   Intro   0:00
e|-----------------|
B|-----------------|
G|---5---5---5-----|
D|-6---5---5-----3-|
A|-----------------|
D|-----------------|

   Verse   0:06
e|---------------------------|
B|---------------------------|
G|---------------------------|
D|-6--10--3--6--10--3--------|
A|-6--10--3--6--10--3--------|
D|-6--10--3--6--10--3--------|
   I said, Is it simple enough for you,

   0:19
e|---------------------------|
B|---------------------------|
G|------------2--------------|
D|-8--7--2--2-2--------------|
A|-8--7--2--2-0--------------|
D|-8--7--2--2----------------|
   Should I talk slower like you're a retard?

   0:25
e|---------------------------|
B|---------------------------|
G|-4-4--4-4-7-7--------------|
D|-4-4--4-4-7-7-7-7----------|
A|-2-2--2-2-5-5-7-7----------|
D|--------------7-7----------|4x
   You think, think you're dumb I think you're smart

   0:38
e|---------------------------|
B|---------------------------|
G|-------5--7--------5--7----|
D|-5--8--5--7--5--8--5--7----|
A|-5--8--3--5--5--8--3--5----|
D|-5--8--------5--8----------|
   Get it? Get it? Get it? You just don't get it.

   0:44
e|---------------------------|
B|---------------------------|
G|---------------------------|
D|-8--6--5-----5--8--6--5----|
A|-8--6--5-----5--8--6--5----|
D|-8--6--5-----5--8--6--5----|
   Stupid motherfucker

   0:55
e|---------------------------|
B|---------------------------|
G|---------------------------|
D|-6--10--3--6--10--3--------|
A|-6--10--3--6--10--3--------|
D|-6--10--3--6--10--3--------|
   Is it simple enough for you,

   1:08
e|---------------------------|
B|---------------------------|
G|------------2--------------|
D|-8--7--2--2-2--------------|
A|-8--7--2--2-0--------------|
D|-8--7--2--2----------------|
   Should I talk slower like you're a retard?

   1:14
e|---------------------------|
B|---------------------------|
G|-4-4--4-4-7-7--------------|
D|-4-4--4-4-7-7-7-7----------|
A|-2-2--2-2-5-5-7-7----------|
D|--------------7-7----------|2X
   You think, think you're dumb I think you're smart


   1:27
e|---------------------------|
B|---------------------------|
G|-------5--7--------5--7----|
D|-5--8--5--7--5--8--5--7----|
A|-5--8--3--5--5--8--3--5----|
D|-5--8--------5--8----------|
   Get it? Get it? Get it? You just don't get it.

   1:33
e|---------------------------|
B|---------------------------|
G|---------------------------|
D|-8--6--5-----5--8--6--5----|
A|-8--6--5-----5--8--6--5----|
D|-8--6--5-----5--8--6--5----|
   Stupid motherfucker


   1:50
e|------------------------------------------|
B|------------------------------------------|
G|------------------------------------------|
D|-5--5-5---8--8-8---7--7-7---10--10-10-----|
A|-5--5-5---8--8-8---7--7-7---10--10-10-----|
D|-5--5-5---8--8-8---7--7-7---10--10-10-----|2X
   It's under your nose

   2:00
e|---------------------------|
B|---------------------------|
G|---------------------------|
D|-8--6--5-----5--8--6--5----|
A|-8--6--5-----5--8--6--5----|
D|-8--6--5-----5--8--6--5----|
   Stupid motherfucker

   2:11
e|---------------------------|
B|---------------------------|
G|---------------------------|
D|-6--10--3--6--10--3--------|
A|-6--10--3--6--10--3--------|
D|-6--10--3--6--10--3--------|
   nah nah nah nah nah...


I said,

Is it simple enough for you, does everybody understand me, are you all still followin' me?
Is it simple enough for you does everybody understand me, are you all still...still...
Is it simple enough for you does everybody understand me are you all still followin' me?
Is it simple enough for you does everybody understand me, are you all still...still..

Should I talk slower like you're a retard?
Should I talk slower like you're retarded?

You think, think you're dumb
I think you're smart
No, wait, I lied
I think you're dumb
They think you're dumb
I think you're smart
No, wait, I lied
I think you're dumb

Get it?
Get it?
Get it?
You just don't get it!
Get it?
Get it?
Get it?

Stupid motherfucker
You stupid motherfucker
You stupid motherfuck...er
You stupid motherfucker
You stupid motherfucker
You stupid motherfuck...

Is it simple enough for you does everybody understand me are you all still followin' me?
Is it simple enough for you does everybody understand me, are you all still...still..
Is it simple enough for you does everybody understand me are you all still followin' me?
Is it simple enough for you does everybody understand me, are you all still...still..

Should I talk slower like you're a retard?
Should I talk slower like you're retarded?

You think, think you're dumb
I think you're smart
No, wait, I lied
I think you're dumb
They think you're dumb
I think you're smart
No, wait, I lied
I think you're dumb

Get it?
Get it?
Get it?
You just don't get it!
Get it?
Get it?
Get it?

Stupid motherfucker
You stupid motherfucker
You stupid motherfuck...er
You stupid motherfucker
You stupid motherfucker
You stupid motherfuck...

It's under your nose x4

It's over your head x4

It's out of your reach x3

You stupid motherfucker
You stupid motherfucker
You stupid motherfuck...er
You stupid motherfucker
You stupid motherfucker
You stupid motherfuck...


nah nah nah nah nah nah nah nah nah nah nah


08. 2 Hookers And An Eightball
Tuning: Drop D


   0:08
e|----------------------|
B|----------------------|
G|-6--4-4-4----6--4-4-4-|
D|-6--4-4-4----6--4-4-4-|
A|-4--2-2-2----4--2-2-2-|
D|----------------------|
   Two hookers and an eight ball...

   0:14
e|-------------------------------------------------|
B|-------------------------------------------------|
G|-5-5--5-5--5-5--8-8--4-4-4-4--5-5--5-5--5-5--8-8-|
D|-5-5--5-5--5-5--8-8--4-4-4-4--5-5--5-5--5-5--8-8-|
A|-3-3--3-3--3-3--6-6--2-2-2-2--3-3--3-3--3-3--6-6-|
D|-------------------------------------------------|
   I definitely give myself props

   0:26
e|-------------------------------------------------|
B|-------------------------------------------------|
G|-6----6----6--4--4-4--4-4--4-4-4-----------------|
D|-6----6----6--4--4-4--4-4--4-4-4-----------------|
A|-4----4----4--2--2-2--2-2--2-2-2-----------------|
D|-------------------------------------------------|
   eight ball nigga for all the stolen goods

   0:35
e|----------------------|
B|----------------------|
G|-6--4-4-4----6--4-4-4-|
D|-6--4-4-4----6--4-4-4-|
A|-4--2-2-2----4--2-2-2-|
D|----------------------|
   Two hookers and an eight ball...

   0:42
e|-------------------------------------------------|
B|-------------------------------------------------|
G|-5-5--5-5--5-5--8-8--4-4-4-4--5-5--5-5--5-5--8-8-|
D|-5-5--5-5--5-5--8-8--4-4-4-4--5-5--5-5--5-5--8-8-|
A|-3-3--3-3--3-3--6-6--2-2-2-2--3-3--3-3--3-3--6-6-|
D|-------------------------------------------------|
   I'm standing up to all my abuse

   0:54
e|-------------------------------------------------|
B|-------------------------------------------------|
G|-6----6----6--4--4-4--4-4--4-4-4-----------------|
D|-6----6----6--4--4-4--4-4--4-4-4-----------------|
A|-4----4----4--2--2-2--2-2--2-2-2-----------------|
D|-------------------------------------------------|
   eight ball baby, for all the fine ladies

   1:01
e|----------------------|
B|----------------------|
G|-6--4-4-4----6--4-4-4-|
D|-6--4-4-4----6--4-4-4-|
A|-4--2-2-2----4--2-2-2-|
D|----------------------|
   Two hookers and an eight ball...

   1:12
e|--------------------------------------------------|
B|--------------------------------------------------|
G|-5----5----4--5--4--5--4-5-4-5-4-5-4-5------------|
D|-5----5----4--5--4--5--4-5-4-5-4-5-4-5------------|
A|-3----3----2--3--2--3--2-3-2-3-2-3-2-3------------|
D|--------------------------------------------------|
   Saturday, saturday, saturday what a day...

   1:19
e|-------------------------------------------------|
B|-------------------------------------------------|
G|-------------------------------------------------|
D|-6--7--6--9-9-9-9-9-9----------------------------|
A|-6--7--6--9-9-9-9-9-9----------------------------|
D|-6--7--6--9-9-9-9-9-9----------------------------|3X
   How 'bout that coke you want that coke...

   1:31
e|-------------------------------------------------|
B|-------------------------------------------------|
G|-4-4---4-4---4-4-4-------------------------------|
D|-4-4---4-4---4-4-4-------------------------------|
A|-2-2---2-2---2-2-2-------------------------------|
D|-------------------------------------------------|
   Puppy dog, puppy dog

   1:37
e|-------------------------------------------------|
B|-------------------------------------------------|
G|-6----6----6--4--4-4--4-4--4-4-4-----------------|
D|-6----6----6--4--4-4--4-4--4-4-4-----------------|
A|-4----4----4--2--2-2--2-2--2-2-2-----------------|
D|-------------------------------------------------|
   eight ball nigga for all the stolen goods

   1:45
e|----------------------|
B|----------------------|
G|-6--4-4-4----6--4-4-4-|
D|-6--4-4-4----6--4-4-4-|
A|-4--2-2-2----4--2-2-2-|
D|----------------------|
   Two hookers and an eight ball...

   2:04               *
e|----------------------|
B|----------------------|
G|-6--4-4-4----6--4-4-5-|
D|-6--4-4-4----6--4-4-5-|
A|-4--2-2-2----4--2-2-3-|
D|----------------------|
   Two hookers and an eight ball...

(*change)


Two hookers and an eight ball
I can't believe that I write this shit
Two hookers and an eight ball
Stupid people thinkin' I am cool

I definitely give myself props
And that way I always get what I want
I always try to keep my edge
With two hookers and an eight ball

Nigga for all the stolen goods
As I rock that niggas and get freaky-deaky
With a front row ticket for all of my bitches
'Cause my mamma said to pick the very best one

Two hookers and an eight ball
I can't believe that I write this shit
Two hookers and an eight ball
It ain't that fuckin' hard

I'm standing up to all my abuse
Inexperience is where I lose
I'm struggling to keep my edge

With two hookers and an eight ball
Baby, for all the fine ladies
Falling out of my mercedes and into the eighties
With a bad case of rabies and a hot coffee

Two hookers and an eight ball
I can't believe that I write this shit
Two hookers and an eight ball
Stupid people thinkin' I am cool

How 'bout that coke
You want that coke
I thought I told you to go

How 'bout that coke
You want that coke
I thought I told you to go

How 'bout that coke
You want that coke
I thought I told you to go

Puppy dog
Puppy dog

Eight ball nigga's for all the stolen goods
I rock them bitches and get freekydeeky
With the front row tickets for all of my bitches
'Cause my momma said to pick the very best one

Two hookers and an eight ball
I can't believe that I write this shit
Two hookers and an eight ball
Stupid people thinkin' I am cool

Two hookers and an eight ball
I can't believe that I write this shit
Two hookers and an eight ball
Stupid people thinkin' I am cool


09. Prom
Tuning: Drop D

   Intro/Verse   0:00
e|---------------------------------------|
B|---------------------------------------|
G|-11--13--8----7--6---11--13--8----7--6-|
D|--9--11--6----5--4----9--11--6----5--4-|
A|---------------------------------------|
D|---------------------------------------|4X
   Everyone in highschool will worship

   0:16
e|---------------------------------------|
B|---------------------------------------|
G|-5---10---9---4---5---10---9---4-------|
D|-5---10---9---4---5---10---9---4-------|
A|-3----8---7---2---3----8---7---2-------|
D|---------------------------------------|
   You make me hard 4X

   0:26
e|---------------------------------------|
B|---------------------------------------|
G|---------------------------------------|
D|--7-7-7---5-5-5---3-3-3---2-2-2--------|
A|--7-7-7---5-5-5---3-3-3---2-2-2--------|
D|--7-7-7---5-5-5---3-3-3---2-2-2--------|3X
   So now I'm

   0:35
e|-----------------------------------------------------------------|
B|-----------------------------------------------------------------|
G|-7-7-7-7--9-9-9-9--11-11-11-11--6-6-6-6--7-7-7-7---4-4--4-4--4-4-|
D|-7-7-7-7--9-9-9-9--11-11-11-11--6-6-6-6--7-7-7-7---4-4--4-4--4-4-|
A|-5-5-5-5--7-7-7-7---9--9--9--9--4-4-4-4--5-5-5-5---2-2--2-2--2-2-|
D|-----------------------------------------------------------------|
   Cause I'll be ffucking at the best prom ever

   0:47
e|---------------------------------------|
B|---------------------------------------|
G|---------------------------------------|
D|--7-7-7---5-5-5---3-3-3---2-2-2--------|
A|--7-7-7---5-5-5---3-3-3---2-2-2--------|
D|--7-7-7---5-5-5---3-3-3---2-2-2--------|3X
   So now I'm

   0:55
e|-----------------------------------------------------------------|
B|-----------------------------------------------------------------|
G|-7-7-7-7--9-9-9-9--11-11-11-11--6-6-6-6--7-7-7-7---4-4--4-4------|
D|-7-7-7-7--9-9-9-9--11-11-11-11--6-6-6-6--7-7-7-7---4-4--4-4------|
A|-5-5-5-5--7-7-7-7---9--9--9--9--4-4-4-4--5-5-5-5---2-2--2-2------|
D|-----------------------------------------------------------------|
   Cause I'll be ffucking at the best prom ever

   1:04
e|--------------------------------------------|
B|--------------------------------------------|
G|--11-11-11-11--6-6-6-6--7-7-7-7---4-4--4-4--|
D|--11-11-11-11--6-6-6-6--7-7-7-7---4-4--4-4--|
A|---9--9--9--9--4-4-4-4--5-5-5-5---2-2--2-2--|
D|--------------------------------------------|
   (no lyrics)

   1:12
e|---------------------------------------|
B|---------------------------------------|
G|-11--13--8----7--6---11--13--8----7--6-|
D|--9--11--6----5--4----9--11--6----5--4-|
A|---------------------------------------|
D|---------------------------------------|2X
   Everyone in highschool will worship

   1:23
e|---------------------------------------|
B|---------------------------------------|
G|-5---10---9---4---5---10---9---4-------|
D|-5---10---9---4---5---10---9---4-------|
A|-3----8---7---2---3----8---7---2-------|
D|---------------------------------------|1X
   You make me hard 4X

   1:33
e|---------------------------------------|
B|---------------------------------------|
G|---------------------------------------|
D|--7-7-7---5-5-5---3-3-3---2-2-2--------|
A|--7-7-7---5-5-5---3-3-3---2-2-2--------|
D|--7-7-7---5-5-5---3-3-3---2-2-2--------|3X
   So now I'm

   1:41
e|-----------------------------------------------------------------|
B|-----------------------------------------------------------------|
G|-7-7-7-7--9-9-9-9--11-11-11-11--6-6-6-6--7-7-7-7---4-4--4-4--4-4-|
D|-7-7-7-7--9-9-9-9--11-11-11-11--6-6-6-6--7-7-7-7---4-4--4-4--4-4-|
A|-5-5-5-5--7-7-7-7---9--9--9--9--4-4-4-4--5-5-5-5---2-2--2-2--2-2-|
D|-----------------------------------------------------------------|1X
   Cause I'll be ffucking at the best prom ever

   1:55
e|----------------------------------------------------|
B|----------------------------------------------------|
G|-7-7-7-7--9-9-9-9--11-11-11-11--6-6-6-6--7-7-7-7----|
D|-7-7-7-7--9-9-9-9--11-11-11-11--6-6-6-6--7-7-7-7----|
A|-5-5-5-5--7-7-7-7---9--9--9--9--4-4-4-4--5-5-5-5----|
D|----------------------------------------------------|1X
   Best prom ever

   2:03
e|-------------------------------------------------------------------|
B|-------------------------------------------------------------------|
G|-7/97/10-10--7/97/10-10--7/97/10-10--9/1097-7----------------------|
D|-7/97/10-10--7/97/10-10--7/97/10-10--9/1097-7----------------------|
A|-5/75/-8--8--5/75/-8--8--5/75/-8--8--7/-875-5----------------------|
D|-------------------------------------------------------------------|2X
   Guess what, girlfriend, you have got nothing on me, whore

   2:14
e|-----------------------------------------------------------------|
B|-----------------------------------------------------------------|
G|-7-7-7-7--9-9-9-9--11-11-11-11--6-6-6-6--7-7-7-7---4-4--4-4--4-4-|
D|-7-7-7-7--9-9-9-9--11-11-11-11--6-6-6-6--7-7-7-7---4-4--4-4--4-4-|
A|-5-5-5-5--7-7-7-7---9--9--9--9--4-4-4-4--5-5-5-5---2-2--2-2--2-2-|
D|-----------------------------------------------------------------|1X
   Best prom ever.


Everyone in highschool will worship
The ffucking ground I walk on
If it was up to me

I'll never be a target
I'll never be a ffucking virgin
But it's not up to me

You make me hard
You make me hard
You make me hard
You make me hard

So now I'm (woooo)
We got the limo (woooo)
I'm running (woooo)

'Cause I'll be ffucking at the
Best prom ever

So now I'm (woooo)
We got the limo (woooo)
I'm running (woooo)

'Cause I'll be ffucking at the
Best prom ever

Everyone in highschool will worship
The ffucking ground I walk on
If it was up to me

I'll never be a target
I'll never be a ffucking virgin
But it's not up to me

You make me hard
You make me hard
You make me hard
You make me hard

So now I'm (woooo)
We got the limo (woooo)
I'm running (woooo)

'Cause I'll be ffucking at the
Best prom ever
Best prom ever

Guess what, girlfriend
You have got nothing on me, whore
You won't be missed
So get the whole ffucking thing over with

Best prom ever

10. bullshit
Tuning: Drop D

   Intro   0:00
e|------------------------------------------|
B|------------------------------------------|
G|-----8------11----------10-----------8----|
D|---8---8--------11---------10------8---8--|
A|-6--------9--------9--8-------8--6--------|
D|------------------------------------------|3X

   0:13
e|------------------------------------------|
B|------------------------------------------|
G|-8--6--6--8----8--6--6--8-----------------|
D|-8--6--4--6----8--6--4--6-----------------|
A|-6--4----------6--4-----------------------|
D|------------------------------------------|2X
   After this the rest is all bullshit

   0:36
e|------------------------------------------|
B|------------------------------------------|
G|-8--6--6--8----8--6--6--8-----------------|
D|-8--6--4--6----8--6--4--6-----------------|
A|-6--4----------6--4-----------------------|
D|------------------------------------------|1X
   Can't live with us, you can't live without us

   0:45
e|------------------------------------------|
B|------------------------------------------|
G|-8-8-8-8-3-3-3-4-4-4----------------------|
D|-8-8-8-8-3-3-3-4-4-4----------------------|
A|-6-6-6-6-1-1-1-2-2-2----------------------|
D|------------------------------------------|3X
   You love it.

   0:52
e|------------------------------------------|
B|------------------------------------------|
G|-8--6--6--8----8--6--6--8-----------------|
D|-8--6--4--6----8--6--4--6-----------------|
A|-6--4----------6--4-----------------------|
D|------------------------------------------|2X
   After this the rest is all bullshit

   1:28
e|------------------------------------------|
B|------------------------------------------|
G|-8-8-8-8-3-3-3-4-4-4----------------------|
D|-8-8-8-8-3-3-3-4-4-4----------------------|
A|-6-6-6-6-1-1-1-2-2-2----------------------|
D|------------------------------------------|3X
   You love it.

   1:35
e|------------------------------------------|
B|------------------------------------------|
G|-8--6--6--8----8--6--6--8-----------------|
D|-8--6--4--6----8--6--4--6-----------------|
A|-6--4----------6--4-----------------------|
D|------------------------------------------|2X
   After this the rest is all bullshit

   1:44
e|------------------------------------------|
B|------------------------------------------|
G|-----8------11----------10-----------8----|
D|---8---8--------11---------10------8---8--|
A|-6--------9--------9--8-------8--6--------|
D|------------------------------------------|4X
   You can call me little Miss Piss with a kiss

   2:02
e|------------------------------------------|
B|------------------------------------------|
G|-8-8-8-8-3-3-3-4-4-4----------------------|
D|-8-8-8-8-3-3-3-4-4-4-4-4-4----------------|
A|-6-6-6-6-1-1-1-2-2-2-4-4-4----------------|
D|---------------------4-4-4----------------|8X
   ooh, ooh, ooh, ooh

   2:20
e|------------------------------------------|
B|------------------------------------------|
G|-8---8-8---8-8--8--8--8-8-8-8-8-8-8-8-----|
D|-8---8-8---8-8--8--8--8-8-8-8-8-8-8-8-----|
A|-6---6-6---6-6--6--6--6-6-6-6-6-6-6-6-----|
D|------------------------------------------|
   ooh,  ooh

   2:29
e|------------------------------------------|
B|------------------------------------------|
G|-8-8-8-8-3-3-3-4-4-4----------------------|
D|-8-8-8-8-3-3-3-4-4-4-4-4-4----------------|
A|-6-6-6-6-1-1-1-2-2-2-4-4-4----------------|
D|---------------------4-4-4----------------|3X
   ooh, ooh

   2:36
e|------------------------------------------|
B|------------------------------------------|
G|-8-8-8-8-3-3-3-4-4-4-------8--------------|
D|-8-8-8-8-3-3-3-4-4-4-4-4-4-8--------------|
A|-6-6-6-6-1-1-1-2-2-2-4-4-4-6--------------|
D|---------------------4-4-4----------------|1X
   ooh, ooh

After this the rest is all bullshit
After this the rest is all bullshit
After this the rest is all bullshit
After this the rest is all bullshit

I'm so down underground
I'll be scalping all my tickets
Floating up like scouts can
Like ya'll can tell the difference

The mission fishin' for th
Missin' prissy little kids
We shoot 'em in a barrel
It's so easy when they're pissed

Under educated
Extra caffeinated
I just masturbated
Now I'm gonna bait it

Can't live with us
You can't live without us
I take it then I break it
Then you write my paycheck

You can call me little Miss Piss with a kiss
And after all this the rest is all bullshit
And you love it, you love it
You love it, you love it

After this the rest is all bullshit
After this the rest is all bullshit
After this the rest is all bullshit
After this the rest is all bullshit

I'm bumping like a pimp on the stage to save face
I overcompensate with very bad taste
No offense, no romance, sick of your parents

I'm about to take a stance
And drop off my underpants
It's no accident
You will pay my rent

And I am free to download all the porno on the internet

Carried on a stick, stick
Not too fucking quick, quick
Now that I'm a prick, prick
Ya'll can jack my dick, dick

Say no to brains
It's a no-brainer
Lowest common
Denominator

It pays the bills
To be this sterile
fuck me now
Rip me off later

And you love it
You love it
You love it
You love it

After this the rest is all bullshit
After this the rest is all bullshit
After this the rest is all bullshit
After this the rest is all bullshit

You can call me little Miss Piss with a kiss
You can call me little Miss Piss with a kiss
You can't live with us, you can't live without us

You can call me little Miss Piss with a kiss
You can call me little Miss Piss with a kiss
You can't live with us, you can't live without us


All songs written and recorded by Mindless Self Indulgence.
All songs tabbed by AnthonyFMiller

Visit www.directTABS.com for more free tablature!
comments
print report bad tab
1 comment total.
0 reply
the bayliff wrote on March 14 2008, 09:24 am

There's one chord in Stupid MF (I think it's that one; I played it yesterday) that's a semi tone out. Also Bullshit the 'you love it' the a sharp goes up not down from the root note. Apart from that its cool. Four stars ^_^

I want to post or [tab]
guest
You may want to rate the tab now too:
select rating
Please do not post tabs as comments. Select "correction" instead!