Oops, an error
Loading. Please wait.

Beck - Hit In The Usa Tab

ver1
ver1

Whole song

Interactive

More versions @911Tabs.com
6,275 views 1 this week
no commentswrite comment
1 2 3 4 5
excellent!
x 2
add to favorites launch autoscroll
font size
0
reset
Autoscroll
+/-
esc
set tempo
stop
Contributor
WARNING: You are trying to view
                                    content from Ultimate-Guitar.com
                                    in an unauthorized application,
                                    which is prohibited.

                                    Please use an official Ultimate
                                    Guitar Tabs application for iPhone,
                                    iPad or Android to access legitimate
                                    chords, guitar, bass, and drum tabs
                                    from Ultimate-Guitar.com database.

                                    Type "ultimate guitar tabs" in Apple
                                    App Store's or Android Market's
                                    search to find the application.
Hit in the USA by the Beat Crusaders 
the theme song to beck, an anime series about a band trying to make it in japan

GUITAR 1
               Hit in the USA                                  


                                                                  Beat Crusaders
Guitar 1
sophisticated_ego@yahoo.com



                                                                             
E||------------------------|-----------------------|------------------------|
B||------------------------|-----------------------|------------------------|
G||--5----x----------------|-----------------------|--5----x----------------|
D||--5----x--5--5----x--3--|----3----3--3/-5--5----|--5----x--5--5----x--3--|
A||--3----x--5--5----x--3--|----3----3--3/-5--5----|--3----x--5--5----x--3--|
E||----------3--3----x--1--|----1----1--1/-3--3----|----------3--3----x--1--|


                                                                         
-----------------------|------------------------|-----------------------|
-----------------------|------------------------|-----------------------|
-----------------------|--5----x----------------|-----------------------|
----3----3--3/-5--5----|--5----x--5--5----x--3--|----3----3--3/-5--5----|
----3----3--3/-5--5----|--3----x--5--5----x--3--|----3----3--3/-5--5----|
----1----1--1/-3--3----|----------3--3----x--1--|----1----1--1/-3--3----|


                                                                          
------------------------|-----------------------|------------------------|
------------------------|-----------------------|------------------------|
--5----x----------------|-----------------------|--5----x----------------|
--5----x--5--5----x--3--|----3----3--3/-5--5----|--5----x--5--5----x--3--|
--3----x--5--5----x--3--|----3----3--3/-5--5----|--3----x--5--5----x--3--|
----------3--3----x--1--|----1----1--1/-3--3----|----------3--3----x--1--|


                                                                    
-----------------------|--------------------|----------------------|
-----------------------|--------------------|----6--5----6----5----|
-----------------------|--------------------|----------------------|
----3----3--3/-5--5----|--7--------------7--|----------------------|
----3----3--3/-5--5----|--7--------------7--|----------------------|
----1----1--1/-3--3----|--5--------------5--|----------------------|


                                                                                
--------------------------|-------------------------|--------------------------|
--------------------------|-------------------------|--------------------------|
--5--5--5--5--------------|-------------------------|--5--5--5--5--------------|
--5--5--5--5--5--5--5--5--|--3--3--3--3--3/-5----x--|--5--5--5--5--5--5--5--5--|
--3--3--3--3--5--5--5--5--|--3--3--3--3--3/-5----x--|--3--3--3--3--5--5--5--5--|
--------------3--3--3--3--|--1--1--1--1--1/-3----x--|--------------3--3--3--3--|


                                                                               
-------------------------|--------------------------|-------------------------|
-------------------------|--------------------------|-------------------------|
-------------------------|--5--5--5--5--------------|-------------------------|
--3--3--3--3--3/-5----x--|--5--5--5--5--5--5--5--5--|--3--3--3--3--3/-5----x--|
--3--3--3--3--3/-5----x--|--3--3--3--3--5--5--5--5--|--3--3--3--3--3/-5----x--|
--1--1--1--1--1/-3----x--|--------------3--3--3--3--|--1--1--1--1--1/-3----x--|


                                                                       
--------------------|----------------------|--------------------------|
--------------------|----6--5----6----5----|--------------------------|
--------------------|----------------------|--5--5--5--5--------------|
--7--------------7--|----------------------|--5--5--5--5--5--5--5--5--|
--7--------------7--|----------------------|--3--3--3--3--5--5--5--5--|
--5--------------5--|----------------------|--------------3--3--3--3--|


                                                                               
-------------------------|--------------------------|-------------------------|
-------------------------|--------------------------|-------------------------|
-------------------------|--5--5--5--5--------------|-------------------------|
--3--3--3--3--3/-5----x--|--5--5--5--5--5--5--5--5--|--3--3--3--3--3/-5----x--|
--3--3--3--3--3/-5----x--|--3--3--3--3--5--5--5--5--|--3--3--3--3--3/-5----x--|
--1--1--1--1--1/-3----x--|--------------3--3--3--3--|--1--1--1--1--1/-3----x--|


                                                                          
--------------------------|-------------------------|--------------------|
--------------------------|-------------------------|--------------------|
--5--5--5--5--------------|-------------------------|--------------------|
--5--5--5--5--5--5--5--5--|--3--3--3--3--3/-5----x--|--7--------------7--|
--3--3--3--3--5--5--5--5--|--3--3--3--3--3/-5----x--|--7--------------7--|
--------------3--3--3--3--|--1--1--1--1--1/-3----x--|--5--------------5--|


                                                                        
----------------------|------------------------|-----------------------|
----6--5----6----5----|------------------------|-----------------------|
----------------------|--5----x----------------|-----------------------|
----------------------|--5----x--5--5----x--3--|----3----3--3/-5--5----|
----------------------|--3----x--5--5----x--3--|----3----3--3/-5--5----|
----------------------|----------3--3----x--1--|----1----1--1/-3--3----|


                                                                            
------------------------|-----------------------|--------------------------|
------------------------|-----------------------|--------------------------|
--5----x----------------|-----------------------|--5--5--5--5--------------|
--5----x--5--5----x--3--|----3----3--3/-5--5----|--5--5--5--5--5--5--5--5--|
--3----x--5--5----x--3--|----3----3--3/-5--5----|--3--3--3--3--5--5--5--5--|
----------3--3----x--1--|----1----1--1/-3--3----|--------------3--3--3--3--|


                                                                                
--------------------------|--------------------|----|--------------------------|
--------------------------|--------------------|----|--------------------------|
--------------------------|--------------------|----|--5--5--5--5--------------|
--3--3--3--3--3/-5--5--5--|--7--------------7--|----|--5--5--5--5--5--5--5--5--|
--3--3--3--3--3/-5--5--5--|--7--------------7--|----|--3--3--3--3--5--5--5--5--|
--1--1--1--1--1/-3--3--3--|--5--------------5--|----|--------------3--3--3--3--|


                                                                               
-------------------------|--------------------------|-------------------------|
-------------------------|--------------------------|-------------------------|
-------------------------|--5--5--5--5--------------|-------------------------|
--3--3--3--3--3/-5----x--|--5--5--5--5--5--5--5--5--|--3--3--3--3--3/-5----x--|
--3--3--3--3--3/-5----x--|--3--3--3--3--5--5--5--5--|--3--3--3--3--3/-5----x--|
--1--1--1--1--1/-3----x--|--------------3--3--3--3--|--1--1--1--1--1/-3----x--|


                                                                          
--------------------------|-------------------------|--------------------|
--------------------------|-------------------------|--------------------|
--5--5--5--5--------------|-------------------------|--------------------|
--5--5--5--5--5--5--5--5--|--3--3--3--3--3/-5----x--|--7--------------7--|
--3--3--3--3--5--5--5--5--|--3--3--3--3--3/-5----x--|--7--------------7--|
--------------3--3--3--3--|--1--1--1--1--1/-3----x--|--5--------------5--|


                                                                            
----------------------|--------------------------|-------------------------|
----6--5----6----5----|--------------------------|-------------------------|
----------------------|--5--5--5--5--------------|-------------------------|
----------------------|--5--5--5--5--5--5--5--5--|--3--3--3--3--3/-5----x--|
----------------------|--3--3--3--3--5--5--5--5--|--3--3--3--3--3/-5----x--|
----------------------|--------------3--3--3--3--|--1--1--1--1--1/-3----x--|


                                                                                
--------------------------|-------------------------|--------------------------|
--------------------------|-------------------------|--------------------------|
--5--5--5--5--------------|-------------------------|--5--5--5--5--------------|
--5--5--5--5--5--5--5--5--|--3--3--3--3--3/-5----x--|--5--5--5--5--5--5--5--5--|
--3--3--3--3--5--5--5--5--|--3--3--3--3--3/-5----x--|--3--3--3--3--5--5--5--5--|
--------------3--3--3--3--|--1--1--1--1--1/-3----x--|--------------3--3--3--3--|


                                                                      
-------------------------|--------------------|----------------------|
-------------------------|--------------------|----6--5----6----5----|
-------------------------|--------------------|----------------------|
--3--3--3--3--3/-5----x--|--7--------------7--|----------------------|
--3--3--3--3--3/-5----x--|--7--------------7--|----------------------|
--1--1--1--1--1/-3----x--|--5--------------5--|----------------------|


                                                                          
------------------------|-----------------------|------------------------|
------------------------|-----------------------|------------------------|
--5----x----------------|-----------------------|--5----x----------------|
--5----x--5--5----x--3--|----3----3--3/-5--5----|--5----x--5--5----x--3--|
--3----x--5--5----x--3--|----3----3--3/-5--5----|--3----x--5--5----x--3--|
----------3--3----x--1--|----1----1--1/-3--3----|----------3--3----x--1--|


                                                                              
-----------------------|--------------------------|--------------------------|
-----------------------|--------------------------|--------------------------|
-----------------------|--5--5--5--5--------------|--------------------------|
----3----3--3/-5--5----|--5--5--5--5--5--5--5--5--|--3--3--3--3--3/-5--5--5--|
----3----3--3/-5--5----|--3--3--3--3--5--5--5--5--|--3--3--3--3--3/-5--5--5--|
----1----1--1/-3--3----|--------------3--3--3--3--|--1--1--1--1--1/-3--3--3--|


                                                                           
-------------------|-------------------|----------------------------------|
-------------------|-------------------|----------------------------------|
-------------------|-------------------|----------------------------------|
--6----------------|--8----------------|--10--10--10--10--10--10--10--10--|
--6----------------|--8----------------|--10--10--10--10--10--10--10--10--|
--4----------------|--6----------------|--8---8---8---8---8---8---8---8---|


                                                      
--------------------------|--------------------------|
--------------------------|--------------------------|
--------------------------|--------------------------|
--8--8--8--8--8--8--8--8--|--6--6--6--6--6--6--6--6--|
--8--8--8--8--8--8--8--8--|--6--6--6--6--6--6--6--6--|
--6--6--6--6--6--6--6--6--|--4--4--4--4--4--4--4--4--|


                                                              
--------------------------|----------------------------------|
--------------------------|----------------------------------|
--------------------------|----------------------------------|
--5--5--5--5--8--8--8--8--|--10--10--10--10--10--10--10--10--|
--5--5--5--5--8--8--8--8--|--10--10--10--10--10--10--10--10--|
--3--3--3--3--6--6--6--6--|--8---8---8---8---8---8---8---8---|


                                                                             
--------------------------|--------------------------|----------------------|
--------------------------|--------------------------|----------------------|
--------------------------|--------------------------|----------------------|
--8--8--8--8--8--8--8--8--|--6--6--6--6--6--6--6--6--|--6--6------6--6------|
--8--8--8--8--8--8--8--8--|--6--6--6--6--6--6--6--6--|--6--6------6--6------|
--6--6--6--6--6--6--6--6--|--4--4--4--4--4--4--4--4--|--4--4------4--4------|


                                                                           
------------------------|-----------------------|-------------------------|
------------------------|-----------------------|-------------------------|
--5----x----------------|-----------------------|--5----x----------x--10--|
--5----x--5--5----x--3--|----3----3--3/-5--5----|--5----x--5--5----x--10--|
--3----x--5--5----x--3--|----3----3--3/-5--5----|--3----x--5--5----x--8---|
----------3--3----x--1--|----1----1--1/-3--3----|----------3--3----x------|


                                                                              
----------------------------|------------------------|-----------------------|
----------------------------|------------------------|-----------------------|
----10----10--10/-12--12----|--5----x----------------|-----------------------|
----10----10--10/-12--12----|--5----x--5--5----x--3--|----3----3--3/-5--5----|
----8-----8---8/--10--10----|--3----x--5--5----x--3--|----3----3--3/-5--5----|
----------------------------|----------3--3----x--1--|----1----1--1/-3--3----|


                                                                            
------------------------|-----------------------|--------------------------|
------------------------|-----------------------|--------------------------|
--5----x----------------|-----------------------|--5--5--5--5--------------|
--5----x--5--5----x--3--|----3----3--3/-5--5----|--5--5--5--5--5--5--5--5--|
--3----x--5--5----x--3--|----3----3--3/-5--5----|--3--3--3--3--5--5--5--5--|
----------3--3----x--1--|----1----1--1/-3--3----|--------------3--3--3--3--|


                                                                             
--------------------------|------------------------|------------------------|
--------------------------|------------------------|------------------------|
--------------------------|------------------------|------------------------|
--3--3--3--3--3/-5--5--5--|--6--------6------------|--8--------8------------|
--3--3--3--3--3/-5--5--5--|-----6----------6-------|-----8----------8-------|
--1--1--1--1--1/-3--3--3--|--------4----------4----|--------6----------6----|


                                                                  
--------------------|--------------|--------------|--------------|
--------------------|--------------|--------------|--------------|
--------------------|--------------|--------------|--------------|
--10/---------------|--------------|--------------|--------------|
--10/---------------|--------------|--------------|--------------|
--8/----------------|--------------|--------------|--------------|


                                                                                
--------------|--------------|--------------|--------------|-------------------|
--------------|--------------|--------------|--------------|--5----------------|
--------------|--------------|--------------|--------------|--5----------------|
--------------|--------------|--------------|--------------|--5----------------|
--------------|--------------|--------------|--------------|--3----------------|
--------------|--------------|--------------|--------------|-------------------|


                                                             
-------------------|-------------------|--------------------|
-------------------|-------------------|--------------------|
--4----------------|--2----------------|--------------------|
--5----------------|--3----------------|--------------------|
--5----------------|--3----------------|--5--------7--------|
--3----------------|--1----------------|--------------------|


                                                                               
-------------------|-------------------|-------------------|------------------|
--5----------------|-------------------|-------------------|------------------|
--5----------------|--4----------------|-------------------|------------------|
--5----------------|--5----------------|--3----------------|------------------|
--3----------------|--5----------------|--3----------------|------------------|
-------------------|--3----------------|--1----------------|------------------|


                                                                          
------------------------|-----------------------|------------------------|
------------------------|-----------------------|------------------------|
--6----x----------------|-----------------------|--6----x----------------|
--6----x--6--6----x--4--|----4----4--4/-6--6----|--6----x--6--6----x--4--|
--4----x--6--6----x--4--|----4----4--4/-6--6----|--4----x--6--6----x--4--|
----------4--4----x--2--|----2----2--2/-4--4----|----------4--4----x--2--|


                                                                         
-----------------------|------------------------|-----------------------|
-----------------------|------------------------|-----------------------|
-----------------------|--6----x----------------|-----------------------|
----4----4--4/-6--6----|--6----x--6--6----x--4--|----4----4--4/-6--6----|
----4----4--4/-6--6----|--4----x--6--6----x--4--|----4----4--4/-6--6----|
----2----2--2/-4--4----|----------4--4----x--2--|----2----2--2/-4--4----|


                                                                            
------------------------|-----------------------|--------------------------|
------------------------|-----------------------|--------------------------|
--6----x----------------|-----------------------|--6--6--6--6--------------|
--6----x--6--6----x--4--|----4----4--4/-6--6----|--6--6--6--6--6--6--6--6--|
--4----x--6--6----x--4--|----4----4--4/-6--6----|--4--4--4--4--6--6--6--6--|
----------4--4----x--2--|----2----2--2/-4--4----|--------------4--4--4--4--|


                                                      
--------------------------|--------------------------|
--------------------------|--------------------------|
--------------------------|--6--6--6--6--------------|
--4--4--4--4--4/-6--6--6--|--6--6--6--6--6--6--6--6--|
--4--4--4--4--4/-6--6--6--|--4--4--4--4--6--6--6--6--|
--2--2--2--2--2/-4--4--4--|--------------4--4--4--4--|


                                                      
--------------------------|--------------------------|
--------------------------|--------------------------|
--------------------------|--6--6--6--6--------------|
--4--4--4--4--4/-6--6--6--|--6--6--6--6--6--6--6--6--|
--4--4--4--4--4/-6--6--6--|--4--4--4--4--6--6--6--6--|
--2--2--2--2--2/-4--4--4--|--------------4--4--4--4--|


                                                      
--------------------------|--------------------------|
--------------------------|--------------------------|
--------------------------|--6--6--6--6--------------|
--4--4--4--4--4/-6--6--6--|--6--6--6--6--6--6--6--6--|
--4--4--4--4--4/-6--6--6--|--4--4--4--4--6--6--6--6--|
--2--2--2--2--2/-4--4--4--|--------------4--4--4--4--|


                                                      
--------------------------|--------------------------|
--------------------------|--------------------------|
--------------------------|--6--6--6--6--------------|
--4--4--4--4--4/-6--6--6--|--6--6--6--6--6--6--6--6--|
--4--4--4--4--4/-6--6--6--|--4--4--4--4--6--6--6--6--|
--2--2--2--2--2/-4--4--4--|--------------4--4--4--4--|


                                                      
--------------------------|--------------------------|
--------------------------|--------------------------|
--------------------------|--6--6--6--6--------------|
--4--4--4--4--4/-6--6--6--|--6--6--6--6--6--6--6--6--|
--4--4--4--4--4/-6--6--6--|--4--4--4--4--6--6--6--6--|
--2--2--2--2--2/-4--4--4--|--------------4--4--4--4--|


                                                      
--------------------------|--------------------------|
--------------------------|--------------------------|
--------------------------|--6--6--6--6--------------|
--4--4--4--4--4/-6--6--6--|--6--6--6--6--6--6--6--6--|
--4--4--4--4--4/-6--6--6--|--4--4--4--4--6--6--6--6--|
--2--2--2--2--2/-4--4--4--|--------------4--4--4--4--|


                                                                   
--------------------------|-------------------|-------------------|
--------------------------|-------------------|-------------------|
--------------------------|-------------------|-------------------|
--4--4--4--4--4/-6--6--6--|--7----------------|--9----------------|
--4--4--4--4--4/-6--6--6--|--7----------------|--9----------------|
--2--2--2--2--2/-4--4--4--|--5----------------|--7----------------|


                                                             
-------------------|---------4----------|------------------||
-------------------|---------6----------|------------------||
--6----------------|--8------6----------|------------------||
--6----------------|--8------6----------|------------------||
--4----------------|--6------4----------|------------------||
-------------------|--------------------|------------------||

GUITAR 2

                          Hit in the USA                                  


                                                                  Beat Crusaders
Guitar 2
sophisticated_ego@yahoo.com



                                                         
E||------|------|------|------|--8-----x--3--3----x--1--|
B||------|------|------|------|--8-----x--3--3----x--1--|
G||------|------|------|------|--9-----x--4--4----x--2--|
D||------|------|------|------|--10----x--5--5----x--3--|
A||------|------|------|------|--10----x--5--5----x--3--|
E||------|------|------|------|--8-----x--3--3----x--1--|


                                                                          
----1----1--1/-3--3----|--8-----x--3--3----x--1--|----1----1--1/-3--3----|
----1----1--1/-3--3----|--8-----x--3--3----x--1--|----1----1--1/-3--3----|
----2----2--2/-4--4----|--9-----x--4--4----x--2--|----2----2--2/-4--4----|
----3----3--3/-5--5----|--10----x--5--5----x--3--|----3----3--3/-5--5----|
----3----3--3/-5--5----|--10----x--5--5----x--3--|----3----3--3/-5--5----|
----1----1--1/-3--3----|--8-----x--3--3----x--1--|----1----1--1/-3--3----|


                                                                       
--8-----x--3--3----x--1--|----1----1--1/-3--3/---|--5--------------5--|
--8-----x--3--3----x--1--|----1----1--1/-3--3/---|--5--------------5--|
--9-----x--4--4----x--2--|----2----2--2/-4--4/---|--6--------------6--|
--10----x--5--5----x--3--|----3----3--3/-5--5/---|--7--------------7--|
--10----x--5--5----x--3--|----3----3--3/-5--5/---|--7--------------7--|
--8-----x--3--3----x--1--|----1----1--1/-3--3/---|--5--------------5--|


                                                                            
----------------------|--------------------------|-------------------------|
----6--5----6----5----|--------------------------|-------------------------|
----------------------|--5--5--5--5--------------|-------------------------|
----------------------|--5--5--5--5--5--5--5--5--|--3--3--3--3--3/-5----x--|
----------------------|--3--3--3--3--5--5--5--5--|--3--3--3--3--3/-5----x--|
----------------------|--------------3--3--3--3--|--1--1--1--1--1/-3----x--|


                                                                                
--------------------------|-------------------------|--------------------------|
--------------------------|-------------------------|--------------------------|
--5--5--5--5--------------|-------------------------|--5--5--5--5--------------|
--5--5--5--5--5--5--5--5--|--3--3--3--3--3/-5----x--|--5--5--5--5--5--5--5--5--|
--3--3--3--3--5--5--5--5--|--3--3--3--3--3/-5----x--|--3--3--3--3--5--5--5--5--|
--------------3--3--3--3--|--1--1--1--1--1/-3----x--|--------------3--3--3--3--|


                                                                      
-------------------------|--------------------|----------------------|
-------------------------|--------------------|----6--5----6----5----|
-------------------------|--------------------|----------------------|
--3--3--3--3--3/-5----x--|--7--------------7--|----------------------|
--3--3--3--3--3/-5----x--|--7--------------7--|----------------------|
--1--1--1--1--1/-3----x--|--5--------------5--|----------------------|


                                                                      
----------------------|-----------------------|----------------------|
----------------------|-----------------------|----------------------|
--5------4--4------5--|----5----0-------------|--5------4--4------5--|
----------------------|------------3/-5----x--|----------------------|
----------------------|------------3/-5----x--|----------------------|
----------------------|------------1/-3----x--|----------------------|


                                                                       
-----------------------|----------------------|-----------------------|
-----------------------|----------------------|-----------------------|
----5----0-------------|--9------7--7------5--|----5----0-------------|
------------3/-5----x--|----------------------|------------3/-5----x--|
------------3/-5----x--|----------------------|------------3/-5----x--|
------------1/-3----x--|----------------------|------------1/-3----x--|


                                                                     
--------------------|----------------------|------------------------|
--------------------|----6--5----6----5----|------------------------|
--------------------|----------------------|--5----x----------------|
--7--------------7--|----------------------|--5----x--5--5----x--3--|
--7--------------7--|----------------------|--3----x--5--5----x--3--|
--5--------------5--|----------------------|----------3--3----x--1--|


                                                                         
-----------------------|------------------------|-----------------------|
-----------------------|------------------------|-----------------------|
-----------------------|--5----x----------------|-----------------------|
----3----3--3/-5--5----|--5----x--5--5----x--3--|----3----3--3/-5--5----|
----3----3--3/-5--5----|--3----x--5--5----x--3--|----3----3--3/-5--5----|
----1----1--1/-3--3----|----------3--3----x--1--|----1----1--1/-3--3----|


                                                      
--------------------------|--------------------------|
--------------------------|--------------------------|
--5--5--5--5--------------|--------------------------|
--5--5--5--5--5--5--5--5--|--3--3--3--3--3/-5--5--5--|
--3--3--3--3--5--5--5--5--|--3--3--3--3--3/-5--5--5--|
--------------3--3--3--3--|--1--1--1--1--1/-3--3--3--|


                                                                              
---------------------------|--------------------------|----------------------|
---------------------------|--------------------------|----------------------|
--10--9----10--9----10--9--|----10--9------10--9------|------10--------10----|
---------------------------|-----------10-------------|----------------------|
---------------------------|--------------------------|----------------------|
---------------------------|--------------------------|----------------------|


                                                                     
----------------------|----------------------|----------------------|
----------------------|----------------------|----------------------|
------10--------10----|------10--------10----|------10--------10----|
----------------------|----------------------|----------------------|
----------------------|----------------------|----------------------|
----------------------|----------------------|----------------------|


                                                                 
----------------------|----------------------|------------------|
----------------------|----------------------|------------------|
------12--------12----|------12--------12----|------------------|
----------------------|----------------------|------------------|
----------------------|----------------------|------------------|
----------------------|----------------------|------------------|


                                                                             
----------------------|--20----20----20----20----|--20----20----20----20----|
----6--5----6----5----|--------------------------|--------------------------|
----------------------|--------------------------|--------------------------|
----------------------|--------------------------|--------------------------|
----------------------|--------------------------|--------------------------|
----------------------|--------------------------|--------------------------|


                                                      
--20----20----20----20----|--20----20----20----20----|
--------------------------|--------------------------|
--------------------------|--------------------------|
--------------------------|--------------------------|
--------------------------|--------------------------|
--------------------------|--------------------------|


                                                                               
--20----20----20----20----|--20----20----20--17--20--22--|--20----------------|
--------------------------|------------------------------|--------------------|
--------------------------|------------------------------|--17----------------|
--------------------------|------------------------------|--------------------|
--------------------------|------------------------------|--------------------|
--------------------------|------------------------------|--------------------|


                                                                        
----------------------|------------------------|-----------------------|
----6--5----6----5----|------------------------|-----------------------|
----------------------|--5----x----------------|-----------------------|
----------------------|--5----x--5--5----x--3--|----3----3--3/-5--5----|
----------------------|--3----x--5--5----x--3--|----3----3--3/-5--5----|
----------------------|----------3--3----x--1--|----1----1--1/-3--3----|


                                                                            
------------------------|-----------------------|--------------------------|
------------------------|-----------------------|--------------------------|
--5----x----------------|-----------------------|--5--5--5--5--------------|
--5----x--5--5----x--3--|----3----3--3/-5--5----|--5--5--5--5--5--5--5--5--|
--3----x--5--5----x--3--|----3----3--3/-5--5----|--3--3--3--3--5--5--5--5--|
----------3--3----x--1--|----1----1--1/-3--3----|--------------3--3--3--3--|


                                                      
--------------------------|--------------------------|
--------------------------|--------------------------|
--------------------------|--8--x--x--8--x--x--8--8/-|
--3--3--3--3--3/-5--5--5--|--6--x--x--6--x--x--6--6/-|
--3--3--3--3--3/-5--5--5--|--------------------------|
--1--1--1--1--1/-3--3--3--|--------------------------|


                                                          
------------------------------|--------------------------|
------------------------------|--------------------------|
--10--x--x--10--x--x--10--10/-|--------------------------|
--8---x--x--8---x--x--8---8/--|--10--------10------------|
------------------------------|--10----10--------10------|
------------------------------|--8-----------------------|


                                                                    
-----------------------|----------------------|--------------------|
-----------------------|----------------------|--------------------|
-----------------------|----------5-----------|--------------------|
--8----8--10----8------|--6----6-------6------|--5--------8--------|
--8--------------------|--6-------------------|--5--------8--------|
--6--------------------|--4-------------------|--3--------6--------|


                                                              
----------------------------------|--------------------------|
----------------------------------|--------------------------|
----------------------------------|--------------------------|
--10--10--10--10--10--10--10--10--|--8--8--8--8--8--8--8--8--|
--10--10--10--10--10--10--10--10--|--8--8--8--8--8--8--8--8--|
--8---8---8---8---8---8---8---8---|--6--6--6--6--6--6--6--6--|


                                                                 
--------------------------|----------------------|----|----|----|
--------------------------|----------------------|----|----|----|
--------------------------|----------------------|----|----|----|
--6--6--6--6--6--6--6--6--|--6--6------6--6------|----|----|----|
--6--6--6--6--6--6--6--6--|--6--6------6--6------|----|----|----|
--4--4--4--4--4--4--4--4--|--4--4------4--4------|----|----|----|


                                                                               
-------------------|-----------------------------|----------------------------|
--------------3/---|--8--8------8--8------8------|------8--8------8--8--------|
-------------------|--------10b-------10b----10--|--10b-------10b-------10b---|
-------------------|-----------------------------|----------------------------|
-------------------|-----------------------------|----------------------------|
-------------------|-----------------------------|----------------------------|


                                                           
-----11-----11--11-------11--|--11--------11--11----------|
--8------8------8-----8------|------8--8----------8----8/-|
-----------------------------|----------------------------|
-----------------------------|----------------------------|
-----------------------------|----------------------------|
-----------------------------|----------------------------|


                                                            
--------15----------------17~-|----16--15--14--13----------|
--16~-------16~---13--16------|--------------------16/-----|
------------------------------|----------------------------|
------------------------------|----------------------------|
------------------------------|----------------------------|
------------------------------|----------------------------|


                                                              
--16----------16--------------|--18----------18--------------|
------16------------16--------|------18------------18--------|
----------13------------13----|----------15------------15/---|
------------------------------|------------------------------|
------------------------------|------------------------------|
------------------------------|------------------------------|


                                                                  
--------------------|--------------|--------------|--------------|
--20/---------------|--------------|--------------|--------------|
--17/---------------|--------------|--------------|--------------|
--------------------|--------------|--------------|--------------|
--------------------|--------------|--------------|--------------|
--------------------|--------------|--------------|--------------|


                                                            
--------------|--------------|--------------|--------------|
--------------|--------------|--------------|--------------|
--------------|--------------|--------------|--------------|
--------------|--------------|--------------|--------------|
--------------|--------------|--------------|--------------|
--------------|--------------|--------------|--------------|


                                                               
--12----------------|--------------------|--------------------|
--------------------|--12----------------|--10----------------|
--------------------|--------------------|--------------------|
--------------------|--------------------|--------------------|
--------------------|--------------------|--------------------|
--------------------|--------------------|--------------------|


                                                             
------------------|--12----------------|--------------------|
------------------|--------------------|--12----------------|
------------------|--------------------|--------------------|
------------------|--------------------|--------------------|
------------------|--------------------|--------------------|
------------------|--------------------|--------------------|


                                                                
-------------------|------------------|------------------------|
-------------------|------------------|------------------------|
-------------------|------------------|--6----x----------------|
--3----------------|------------------|--6----x--6--6----x--4--|
--3----------------|------------------|--4----x--6--6----x--4--|
--1----------------|------------------|----------4--4----x--2--|


                                                                         
-----------------------|------------------------|-----------------------|
-----------------------|------------------------|-----------------------|
-----------------------|--6----x----------------|-----------------------|
----4----4--4/-6--6----|--6----x--6--6----x--4--|----4----4--4/-6--6----|
----4----4--4/-6--6----|--4----x--6--6----x--4--|----4----4--4/-6--6----|
----2----2--2/-4--4----|----------4--4----x--2--|----2----2--2/-4--4----|


                                                                          
------------------------|-----------------------|------------------------|
------------------------|-----------------------|------------------------|
--6----x----------------|-----------------------|--6----x----------------|
--6----x--6--6----x--4--|----4----4--4/-6--6----|--6----x--6--6----x--4--|
--4----x--6--6----x--4--|----4----4--4/-6--6----|--4----x--6--6----x--4--|
----------4--4----x--2--|----2----2--2/-4--4----|----------4--4----x--2--|


                                                                              
-----------------------|--------------------------|--------------------------|
-----------------------|--------------------------|--------------------------|
-----------------------|--6--6--6--6--------------|--------------------------|
----4----4--4/-6--6----|--6--6--6--6--6--6--6--6--|--4--4--4--4--4/-6--6--6--|
----4----4--4/-6--6----|--4--4--4--4--6--6--6--6--|--4--4--4--4--4/-6--6--6--|
----2----2--2/-4--4----|--------------4--4--4--4--|--2--2--2--2--2/-4--4--4--|


                                                      
--------------------------|--------------------------|
--------------------------|--------------------------|
--6--6--6--6--------------|--------------------------|
--6--6--6--6--6--6--6--6--|--4--4--4--4--4/-6--6--6--|
--4--4--4--4--6--6--6--6--|--4--4--4--4--4/-6--6--6--|
--------------4--4--4--4--|--2--2--2--2--2/-4--4--4--|


                                                      
--------------------------|--------------------------|
--------------------------|--------------------------|
--6--6--6--6--------------|--------------------------|
--6--6--6--6--6--6--6--6--|--4--4--4--4--4/-6--6--6--|
--4--4--4--4--6--6--6--6--|--4--4--4--4--4/-6--6--6--|
--------------4--4--4--4--|--2--2--2--2--2/-4--4--4--|


                                                      
--------------------------|--------------------------|
--------------------------|--------------------------|
--6--6--6--6--------------|--------------------------|
--6--6--6--6--6--6--6--6--|--4--4--4--4--4/-6--6--6--|
--4--4--4--4--6--6--6--6--|--4--4--4--4--4/-6--6--6--|
--------------4--4--4--4--|--2--2--2--2--2/-4--4--4--|


                                                      
--------------------------|--------------------------|
--------------------------|--------------------------|
--6--6--6--6--------------|--------------------------|
--6--6--6--6--6--6--6--6--|--4--4--4--4--4/-6--6--6--|
--4--4--4--4--6--6--6--6--|--4--4--4--4--4/-6--6--6--|
--------------4--4--4--4--|--2--2--2--2--2/-4--4--4--|


                                                      
--------------------------|--------------------------|
--------------------------|--------------------------|
--6--6--6--6--------------|--------------------------|
--6--6--6--6--6--6--6--6--|--4--4--4--4--4/-6--6--6--|
--4--4--4--4--6--6--6--6--|--4--4--4--4--4/-6--6--6--|
--------------4--4--4--4--|--2--2--2--2--2/-4--4--4--|


                                                                               
--------------------------|--------------------------|------------------------|
--------------------------|--------------------------|----------17------------|
--6--6--6--6--------------|--------------------------|--14--------------14----|
--6--6--6--6--6--6--6--6--|--4--4--4--4--4/-6--6--6--|------------------------|
--4--4--4--4--6--6--6--6--|--4--4--4--4--4/-6--6--6--|------------------------|
--------------4--4--4--4--|--2--2--2--2--2/-4--4--4--|------------------------|


                                                                       
------------------------|------------------19----|--21----------------|
----------19------------|----------21------------|--------------------|
--16--------------16----|--18--------------------|--------------------|
------------------------|------------------------|--------------------|
------------------------|------------------------|--------------------|
------------------------|------------------------|--------------------|


                    
------------------||
------------------||
------------------||
------------------||
------------------||
------------------||
comments
We did not receive enough feedback on this tab! Please rate:
print report bad tab
1 2 3 4 5
I want to post or [tab]
guest
You may want to rate the tab now too:
select rating
Please do not post tabs as comments. Select "correction" instead!