Oops, an error
Loading. Please wait.

My Little Pony Friendship Is Magic - Winter Wrap Up Tab

ver1
ver1

Whole song

Interactive

More versions @911Tabs.com
9,765 views 27 this week
no commentswrite comment
1 2 3 4 5
accurate
x 4
Autoscroll
+/-
esc
set tempo
stop
Contributor
Difficulty
novice
Hey! There's an official Ultimate Guitar app which is ideal
for learning songs when you're away from computer. Get the app
WARNING: You are trying to view
                                    content from Ultimate-Guitar.com
                                    in an unauthorized application,
                                    which is prohibited.

                                    Please use an official Ultimate
                                    Guitar Tabs application for iPhone,
                                    iPad or Android to access legitimate
                                    chords, guitar, bass, and drum tabs
                                    from Ultimate-Guitar.com database.

                                    Type "ultimate guitar tabs" in Apple
                                    App Store's or Android Market's
                                    search to find the application.
                                Winter Wrap Up

NOTE: Play along with the song if you find yourself confused. You'll be able to follow 
the melody exactly with the song.


Entire melody on one track
     Rainow Dash (Intro)
     H.                  E  E     E  E  E  E  E  E  E  E
E||----------------------------|--------1-----------------|
B||-------------------------2--|--2--2-----2--4--4--L--2--|
G||----------------------------|--------------------------|
D||----------------------------|--------------------------|
A||----------------------------|--------------------------|
E||----------------------------|--------------------------|


                                        |--3--|
  E  S S E  E  Q.     E     E  E  E  E  E  E  E  E  E
--4--L-4-4--6--4---------|--1--1--1--4--2--1-----------|
----------------------2--|--------------------4--L--2--|
-------------------------|-----------------------------|
-------------------------|-----------------------------|
-------------------------|-----------------------------|
-------------------------|-----------------------------|


                       Applejack (Intro)
                                                          |--3--|
  E  E  E  E  E  E  E  S                 S    E  E  E  E  E  E  E  E  S S
--1--1--1--2-------------------------------|-----------1--1---------------|
--------------2--L-----2-----------------2-|--2--2--2--------4--2--L--2-2-|
-------------------------------------------|------------------------------|
-------------------------------------------|------------------------------|
-------------------------------------------|------------------------------|
-------------------------------------------|------------------------------|


                      Rarity (Intro)
  E  E  E  E  E  Q    E                 E  E  E  S S E  E  E  E
--1--1--1--2-------------------------|--4--4--4--L-4-2--1--------|
--------------4--L----2--------------|---------------------4--2--|
-------------------------------------|---------------------------|
-------------------------------------|---------------------------|
-------------------------------------|---------------------------|
-------------------------------------|---------------------------|


                      Twilight Sparkle (Intro - Verse 1)
  E  E  E  E  E  Q    E
---------------------------------------------------------|
--4--4--4--6--4--L----2----------------------------------|
---------------------------------------------------------|
---------------------------------------------------------|
---------------------------------------------------------|
---------------------------------------------------------|


  E  E  E  E  E  E  E  E     E  S E  E  E  E  E  S S S
--4--4--4--2--4--6--L--4--|----------1--2--1-----------|
--------------------------|-----2-4-----------2----2-2-|
--------------------------|----------------------------|
--------------------------|----------------------------|
--------------------------|----------------------------|
--------------------------|----------------------------|


  E  E  E  E  E  E  E  E     E  S E  E  E  E  E  E.
--4--4--4--2--4--L--2--4--|--L-------1--2--1---------|
--------------------------|-----2-2-----------2--L---|
--------------------------|--------------------------|
--------------------------|--------------------------|
--------------------------|--------------------------|
--------------------------|--------------------------|


  E  S S S S E  E  S E  E  S    E  E  S S S S E  S S Q
-----------1-L----------1--L-|--------------1-2--1--------|
-----2-L-4------4--2-4-------|--2-----2-2-4--------2-L----|
-----------------------------|----------------------------|
-----------------------------|----------------------------|
-----------------------------|----------------------------|
-----------------------------|----------------------------|


  E  E  S E  S E  E  S E  S    E  E  E  E  E  E  E  E     H        H
----------1--L---------1--L-|--2-----------4--4--4--6--|--4-----------------|
-----2--4------4--2--4------|-----2-----2--------------|--------------------|
----------------------------|--------------------------|--------------------|
----------------------------|--------------------------|--------------------|
----------------------------|--------------------------|--------------------|
----------------------------|--------------------------|--------------------|


  E  E  E  E  E  E  E  E     E  E  S S E  E  S E.  E
--------1-----2--2--6--4--|-----4--4-4-2--4--2-1------|
--2--2-----2--------------|------------------------2--|
--------------------------|---------------------------|
--------------------------|---------------------------|
--------------------------|---------------------------|
--------------------------|---------------------------|


  E  E  E  E  E  E  E  E     E  S S E  E  E  E  E  E
--------1-----2--2--6--4--|-----4-4-4--2--4--6--L--4--|
--2--2-----2--------------|---------------------------|
--------------------------|---------------------------|
--------------------------|---------------------------|
--------------------------|---------------------------|
--------------------------|---------------------------|


  E  S S E  E  E  E  E  E     E  E  E  E  E  E  E  E
--L--4-4-4--1--4--1--------|--4--4--4--2--4--6--L--4--|
---------------------2--L--|--------------------------|
---------------------------|--------------------------|
---------------------------|--------------------------|
---------------------------|--------------------------|
---------------------------|--------------------------|


  E  E  S S E  E  E  E  E     E  E  E  E  E  E  E  E
--L-----1-1-1--2--1--------|--4--4--4--2--4--L--2--4--|
-----2---------------2--2--|--------------------------|
---------------------------|--------------------------|
---------------------------|--------------------------|
---------------------------|--------------------------|
---------------------------|--------------------------|


  E  S S E  E  E  E  Q       E  S E  E  S E   E  E  E
--L--L------1--2--1-------|----------1--L--------------|
-------2-4-----------2----|-----2-4-------4s--2--2--2--|
--------------------------|----------------------------|
--------------------------|----------------------------|
--------------------------|----------------------------|
--------------------------|----------------------------|


  E  S E  E.  Q    E  E     S S E  E  E  E  E  E  E     E.  E.  Q    Q.
--4--L-4--6---4----L-----|---------1--1--------------|--4---4---6----4------|
-------------------------|----2-2--------4--2--2--2--|----------------------|
-------------------------|---------------------------|----------------------|
-------------------------|---------------------------|----------------------|
-------------------------|---------------------------|----------------------|
-------------------------|---------------------------|----------------------|


                        Chorus 2
  Q.     H        E     E        E  E  E  E  E  E  E
--L------------------|--------------1-----2--2--6--4--|
---------------------|--2--------2-----2--------------|
---------------------|--------------------------------|
---------------------|--------------------------------|
---------------------|--------------------------------|
---------------------|--------------------------------|


  E  E  S S E  E  S E.  E     E  E  E  E  E  E  E  E
-----4--4-4-2--4--2-1------|--------1-----2--2--6--4--|
------------------------2--|--2--2-----2--------------|
---------------------------|--------------------------|
---------------------------|--------------------------|
---------------------------|--------------------------|
---------------------------|--------------------------|


  E  S S E  E  E  E  E  E     E  E  E  E  E  E  E  E
--L--4-4-4--2--4--6--L--4--|--------1-----2--2--6--4--|
---------------------------|--2--2-----2--------------|
---------------------------|--------------------------|
---------------------------|--------------------------|
---------------------------|--------------------------|
---------------------------|--------------------------|


  E  S S E  E  E  E  E  E     E  S S E  E  E  E  E  E
--L--4-4-4--2--4--6--L--4--|--L--4-4-4--1--4--1--------|
---------------------------|---------------------2--L--|
---------------------------|---------------------------|
---------------------------|---------------------------|
---------------------------|---------------------------|
---------------------------|---------------------------|


  Verse 3
  E       E  E  E  E  E  E  E     E  S E  E  E  E  E  S E
--4-------4--4--2--4--6--L--4--|----------1--2--1----------|
-------------------------------|-----2-4-----------2--L-2--|
-------------------------------|---------------------------|
-------------------------------|---------------------------|
-------------------------------|---------------------------|
-------------------------------|---------------------------|


  E  E  E  E  E  E  E  E     E  E  E  E  E  E  E  E
--4--4--4--2--4--L--2--4--|-----------1--2--1--------|
--------------------------|-----2--4-----------2-----|
--------------------------|-----------------------L--|
--------------------------|--------------------------|
--------------------------|--------------------------|
--------------------------|--------------------------|


  E  S E  E  E  S S E  E  S    E  E  E  E  E  S E  E  S
----------1------------1--L-|--------1--1--1--2-4--L--L-|
-----2-4-----4--L-2-4-------|--2------------------------|
----------------------------|---------------------------|
----------------------------|---------------------------|
----------------------------|---------------------------|
----------------------------|---------------------------|


  E.  S E  E  E  S S E  E     S E  S E  S S S S S E  E  S    H        H
-----------1------------1--|--L-1--L--------4-L-4-4--6--L-|--4-----------------|
------2-4-----4--L-2-4-----|------------2-2---------------|--------------------|
---------------------------|------------------------------|--------------------|
---------------------------|------------------------------|--------------------|
---------------------------|------------------------------|--------------------|
---------------------------|------------------------------|--------------------|


  Chorus 3
  E        E  E  E  E  E  E  E     E  E  S S E  E  S E.  E
--------------1-----2--2--6--4--|-----4--4-4-2--4--2-1------|
--2--------2-----2--------------|------------------------2--|
--------------------------------|---------------------------|
--------------------------------|---------------------------|
--------------------------------|---------------------------|
--------------------------------|---------------------------|


  E  E  E  E  E  E  E  E     E  S S E  E  E  E  E  E
--------1-----2--2--6--4--|--L--4-4-4--2--4--6--L--4--|
--2--2-----2--------------|---------------------------|
--------------------------|---------------------------|
--------------------------|---------------------------|
--------------------------|---------------------------|
--------------------------|---------------------------|


  E  E  E  E  E  E  E  E     E  S S E  E  E  E  E  E
--------1-----2--2--6--4--|--L--4-4-4--2--4--6--L--4--|
--2--2-----2--------------|---------------------------|
--------------------------|---------------------------|
--------------------------|---------------------------|
--------------------------|---------------------------|
--------------------------|---------------------------|


                              Bridge (AppleJack Solo)
  E  S S E  E  E  E  E  E     E                       E  E  E  E  S S S S S S
--L--4-4-4--1--4--1--------|--------------------------1--1--1-----------1-L---|
---------------------2--L--|-----------------------------------4--2-4-L-----2-|
---------------------------|--------------------------------------------------|
---------------------------|--------------------------------------------------|
---------------------------|--------------------------------------------------|
---------------------------|--------------------------------------------------|


  E  E  E  E  E  E  E   E     E  E  E  E  E  S E  E  S
-----------1--2--1---------|-----1--1--2--4--L----1--L-|
--L-----4-----------4s--2--|-------------------4-------|
---------------------------|---------------------------|
---------------------------|---------------------------|
---------------------------|---------------------------|
---------------------------|---------------------------|


  E  E  E  E  E  S E  S E     E  E  E  E  S S E  E  E
--------1--1---------------|-----1--1-----1-1-1--------|
--2-----------4--2-4--L----|--2--------2---------2-----|
---------------------------|---------------------------|
---------------------------|---------------------------|
---------------------------|---------------------------|
---------------------------|---------------------------|


  S S E  E  E  E  E  Q       E  E  E  E  S E  E  S E
--4-4-4--4--6--4--L-------|-----1--1-----1-1-------4--|
--------------------------|--1--------2-------2--L----|
--------------------------|---------------------------|
--------------------------|---------------------------|
--------------------------|---------------------------|
--------------------------|---------------------------|


                            Choruse 4
           |3|
  E  E  E  S E  H           E         E  E  E  E  E  E  E
--6--4--4--L-2--4--------|---------------1-----2--2--6--4--|
-------------------------|--2---------2-----2--------------|
-------------------------|---------------------------------|
-------------------------|---------------------------------|
-------------------------|---------------------------------|
-------------------------|---------------------------------|


  E  E  S S E  E  S E.  E     E  E  E  E  E  E  E  E
-----4--4-4-2--4--2-1------|--------1-----2--2--6--4--|
------------------------2--|--2--2-----2--------------|
---------------------------|--------------------------|
---------------------------|--------------------------|
---------------------------|--------------------------|
---------------------------|--------------------------|


  E  S S E  E  E  E  E  E     E  E  E  E  E  E  E  E
--L--4-4-4--2--4--6--L--4--|--------1-----2--2--6--4--|
---------------------------|--2--2-----2--------------|
---------------------------|--------------------------|
---------------------------|--------------------------|
---------------------------|--------------------------|
---------------------------|--------------------------|


  E  S S E  E  E  E  E  E     E  S S E  E  E  E  E  E
--L--4-4-4--2--4--6--L--4--|--L--4-4-4--1--4--1--------|
---------------------------|---------------------2--L--|
---------------------------|---------------------------|
---------------------------|---------------------------|
---------------------------|---------------------------|
---------------------------|---------------------------|


     3  3            3  3     3
  E  E  E  E.  E   S E  E  E  S    E  E  S S S S S S E.  E.
-----------1---------------1--L-|--------1-2-L-1-2-L-4---4---|
-----2--4------4s--2-2--4-------|--2-------------------------|
--------------------------------|----------------------------|
--------------------------------|----------------------------|
--------------------------------|----------------------------|
--------------------------------|----------------------------|


  E  E  S E  E.  E.  E  S    E  E  T E  E  S S E  E  S.
--L----------1---2------1-|--L-------2--2--1-2-1--------|
--------2-4----------4----|-----2-----------------2--L--|
--------------------------|-----------------------------|
--------------------------|-----------------------------|
--------------------------|-----------------------------|
--------------------------|-----------------------------|


          3  3              3 3
  E  E  S E  E  E.  E  S E  X X    E.  E  E.  E  S E.  E
----------------1---1-----------|--1---1------2--1-2---2--|
--L-------2--4---------4-2--L-L-|---------2---------------|
--------------------------------|-------------------------|
--------------------------------|-------------------------|
--------------------------------|-------------------------|
--------------------------------|-------------------------|


               3            3
  E  E.  S. E  S S S S E  T E     S  E.  Q    S E  S E   E
--4--4------9--L-9-9-8-9--L-8--|--L-11---9------9--8-9--11--|
-------------------------------|----------------------------|
-------------------------------|----------------------------|
-------------------------------|----------------------------|
-------------------------------|----------------------------|
-------------------------------|----------------------------|


                                 Last Chorus
  S Q.     E  E  S E   Q.        E           E  E  E  E  E  E  E
--L-9---------9--8-9--11------|--9-----------L--1-----2--2--6--4--|
------------------------------|--2-----------2-----2--------------|
------------------------------|-----------------------------------|
------------------------------|-----------------------------------|
------------------------------|-----------------------------------|
------------------------------|-----------------------------------|


  E  E  S S E  E  S E.  E     E  E  E  E  E  E  E  E
-----4--4-4-2--4--2-1------|--------1-----2--2--6--4--|
------------------------2--|--2--2-----2--------------|
---------------------------|--------------------------|
---------------------------|--------------------------|
---------------------------|--------------------------|
---------------------------|--------------------------|


  E  S S E  E  E  E  E  E     E  E  E  E  E  E  E  E
--L--4-4-4--2--4--6--L--4--|--------1-----2--2--6--4--|
---------------------------|--2--2-----2--------------|
---------------------------|--------------------------|
---------------------------|--------------------------|
---------------------------|--------------------------|
---------------------------|--------------------------|


  E  S S E  E  E  E  E  E     E  S S E  E  E  E  E  E
--L--4-4-4--2--4--6--L--4--|-----4-4-4--2--4--2--L-----|
---------------------------|------------------------4--|
---------------------------|---------------------------|
---------------------------|---------------------------|
---------------------------|---------------------------|
---------------------------|---------------------------|


  E  S S E  E  E  E  E  E     W                   W
-----4-4-4-----6--8--L--9--|--L----------------|--L----------------||
--L---------6--------------|-------------------|-------------------||
---------------------------|-------------------|-------------------||
---------------------------|-------------------|-------------------||
---------------------------|-------------------|-------------------||
---------------------------|-------------------|-------------------||




Duration Legend
---------------
W - whole
H - half
Q - quarter
E - 8th
S - 16th
T - 32nd
X - 64th
. - note dotted
|-n-|  - n-tuplets


Tablature Legend
----------------
L - tied note
x - dead note
g - grace note
(n) - ghost note
> - accentuded note
NH - natural harmonic
AH - artificial harmonic
TH - tapped harmonic
SH - semi harmonic
PH - pitch harmonic
h - hammer on
p - pull off
b - bend
br - bendRelease
pb - preBend
pbr - preBendRelease
brb - bendReleaseBend
\n/ - tremolo bar dip
\n - tremolo bar dive
-/n - tremolo bar Release up
/n\ - tremolo bar inverted dip
/n - tremolo bar return
-\n - tremolo bar Release down
S - shift slide
s - legato slide
/ -  slide into from below or out of upwards
\ -  slide into from above or out of downwards
~ - vibrat
W - wide vibrato
tr - trill
TP - tremolo picking
T - tapping
S - slap
P - pop
< - fade in
^ - brush up
v - brush down
comments
print report bad tab
I want to post or [tab]
guest
You may want to rate the tab now too:
select rating
Please do not post tabs as comments. Select "correction" instead!