Oops, an error
Loading. Please wait.

Naruto - Kakashis Theme Tab

26,186 views 36 this week
1 commentread comment
1 2 3 4 5
excellent!
x 1
Autoscroll
+/-
esc
set tempo
stop
Contributor
Difficulty
novice
Hey! There's an official Ultimate Guitar app which is ideal
for learning songs when you're away from computer. Get the app
WARNING: You are trying to view
                                    content from Ultimate-Guitar.com
                                    in an unauthorized application,
                                    which is prohibited.

                                    Please use an official Ultimate
                                    Guitar Tabs application for iPhone,
                                    iPad or Android to access legitimate
                                    chords, guitar, bass, and drum tabs
                                    from Ultimate-Guitar.com database.

                                    Type "ultimate guitar tabs" in Apple
                                    App Store's or Android Market's
                                    search to find the application.
i played this on youtube
http://www.youtube.com/watch?v=8yJ0HxZJ2fE&feature=related
watch it if you cant play it properly

  G5    G#5   A5               D5     C5
 4/4
  Gtr I
  E E E E E E E E   W          Q    e E H
|-3-3-3-4---4-5---|----------|-----10-----------|
|-3-3-3-4---4-5---|----------|-----10-----------|
|-----------------|----------|------------------|
|-----------------|----------|------------------|
|-----------------|----------|------------------|
|-----------------|----------|------------------|
|
| Gtrs II, III      Gtr II
| E E E E E E E E   W          e Q    H     +E
|-----------------|----------|------------------|
|-----------------|----------|------------------|
|-7-7-7-8---8-9---|----------|------------------|
|-5-5-5-6---6-7---|----------|-7------5-----(5)-|
|-----------------|----------|-5------3-----(3)-|
|-----------------|----------|------------------|


                 D5        C5
   H.      Q     E.   S  e E H
|----------x\--|------x-10------------|
|----------x\--|------x-10------------|
|--------------|----------------------|
|--------------|----------------------|
|--------------|----------------------|
|--------------|----------------------|
|
| +W             E  q      H     +E
|--------------|----------------------|
|--------------|----------------------|
|--------------|----------------------|
|-(5)----------|-7--7------5-----(5)--|
|-(3)----------|-5--5------3-----(3)--|
|--------------|----------------------|


                D5     C5
   H.      Q    Q    e E H          H.      Q
|----------x--|-----10-----------|----------x\--|
|-------------|-----10-----------|----------x\--|
|-------------|------------------|--------------|
|-------------|------------------|--------------|
|-------------|------------------|--------------|
|-------------|------------------|--------------|
|
| +W            e Q    H     +E    +W
|-------------|------------------|--------------|
|-------------|------------------|--------------|
|-------------|------------------|--------------|
|-(5)---------|-7------5-----(5)-|-(5)----------|
|-(3)---------|-5------3-----(3)-|-(3)----------|
|-------------|------------------|--------------|


  D5        C5
  E.   S  e E H          H      H        a
|------x-10-----------|---------------------|
|------x-10-----------|--------10s=======3--|
|---------------------|---------------------|
|---------------------|---------------------|
|---------------------|---------------------|
|---------------------|---------------------|
|
| E  q      H     +E    +H     +E  E E E
|---------------------|---------------------|
|---------------------|---------------------|
|---------------------|---------------------|
|-7--7------5-----(5)-|-(5)----(5)----------|
|-5--5------3-----(3)-|-(3)----(3)-0-2-0----|
|---------------------|---------------------|


  D5     C5
  Q    e E Q   e  E     Q    e E Q    e E
|-----10------10-----|------10-------10---|
|-----10------10-----|------10-------10---|
|--------------------|--------------------|
|--------------------|--------------------|
|--------------------|--------------------|
|--------------------|--------------------|
|
| e Q    H       +E    +Q    E E E E  E E
|--------------------|--------------------|
|--------------------|--------------------|
|--------------------|--------------------|
|-7------5-------(5)-|-(5)---x-x-x--------|
|-5------3-------(3)-|-(3)---x-x-x-0--2-0-|
|--------------------|--------------------|


  D5     C5
  Q    e E Q   e  E     Q    e E Q      e E
|-----10------10-----|------10---------10---|
|-----10------10-----|------10---------10---|
|--------------------|----------------------|
|--------------------|----------------------|
|--------------------|----------------------|
|--------------------|----------------------|
|
| E q    H       +E    +Q    e E E   E  E E
|--------------------|----------------------|
|--------------------|----------------------|
|--------------------|----------------------|
|-7-7----5-------(5)-|-(5)---3---3b4--------|
|-5-5----3-------(3)-|-(3)-----------0--2-0-|
|--------------------|----------------------|


  D5     C5                                   G5    G#5   A5
  Q    e E Q   e  E     Q    e E  Q     e E   E E e E E E E E   W
|-----10------10-----|------10---------10---|-3-3-3-4---4-5---|--------------|
|-----10------10-----|------10---------10---|-3-3-3-4---4-5---|--------------|
|--------------------|----------------------|-----------------|--------------|
|--------------------|----------------------|-----------------|--------------|
|--------------------|----------------------|-----------------|--------------|
|--------------------|----------------------|-----------------|--------------|
|
| e Q    H       +E    +H        +E  E  E E   E E E E E E E E   W
|--------------------|----------------------|-----------------|--------------|
|--------------------|----------------------|-----------------|--------------|
|--------------------|----------------------|-7-7-7-8---8-9---|--------------|
|-7------5-------(5)-|-(5)-------(5)--------|-5-5-5-6---6-7---|--------------|
|-5------3-------(3)-|-(3)-------(3)-0--2-0-|-----------------|--------------|
|--------------------|----------------------|-----------------|--------------|
|
| Gtr III
| W                     Q    Q    Q.      E   E E E E E E E E   H    E E E E
|--------------------|----------------------|-----------------|--------------|
|--------------------|----------------------|-----------------|--------------|
|--------------------|------10--------------|-7-7-7-8---8-9---|--------------|
|--------------------|-----------12---------|-5-5-5-6---6-7---|--------7-9-7-|
|--------------------|----------------------|-----------------|--------------|
|--------------------|----------------------|-----------------|--------------|


  D5      C5
   Q    e E Q   e  E     Q    e E Q    e E
|------10------10-----|------10-------10---|
|------10------10-----|------10-------10---|
|---------------------|--------------------|
|---------------------|--------------------|
|---------------------|--------------------|
|---------------------|--------------------|
|
|  e Q    H       +E    +Q    E E E E  E E
|---------------------|--------------------|
|---------------------|--------------------|
|---------------------|--------------------|
|--7------5-------(5)-|-(5)---x-x-x--------|
|--5------3-------(3)-|-(3)---x-x-x-0--2-0-|
|---------------------|--------------------|
|
|  Q    E E H            H        E E  E E
|---------------------|--------------------|
|-------7-------------|--------------------|
|-10------7-----------|--------------------|
|---------------------|-------------7--9-7-|
|---------------------|--------------------|
|---------------------|--------------------|


  D5      C5
   Q    e E Q   e  E     Q     e E Q      e E
|------10------10-----|-------10---------10---|
|------10------10-----|-------10---------10---|
|---------------------|-----------------------|
|---------------------|-----------------------|
|---------------------|-----------------------|
|---------------------|-----------------------|
|
|  E q    H       +E    +Q     e E E   E  E E
|---------------------|-----------------------|
|---------------------|-----------------------|
|---------------------|-----------------------|
|--7-7----5-------(5)-|-(5)----3---3b4-0--2-0-|
|--5-5----3-------(3)-|-(3)-------------------|
|---------------------|-----------------------|
|
|  Q    E E Q   E  E     E  E  Q   E   E  E E
|---------------------|-----------------------|
|-------7-------------|-----------------------|
|-10------7-----------|-----7-----------------|
|---------------9--7--|--9-------------7--9-7-|
|---------------------|-----------------------|
|---------------------|-----------------------|


  F5
  Q    e E Q   e  E     Q     q   E   E Q
|-----10------10-----|------/12--12s=10-----|
|-----10------10-----|------/12--12s=10-----|
|--------------------|----------------------|
|--------------------|----------------------|
|--------------------|----------------------|
|--------------------|----------------------|
|
| e Q    H       +E    +H        +E   E E E
|--------------------|----------------------|
|--------------------|----------------------|
|-5------------------|----------------------|
|-3------3-------(3)-|-(3)-------(3)--------|
|--------------------|----------------0-2-0-|
|--------------------|----------------------|
|
| Q    E E H            H         E   E E E
|--------------------|----------------------|
|------6-------------|----------------------|
|-9------7-----------|----------------------|
|--------------------|----------------7-9-7-|
|--------------------|----------------------|
|--------------------|----------------------|


  D5      C5
   Q    e E Q   e  E     Q     e E  Q     e E
|------10------10-----|-------10---------10---|
|------10------10-----|-------10---------10---|
|---------------------|-----------------------|
|---------------------|-----------------------|
|---------------------|-----------------------|
|---------------------|-----------------------|
|
|  E q    H       +E    +H         +E  E  E E
|---------------------|-----------------------|
|---------------------|-----------------------|
|---------------------|-----------------------|
|--7-7----5-------(5)-|-(5)--------(5)--------|
|--5-5----3-------(3)-|-(3)--------(3)-0--2---|
|---------------------|-----------------------|
|
|  Q    E E Q   E  E     E  E  Q    H
|---------------------|-----------------------|
|-------7-------------|-----------------------|
|-10------7-----------|-----7-----------------|
|---------------9--7--|--9--------------------|
|---------------------|-----------------------|
|---------------------|-----------------------|


  C5                      Bb5                A5          N.C.
   Q   Q   Q      E.  S   Q  Q   Q    E. S   Q   Q  H      W
|--8---8---8------8---8-|-6--6---6----6--6-|-5\----------|---------------------|
|--8---8---8------8---8-|-6--6---6----6--6-|-5\----------|---------------------|
|-----------------------|------------------|-------------|---------------------|
|-----------------------|------------------|-------------|---------------------|
|-----------------------|------------------|-------------|---------------------|
|-----------------------|------------------|-------------|---------------------|
|
|  Q   Q   Q      E.  S   Q  Q   Q    E. S   Q   Q  H      W
|-----------------------|------------------|-------------|---------------------|
|-----------------------|------------------|-------------|---------------------|
|-----------------------|------------------|-------------|---------------------|
|-----------------------|------------------|-------------|---------------------|
|-10--10--10-----10--10-|-8--8---8----8--8-|-7\----------|---------------------|
|--8---8---8------8---8-|-6--6---6----6--6-|-5\----------|---------------------|
|
|                                                                   |-3-|
|  H      +E   E  Q       H     +E  E Q      Q   Q  H      E E E E  E E E E E
|-----------------------|------------------|-------------|---------------------|
|-----------------------|------------------|-------------|---------------------|
|--9------(9)-10--9-----|-7-----(7)-9-7----|-6\----------|-------7-10p9p7-9-7--|
|-----------------------|------------------|-------------|---7-9---------------|
|-----------------------|------------------|-------------|---------------------|
|-----------------------|------------------|-------------|---------------------|


  D5       C5
   Q     e E Q   e  E    Q    e E Q    e E
|-------10------10-----|-----10-------10---|
|-------10------10-----|-----10-------10---|
|----------------------|-------------------|
|----------------------|-------------------|
|----------------------|-------------------|
|----------------------|-------------------|
|
|  e  Q    H       +E    E E  E E E E  E E
|----------------------|-------------------|
|----------------------|-------------------|
|----------------------|-------------------|
|--7-------5-------(5)-|-x-x--x-x-x--------|
|--5-------3-------(3)-|-x-x--x-x-x-0--2-0-|
|----------------------|-------------------|
|
| +E  E  Q   H           W
|----------------------|-------------------|
|----------------------|-------------------|
|-(7)------------------|-------------------|
|----------------------|-------------------|
|----------------------|-------------------|
|----------------------|-------------------|


  D5          C5
  Q    e      E Q   e  E    Q      e  E Q   e     E
|-----10-----------10-----|-------10-------10-------|
|-----10-----------10-----|-------10-------10-------|
|-------------------------|-------------------------|
|-------------------------|-------------------------|
|-------------------------|-------------------------|
|-------------------------|-------------------------|
|
| E q         H       +E    H.             +E     E
|-------------------------|-------------------------|
|-------------------------|-------------------------|
|-------------------------|-------------------------|
|-7-7---------5-------(5)-|-------------------------|
|-5-5---------3-------(3)-|-3tr5-----------(3tr5)---|
|-------------------------|-------------------------|
|
| Q    Q        H           Q      E  E H
|-------------------------|-------------------------|
|-------------------------|-------------------------|
|-----10b10.5-------------|--------7----------------|
|-------------------------|----------10-------------|
|-------------------------|-------------------------|
|-------------------------|-------------------------|


  D5     C5
  Q    e E Q   e  E    Q    e E Q      e E
|-----10------10-----|-----10---------10---|
|-----10------10-----|-----10---------10---|
|--------------------|---------------------|
|--------------------|---------------------|
|--------------------|---------------------|
|--------------------|---------------------|
|
| e Q    H       +E    E E  e E E   E  E E
|--------------------|---------------------|
|--------------------|---------------------|
|--------------------|---------------------|
|-7------5-------(5)-|-x-x--3---3b4--------|
|-5------3-------(3)-|-x-x----------0--2-0-|
|--------------------|---------------------|
|
| W                    W
|--------------------|---------------------|
|--------------------|---------------------|
|--------------------|---------------------|
|--------------------|---------------------|
|--------------------|---------------------|
|--------------------|---------------------|


  D5     C5            E5    F5 F#5
  Q    e E Q   e  E     E  E  E  E H
|-----10------10-----|-12-12-13-14---------|
|-----10------10-----|-12-12-13-14---------|
|--------------------|---------------------|
|--------------------|---------------------|
|--------------------|---------------------|
|--------------------|---------------------|
|
| E q    H       +E     E  E  E  E H
|--------------------|---------------------|
|--------------------|---------------------|
|--------------------|---------------------|
|-7-7----5-------(5)-|--9--9-10-11---------|
|-5-5----3-------(3)-|--7--7--8--9---------|
|--------------------|---------------------|
|
| W                     E  E  E  E E E E E
|--------------------|---------------------|
|--------------------|---------------------|
|--------------------|---------------------|
|--------------------|--9--9-10-11---7-9-7-|
|--------------------|--7--7--8--9---------|
|--------------------|---------------------|


  D5      C5
   Q    e E Q   e  E     Q    e E Q    e E
|------10------10-----|------10-------10---|
|------10------10-----|------10-------10---|
|---------------------|--------------------|
|---------------------|--------------------|
|---------------------|--------------------|
|---------------------|--------------------|
|
|  e Q    H       +E    +Q    E q   E  E E
|---------------------|--------------------|
|---------------------|--------------------|
|---------------------|-------7-5---5--4---|
|--7------5-------(5)-|-(5)--------------7-|
|--5------3-------(3)-|-(3)----------------|
|---------------------|--------------------|
|
|  Q    E E H            H        E E  E E
|---------------------|--------------------|
|-------7-------------|--------------------|
|-10------7-----------|--------------------|
|---------------------|-------------7--9-7-|
|---------------------|--------------------|
|---------------------|--------------------|


  D5      C5
   Q    e E Q   e  E     Q     e    E Q     e E
|------10------10-----|-------10-----------10---|
|------10------10-----|-------10-----------10---|
|---------------------|-------------------------|
|---------------------|-------------------------|
|---------------------|-------------------------|
|---------------------|-------------------------|
|
|  E q    H       +E    +Q     q      E  E  E E
|---------------------|-------------------------|
|---------------------|-------------------------|
|---------------------|-------------------------|
|--7-7----5-------(5)-|-(5)----2b3====2r--------|
|--5-5----3-------(3)-|-(3)--------------0--2-0-|
|---------------------|-------------------------|
|
|  Q    E E Q   E  E     E  E  Q      E  E  E E
|---------------------|-------------------------|
|-------7-------------|-------------------------|
|-10------7-----------|-----7-------------------|
|---------------9--7--|--9---------------7--9-7-|
|---------------------|-------------------------|
|---------------------|-------------------------|


  F5
  Q    e E Q   e  E     Q     Q   Q    Q
|-----10------10-----|------/12s=10--------|
|-----10------10-----|------/12s=10--------|
|--------------------|---------------------|
|--------------------|---------------------|
|--------------------|---------------------|
|--------------------|---------------------|
|
| e Q    H       +E    +H        +E  E E E
|--------------------|---------------------|
|--------------------|---------------------|
|-5------------------|---------------------|
|-3------3-------(3)-|-(3)-------(3)-------|
|--------------------|---------------0-2-0-|
|--------------------|---------------------|
|
| Q    E E H            H         E  E E E
|--------------------|---------------------|
|------6-------------|---------------------|
|-9------7-----------|---------------------|
|--------------------|---------------7-9-7-|
|--------------------|---------------------|
|--------------------|---------------------|


  D5      C5
   Q    e E Q   e  E     Q     Q   Q    Q
|------10------10-----|-------10------------|
|------10------10-----|-------10------------|
|---------------------|------------7\-------|
|---------------------|---------------------|
|---------------------|---------------------|
|---------------------|---------------------|
|
|  E q    H       +E    +H        +E  E E E
|---------------------|---------------------|
|---------------------|---------------------|
|---------------------|---------------------|
|--7-7----5-------(5)-|-(5)-------(5)-------|
|--5-5----3-------(3)-|-(3)-------(3)-0-2---|
|---------------------|---------------------|
|
|  Q    E E Q   E  E     E  E  Q   H
|---------------------|---------------------|
|-------7-------------|---------------------|
|-10------7-----------|-----7---------------|
|---------------9--7--|--9------------------|
|---------------------|---------------------|
|---------------------|---------------------|


  C5                      Bb5
   Q   Q   Q      E.  S   Q  Q   Q    E. S
|--8---8---8------8---8-|-6--6---6----6--6-|
|--8---8---8------8---8-|-6--6---6----6--6-|
|-----------------------|------------------|
|-----------------------|------------------|
|-----------------------|------------------|
|-----------------------|------------------|
|
|  Q   Q   Q      E.  S   Q  Q   Q    E. S
|-----------------------|------------------|
|-----------------------|------------------|
|-----------------------|------------------|
|-----------------------|------------------|
|-10--10--10-----10--10-|-8--8---8----8--8-|
|--8---8---8------8---8-|-6--6---6----6--6-|
|
|  H      +E   E  Q       H     +E  E Q
|-----------------------|------------------|
|-----------------------|------------------|
|--9------(9)-10--9-----|-7-----(7)-9-7----|
|-----------------------|------------------|
|-----------------------|------------------|
|-----------------------|------------------|


  A5          N.C.
  Q   Q  H      H        Q     Q   a
|-5\----------|----------------0s==8-|
|-5\----------|----------------0s==8-|
|-------------|----------------------|
|-------------|----------------------|
|-------------|----------------------|
|-------------|----------------------|
|
| Q   Q  H      H        Q     Q
|-------------|----------------------|
|-------------|----------------------|
|-------------|----------------------|
|-------------|----------------0S====|
|-7\----------|----------------0S====|
|-5\----------|----------------------|
|
|                        |-3-|
| Q   Q  H      E E E E  E E E E E
|-------------|----------------------|
|-------------|----------------------|
|-6\----------|-------7-10p9p7-9-7---|
|-------------|---7-9----------------|
|-------------|----------------------|
|-------------|----------------------|


  D5       C5
   Q     e E Q   e  E     Q    e E Q    e E
|-------10------10-----|------10-------10---|
|-------10------10-----|------10-------10---|
|----------------------|--------------------|
|----------------------|--------------------|
|----------------------|--------------------|
|----------------------|--------------------|
|
|  e  Q    H       +E    +Q    E E E E  E E
|----------------------|--------------------|
|----------------------|--------------------|
|----------------------|--------------------|
|--7-------5-------(5)-|-(5)---x-x-x--------|
|--5-------3-------(3)-|-(3)---x-x-x-0--2-0-|
|----------------------|--------------------|
|
| +Q     Q   H            W
|----------------------|--------------------|
|----------------------|--------------------|
|-(7)------------------|--------------------|
|----------------------|--------------------|
|----------------------|--------------------|
|----------------------|--------------------|


  D5     C5
  Q    e E Q   e  E     Q    e  E Q   e   E
|-----10------10-----|------10-------10-------|
|-----10------10-----|------10-------10-------|
|--------------------|------------------------|
|--------------------|------------------------|
|--------------------|------------------------|
|--------------------|------------------------|
|
| E q    H       +E    +Q    q    q   q
|--------------------|------------------------|
|--------------------|------------------------|
|--------------------|------(5)---5---5-------|
|-7-7----5-------(5)-|-(5)--------------------|
|-5-5----3-------(3)-|-(3)--------------------|
|--------------------|------------------------|
|
|                                     |--3--|
| W                     H         Q   E E   E
|--------------------|------------------------|
|--------------------|------------------------|
|--------------------|---------------10p9p==7-|
|--------------------|------------------------|
|--------------------|------------------------|
|--------------------|------------------------|


  D5     C5
  Q    e E Q   e  E    Q    e E Q    e E
|-----10------10-----|-----10-------10---|
|-----10------10-----|-----10-------10---|
|--------------------|-------------------|
|--------------------|-------------------|
|--------------------|-------------------|
|--------------------|-------------------|
|
| e Q    H       +E    E E  E E E E  E E
|--------------------|-------------------|
|--------------------|-------------------|
|--------------------|-------------------|
|-7------5-------(5)-|-x-x--x-x-x--------|
|-5------3-------(3)-|-x-x--x-x-x-0--2-0-|
|--------------------|-------------------|
|
| W                    W
|--------------------|-------------------|
|--------------------|-------------------|
|--------------------|-------------------|
|--------------------|-------------------|
|--------------------|-------------------|
|--------------------|-------------------|


  D5     C5
  Q    e E Q   e  E     Q    e E  H
|-----10------10-----|------10-------------|
|-----10------10-----|------10-------------|
|--------------------|---------------------|
|--------------------|---------------------|
|--------------------|---------------------|
|--------------------|---------------------|
|
| E q    H       +E    +H        +E  E E E
|--------------------|---------------------|
|--------------------|---------------------|
|--------------------|---------------------|
|-7-7----5-------(5)-|-(5)-------(5)-------|
|-5-5----3-------(3)-|-(3)-------(3)-0-2-0-|
|--------------------|---------------------|
|
| W                     H         Q    Q
|--------------------|---------------------|
|--------------------|------------8--------|
|--------------------|---------------------|
|--------------------|---------------------|
|--------------------|---------------------|
|--------------------|---------------------|


  D5
   Q    Q      H            Q  E   Q  E Q
|-10----------------------|-------10-------*|
|-10----------------------|-------10-------*|
|-------------------------|----------------*|
|-------------------------|----------------*|
|-------------------------|----------------*|
|-------------------------|----------------*|
|
|  Q    Q      H            Q  E   Q  E Q
|-------------------------|----------------*|
|-------------------------|----------------*|
|-------------------------|----------------*|
|--7\---------------------|--------7-------*|
|--5\---------------------|--------5-------*|
|-------------------------|----------------*|
|
|       |-3-|  |-3-|
|  Q    E E E  E E E  E E   Q  E   Q  E Q
|------10-9-8-------------|------/10-------*|
|-------------10-9-8------|------/10-------*|
|--------------------10-7-|----------------*|
|-------------------------|----------------*|
|-------------------------|----------------*|
|-------------------------|----------------*|

dont ask for more
comments
We did not receive enough feedback on this tab! Please rate:
print report bad tab
1 2 3 4 5
1 comment total.
+1 reply
geetarguy1313 wrote on January 26 2009, 06:59 pm

yay, first comment! now to the tab. nice, sounds exactly like it.

I want to post or [tab]
guest
You may want to rate the tab now too:
select rating
Please do not post tabs as comments. Select "correction" instead!