Oops, an error
Loading. Please wait.

Hark The Harold Angels Sing Tab

35,694 views 9 this week
14 commentsread comments
1 2 3 4 5
excellent!
x 19
add to favorites launch autoscroll
font size
0
reset
Autoscroll
+/-
esc
set tempo
stop
Contributor
WARNING: You are trying to view
                                    content from Ultimate-Guitar.com
                                    in an unauthorized application,
                                    which is prohibited.

                                    Please use an official Ultimate
                                    Guitar Tabs application for iPhone,
                                    iPad or Android to access legitimate
                                    chords, guitar, bass, and drum tabs
                                    from Ultimate-Guitar.com database.

                                    Type "ultimate guitar tabs" in Apple
                                    App Store's or Android Market's
                                    search to find the application.
-----------------------------------------------------------------------------
                             Hark The Harold Angels Sing - Christmas
-----------------------------------------------------------------------------
Tabbed by: Chris Titus
Email: Eaglestalon101@yahoo.com

Tuning: Standard

I was in the Christmas mood and decided to look up Hark The Harold Angels Sing because
I was too lazy to play the song myself. The other tabs didn't seem good, but at least
they tried.  I think this is right, I haven't heard this song in ages, but I believe
this works, you can spice it up with some power chords or something...And this is my
first tab, so it's fairly simple.

e|-----------2-2-0--5-5-5-3-2-0-2-|----------2-2-0-5-0-0--------------|
B|---3-3-2-3----------------------|--3-3-2-3-------------3-2-0--------|
G|-2------------------------------|2---------------------------2------|
D|--------------------------------|-----------------------------------|
A|--------------------------------|-----------------------------------|
E|--------------------------------|-----------------------------------|

e|-5-5-5---3-2-2-0--5-5-5---3-2-2-0|
B|-------3----------------3--------|
G|---------------------------------|
D|---------------------------------|
A|---------------------------------|
E|---------------------------------|

e|-7-7-7-5-3-2-3--0-2-3-5-0-0-2-|
B|-----------------------------3|
G|------------------------------|
D|------------------------------|
A|------------------------------|
E|------------------------------|   x2







| /  slide up
| \  slide down
| h  hammer-on
| p  pull-off
| ~  vibrato
| +  harmonic
| x  Mute note
=============================================================================
14 comments total. Showing first comments.
+3 reply
gunsNroses140 wrote on October 4 2006, 04:03 pm

e|-7-7-7-5-3-2-3--0-2-3-5-0-0-2-|
B|-----------------------------3|
G|------------------------------|
D|------------------------------|
A|------------------------------|
E|------------------------------|

Dude this part is wrong. It should be this:

e|-7-7-7-5-3-2-3--0h2-3-5-----0-|
B|-----------------------3--3--3|
G|------------------------------|
D|------------------------------|
A|------------------------------|
E|------------------------------|

I put the hammer-on because it sounds good. Everything but the last part in your tab is all good.

+3 reply
gunsNroses140 wrote on October 4 2006, 04:04 pm

Oh man I messd up, the hammer-on should be between the 2 and 3, like this:

e|-7-7-7-5-3-2-3--0-2-3-5-----0-|
B|-----------------------3--3--3|
G|------------------------------|
D|------------------------------|
A|------------------------------|
E|------------------------------|

+1 reply
joeskolnik wrote on December 1 2006, 10:54 pm

its very good

I want to post or [tab]
guest
You may want to rate the tab now too:
select rating
Please do not post tabs as comments. Select "correction" instead!