Oops, an error
Loading. Please wait.

Silent Night Tab

566,531 views 291 this week
21 commentsread comments
1 2 3 4 5
excellent!
x 88
Autoscroll
+/-
esc
set tempo
stop
WARNING: You are trying to view
                                    content from Ultimate-Guitar.com
                                    in an unauthorized application,
                                    which is prohibited.

                                    Please use an official Ultimate
                                    Guitar Tabs application for iPhone,
                                    iPad or Android to access legitimate
                                    chords, guitar, bass, and drum tabs
                                    from Ultimate-Guitar.com database.

                                    Type "ultimate guitar tabs" in Apple
                                    App Store's or Android Market's
                                    search to find the application.
#----------------------------------PLEASE NOTE---------------------------------#
#This file is the author's own work and represents their interpretation of the #
#song. You may only use this file for private study, scholarship, or research. #
#------------------------------------------------------------------------------#
#


From: whc2993@ritvax.isc.rit.edu

   *
  ***      Hey everybody, lets play some Christmas music!
 *****
*******
   I                        SILENT NIGHT

				by
			Joseph Mohr & Franz Gruber

Basic Accompaniment pattern: change along with chords.
   _________  ____________
   |   |   |  |     |    |
|-------------------3---------|
|----------0-------------0----|
|------0------0---------------|
|-----------------------------|
|-----------------------------|
|--3--------------------------|

The song is in 3/4 time in the key of G.
This arrangement contains the melody notes along with additional notes to make
it sound good on one guitar.  For a duet, add the above accompaniment.

  G
|-------0-----|----------------|-------0-----|----------------|
|-3--------3--|-0--------0-----|-3--------3--|-0--------1--0--|
|-0--0--------|-0--0--------0--|-0--0--------|-0--0-----------|
|-0-----------|-0-----0--------|-0-----------|-0-----0--------|
|-2-----------|-2--------------|-2-----------|-2--------------|
|-3-----------|-3--------------|-3-----------|-3--------------|
  Si -    lent  Night            Ho -     ly   Night

  D7                    G                            C
|-5-----5--|-2--------|-3------3--|----------------|-0--------0--|
|-3-----3--|-1--0-----|-0---------|-3--------------|-1-----1-----|
|-2--------|-------2--|-0---------|-0--0-----------|-0--0--------|
|----0-----|----------|-----0-----|-0-----0--------|-2-----------|
|----------|----------|-----------|-2--------0--2--|-3-----------|
|----------|----------|-----------|-3--------------|-------------|
  all   is   calm       all    is   bright           'round    yon

                G                              C
|-3-----2--0--|-------0-----|----------------|-0--------0-|-3-----2---0-|
|-1-----------|-3--------3--|-0--------------|-1-----1----|-1-----------|
|-0--0--------|-0--0--------|-0--0-----------|-0--0-------|-0--0--------|
|-2-----------|-0-----------|-0-----0--------|-2----------|-2-----------|
|-------------|-2-----------|-2--------0--2--|-3----------|-------------|
|-------------|-3-----------|-3--------------|------------|-------------|
  vir   -  gin  moth -er and  child            Ho  -    ly  in  -fant so

  G                              D7                      G
|-------0-----|----------------|-5-----5--|-8-----5--2-|-3--------------|
|-3--------3--|-0--------1--0--|-3--------|-7----------|-0--------0-----|
|-0--0--------|-0--0-----------|-2--------|-5----------|-0--0-----------|
|-0-----------|-0-----0--------|----0-----|----0-------|-------0-----0--|
|-2-----------|-2--------------|----------|------------|----------------|
|-3-----------|-3--------------|----------|------------|----------------|
  ten -der and  mild             sleep in   heav- en-ly  peace,..........

                               D7          G
|-7--------------|-3--------|------------|-3---------3-|
|-0--------0-----|-0--3--0--|--3----1----|-3-----3-----|
|-0--0-----------|-0--------|--2-------2-|-0-0-----0---|
|-0-----0-----0--|-0--------|--0---------|-0---0-------|
|----------------|----------|------------|-2-----------|
|----------------|----------|------------|-3-----------|
...                sleep in    heav-en-ly

			
	Silent Night, Holy Night
	Sheperds quake,
	At the sight.
	Glories stream from
	Heaven above,
	Heavenly Hosts sing Alleluia,
	Christ the Savior is born!
	Christ the Savior is born!



Date: Sat, 2 Dec 1995 23:41:29 +0100
From: PINTER Denes <dpinter@eik.bme.hu>
Subject: misc_christmas: silent__night.tab 

                                Silent Night
                                          ,   , 
                          arranged by Pinter Denes

  *                            *           *           *
|-------0-----------------|--|-5-------5---2-----2-----3-------3--------------|
|-3-------3---0-----0-----|--|-3-----3---3-3---3---3---0-----0---0-3-----3----|
|-0---0-----0-0-------0---|0/|-----2---------2-------2-----0-------0-------0--|
|---0-------------0-----0-|/0|---0---------0-------0-----0-------------0-----0|
|-2-----3-2-----2---------|--|-3-------3---------------2-------2-----2--------|
|-------------3-----------|--|-------------------------------------3----------|
  *                       *  
|-0-------0---3-----2-0---------0-----------------|--|
|-1-----1---1-----1-----1-3-------3---0-----0-----|--|
|-----0---------0---------0---0-----0-0-------0---|0/|
|---2---------2-----0-------0-------------0-----0-|/0|
|-3-------3-----------3---2-----3-2-----2---------|--|
|-------------------------------------3-----------|--|
  *           *            *           *
|-5-------5---8------------3-----3------------------|
|-3-----3---3-10----10-7---3---3---3--<12>----------|
|-----2-----------7------7---0--------<12>----------|
|---0-----------7---------------------<12>----------|
|-3-------5---9------------2-----------10-----------|
|---------------------------------------------------|     2 December 1995
  *           *           *                           dpinter@goliat.eik.bme.hu
|-3----------------------------------------------|
|-3-----3-----3-----1----------------------------|
|---------4---2---2-----2-0-----0----------------|        * : change fingering
|-----5-----5---0-----4-------0---0--------------|
|---5---------3-------------2-------2------------|        0/
|-3-----------------------3-----------3----------|        /0 : replay

From: "Jean-Francois ALLOT" <jfallot@mfi.fr>
Date: Tue, 9 Jan 1996 15:44:02 +0000
Subject: TAB: silent night

Christmas is coming, did you think to the little guitar demo, near the christmas tree,
all your family around would request (I'm thinking to beginners) ?

Playing the last death riff of a 'killer metallic group' with your grand-parents
is maybe not the best to do ...

As many of you requested, here is the classical christmas hit 'silent night'.

This version is simpler than the others you can find at nevada's ftp site.
(it is maybe not exact, but it sounds well).

    SILENT NIGHT

||-0---2p0---------|-0---2p0---------|-7---7---4-------|-5---5---0-------|
||----------2------|----------2------|-----------------|-----------------|
||-----------------|-----------------|-----------------|-----------------|
||-----------------|-----------------|-----------------|-----------------|
||-0--------0------|-0--------0------|-----------------|-0-------0-------|
||-----------------|-----------------|-0-------0-------|-----------------|


 |-2--2--5---4--2--|-0---2p0---------|-2--2--5---4--2--|-0---2p0---------|
 |-----------------|----------2------|-----------------|----------2------|
 |-----------------|-----------------|-----------------|-----------------|
 |-0--0------------|-----------------|-0--0------------|-----------------|
 |-------0---------|-0--------0------|-------0---------|-0--------0------|
 |-----------------|-----------------|-----------------|-----------------|


 |-7--7--10--7--4--|-5--5---9--------|-5--------0------|-------------0---|
 |-----------------|-----------------|----5------------|-3--0--------2---|
 |-----------------|-----------------|-------6---------|--------2----2---|
 |-----------------|-----------------|-----------------|----------or-2---|
 |-----------------|-0------0--------|-0---------------|--------0----0---|
 |-0-----0---------|-----------------|----------0------|-----------------|

Suggestions are Welcome !
Merry Christmas !

JF    (JFALLOT@MFI.FR)

PS: tabbed by 'my hands' software master	;-)
______________________________________________________________

 Jean-Francois ALLOT  -  Software Engineer  -  JFALLOT@MFI.FR
  MFI -  23-25, rue Jean Rostand - 91893 Orsay Cedex - FRANCE 
   Tel: 33 (1) 69 41 83 47 - Fax: 33 (1) 69 41 83 51

         Real programmers use: COPY CON PROGRAM.EXE
______________________________________________________________

comments
print report bad tab
21 comments total. Showing first comments.
0 reply
SeXiGuItArChIk9 wrote on December 31 2002, 12:00 am

---0--------0------5-5-2--3-3---
-3---3-0--3---3-0-------------3-
--------------------------------
--------------------------------
--------------------------------
--------------------------------

-----3-2------------
-5-5-----5--3-5-3---
------------------4- x2
--------------------
--------------------
--------------------

-5-5-8-5-----7--3-------------
---------7-8------3-0-3-1-----
--------------------------2-0-
------------------------------
------------------------------
------------------------------

This is my first tab and Im almost positive its right! If not~feel free to email me at OodRaynPron119@hotmail.com

-1 reply
tHE_pEOpLE_3 wrote on December 19 2004, 12:00 am

this tab sucks i have a killer tab of it but i dunno how to post it
-------------------------------------------------------------------------------
Silent Night - Christmas Song
-------------------------------------------------------------------------------
Tabbed by:Dave Zablocki
Email:davidki3@hotmail.com

Tuning:Standard

THIS IS CORRECT AND IS AWESOME NOW LISTEN UP AND PLAY!!!!

e|-------------------------------2--2-----|
B|-0--2--0---------0--2--0--------------4-|
G|------------1--------------1------------|
D|----------------------------------------|
A|-------------------------------2------2-|
E|-0----------0----0---------0------------|

e|-0--0--------------0----------------------|
B|--------0---2--2-------4--2---0--2--0-----|
G|----------------------------------------1-|
D|------------------------------------------|
A|------------0------0----------------------|
E|-0------0---------------------0---------0-|

e|--------0-----------------------2--2---5--2----|
B|-2--2------4--2---0--2--0--------------------4-|
G|----------------------------1------------------|
D|-----------------------------------------------|
A|-0------0-----------------------2------2-------|
E|------------------0---------0------------------|

e|-0---4---0--------------------------|
B|------------0------0----------------|
G|---------------1------2-------------|
D|-------------------------4---2~~~~2-|
A|-------------------2----------------|
E|-0---0---0-------------------0~~~~0-|

| ~ vibrato

Silent night, holy night, Shepherds quake at the sight,
Glories stream from heaven afar, Heavenly hosts sing "Alleluia;
Christ the Saviour is born, Christ the Saviour is born."


Silent night, holy night, Son of God, Loves pure Light
Radiant beams from Thy holy face, With the dawn of redeemin grace,
Jesus, Lord at Thy birth, Jesus, Lord at Thy Birth.


Silent night, holy night, Wondrous Star, lend thy light;
With the angel let us sing, Alleluia to our King;
Christ the Saviour is born, Christ the Saviour is born.

===============================================================================
There Ya Go, Perfect

0 reply
EVH4ever wrote on December 11 2005, 02:30 pm

The first tab was good I dunno about the other 2 tho

I want to post or [tab]
guest
You may want to rate the tab now too:
select rating
Please do not post tabs as comments. Select "correction" instead!