Oops, an error
Loading. Please wait.

Dynasty Warriors 4 - Eve Tab

ver1
ver1

Whole song

Interactive

More versions @911Tabs.com
4,621 views 1 this week
3 commentsread comments
1 2 3 4 5
worth learning
x 6
Autoscroll
+/-
esc
set tempo
stop
Contributor
Difficulty
intermediate
Hey! There's an official Ultimate Guitar app which is ideal
for learning songs when you're away from computer. Get the app
WARNING: You are trying to view
                                    content from Ultimate-Guitar.com
                                    in an unauthorized application,
                                    which is prohibited.

                                    Please use an official Ultimate
                                    Guitar Tabs application for iPhone,
                                    iPad or Android to access legitimate
                                    chords, guitar, bass, and drum tabs
                                    from Ultimate-Guitar.com database.

                                    Type "ultimate guitar tabs" in Apple
                                    App Store's or Android Market's
                                    search to find the application.
Dynasty Warriors 4 - Eve
-------------------------

One of my personal favorite pieces in the game Dynasty Warriors 4,
kind of lengthy and fast, but oh so fun. A little different since
it requires 3 guitars to play to it's full extent, but if you can
work it all together it sounds absolutely amazing.


Intro
------

	Guitar 1
	---------

eb|---12--0--0--14--0--0--15--0--0--17--0--0--15--0--14--0--|
Gb|---------------------------------------------------------|
Bb|---------------------------------------------------------|  }x16
Db|---------------------------------------------------------|
Ab|---------------------------------------------------------|
Eb|---------------------------------------------------------|


	Guitar 2 (come in after G1 has played it's riff 8 times)
	----------

eb|---15--0--0--17--0--0--19--0--0--20--0--0--19--0--17--0--|
Gb|---------------------------------------------------------|
Bb|---------------------------------------------------------| }x8
Db|---------------------------------------------------------|
Ab|---------------------------------------------------------|
Eb|---------------------------------------------------------|


	Guitars 1 and 2 (after both have played their initial riffs)
	----------------

                                              *hold/vibrato
|---14b14.5--------14----15---16b17---15---14------------------------------------|
|------------15---------------------------------15~~~~~~~~~~~~~~~~~~~~~~~~~~~15\-|
|--------------------------------------------------------------------------------|
|--------------------------------------------------------------------------------|
|--------------------------------------------------------------------------------|
|--------------------------------------------------------------------------------|

	Guitar 3
	---------

   *let the first note ring, mute strings right after striking the second note
|---------------------------------------------------------------------------|
|---------------------------------------------------------------------------|
|---------------------------------------------------------------------------|
|---9----------------------------------------3------------------------------| x2
|---7----------------------------------------5------------------------------|
|---------------------------------------------------------------------------|


|-----------------------------------------------------|
|-----------------------------------------------------|
|-----------------------------------------------------| x8
|-----------------------------------------------------|
|---0--0--0--0--0--0--0--0--0--0--0--0--0--0--0--0----|
|---0--0--0--0--0--0--0--0--0--0--0--0--0--0--0--0----|
PM |----------------------(x16)-----------------------|


verse
------

	Guitars 1 and 2
	----------------

eb|---12--12--12--14--14--14--15--15--15--17--17--17--15--15--14--14--|
Gb|-------------------------------------------------------------------|
Bb|-------------------------------------------------------------------|
Db|-------------------------------------------------------------------| x2
Ab|-------------------------------------------------------------------|
Eb|-------------------------------------------------------------------|

eb|---------------14--14--14--15--15--15--17--17--17--15--15--14--14--|
Gb|---15--15--15------------------------------------------------------|
Bb|-------------------------------------------------------------------| x2
Db|-------------------------------------------------------------------|
Ab|-------------------------------------------------------------------|
Eb|-------------------------------------------------------------------|

eb|---12--12--12--14--14--14--15--15--15--17--17--17--15--15--14--14--|
Gb|-------------------------------------------------------------------|
Bb|-------------------------------------------------------------------|
Db|-------------------------------------------------------------------| x2
Ab|-------------------------------------------------------------------|
Eb|-------------------------------------------------------------------|

eb|---------------14--14--14--15--15--15--17--17--17--15--15--14--14--|
Gb|---15--15--15------------------------------------------------------|
Bb|-------------------------------------------------------------------|
Db|-------------------------------------------------------------------|
Ab|-------------------------------------------------------------------|
Eb|-------------------------------------------------------------------|


eb|---------------14--14--14--15--15--15--17--17--17------------------|
Gb|---15--15--15--------------------------------------15\-------------|
Bb|-------------------------------------------------------------------|
Db|-------------------------------------------------------------------|
Ab|-------------------------------------------------------------------|
Eb|-------------------------------------------------------------------|

	Guitar 3(repeat once)
	------------------------

|-------------------------------------------------|
|-------------------------------------------------|
|-------------------------------------------------|
|---9----------------9----------------9-----------|
|---7----0--0--0--0--7----0--0--0--0--7----0--0---|
|--------0--0--0--0-------0--0--0--0-------0--0---|
PM:     |----------|     |----------|     |-------|

|-------------------------------------------------|
|-------------------------------------------------|
|-------------------------------------------------|
|---7----5--5--5--5--7----5--5--5--5--6----5--5---|
|---5----5--5--5--5--5----5--5--5--5--5----5--5---|
|-------------------------------------------------|
PM:     |----------|     |----------|     |-------|

Flute solo (done in guitar, obviously)
---------------------------------------


	Guitar 1
	---------
                                                       *hold note/vibrato
|---12------------12---14-----15--14-----------------------------------|
|----------12-------------------------15----------15-------------------|
|-------------------------------------------14---------17~~~~~~~~~~~~~-|
|----------------------------------------------------------------------|
|----------------------------------------------------------------------|
|----------------------------------------------------------------------|

                                                       *hold notes/vibrato
|---12------------12---14-----15--14-----------------------------------|
|----------12-------------------------15----------15---17~~~~~s20~~~~~-|
|-------------------------------------------14-------------------------|
|----------------------------------------------------------------------|
|----------------------------------------------------------------------|
|----------------------------------------------------------------------|

                                                         *hold note/vibrato
|---15------------15---17-----22-----17---19-----19--17----------------|
|----------15--------------------------------------------17~~~~~~~~~~~-|
|----------------------------------------------------------------------|
|----------------------------------------------------------------------|
|----------------------------------------------------------------------|
|----------------------------------------------------------------------|


                                          *hold note/fade out
|---19------------19---17-----22-----19---22b24-----------------------|
|----------17---------------------------------------------------------|
|---------------------------------------------------------------------|
|---------------------------------------------------------------------|
|---------------------------------------------------------------------|
|---------------------------------------------------------------------|

	Guitar 2 and 3(repeat once)
	-----------------------------

|------------------------------------------------|
|------------------------------------------------|
|------------------------------------------------|
|---9-----------9---x--x--7---5---5---7---x--x---|
|---7---0---0---7---x--x--5---5---5---5---x--x---|
|-------0---0------------------------------------|
PM:    |-----|               |-------------------|

|------------------------------------|
|------------------------------------|
|------------------------------------|
|---5---3---3---5---3---3---5---3----| x2
|---3---3---3---3---3---3---3---3----|
|------------------------------------|
PM:    |-----|     |-----|     |-----|


|-----------------------------------|
|-----------------------------------|
|-----------------------------------|
|---7-----------7-----------7-------|
|---7---7---7---7---7---7---7---7---|
|---5---5---5---5---5---5---5---5---|
PM:    |-----|     |-----|     |----|

|-----------------------------------|
|-----------------------------------|
|-----------------------------------|
|---7---5---5---7---5---5---7---5---|
|---5---5---5---5---5---5---5---5---|
|-----------------------------------|
PM:    |-----|     |-----|     |----|

|-------------------------------------|
|-------------------------------------|
|-------------------------------------|
|---5---3---3---5---3---3---5---5s7---|
|---3---3---3---3---3---3---3---3s5---|
|-------------------------------------|
PM:    |-----|     |------------------|

Solo(guitars 1 and 2 are played harmonizing)
---------------------------------------------

	Guitar 1
	---------

|--------------------------------------------------------------------------|
|-------------------------------------15---13b13.5-----12b13r12b13r12------|
|-----------------------12-----14------------------------------------------|
|---/12-----14-----16------------------------------------------------------|
|--------------------------------------------------------------------------|
|--------------------------------------------------------------------------|


|---------------------------------------------------|
|---------------------------------------------------|
|-----------12--------------------------------------|
|---12--14---------14-----12---11-----12------------|
|--------------------------------------------14-----|
|---------------------------------------------------|


|---------------------------------------------------|
|---------------------------------------------------|
|---------------------------------------------------|
|---11--12--14-----12---11---11-----11s12-----------|
|---------------------------------------------------|
|---------------------------------------------------|


|-------------------------------------15---14b14.5-----12b13r12-----|
|------------------------------12-----------------------------------|
|------------------12---14------------------------------------------|
|---/12-----14------------------------------------------------------|
|-------------------------------------------------------------------|
|-------------------------------------------------------------------|

                             *hold note/Vibrato
|---12--14--15-----19---14---14~~~~~s15-----17---|
|------------------------------------------------|
|------------------------------------------------|
|------------------------------------------------|
|------------------------------------------------|
|------------------------------------------------|


|---20--20--20s19----19--19--19s17----17--17--17s15----15--15--15s14----|
|-----------------------------------------------------------------------|
|-----------------------------------------------------------------------|
|-----------------------------------------------------------------------|
|-----------------------------------------------------------------------|
|-----------------------------------------------------------------------|


|---14--14--14s12----12--12--12------------------------------------------|
|--------------------------------15----15--15--15s13----13--13--13s12----|
|------------------------------------------------------------------------|
|------------------------------------------------------------------------|
|------------------------------------------------------------------------|
|------------------------------------------------------------------------|


|------------------------------------------------------------------------|
|---12--12--12-----------------------------------------------------------|
|---------------14----14--14--14s12----12--12--12b13r12b13r12------------|
|------------------------------------------------------------------------|
|------------------------------------------------------------------------|
|------------------------------------------------------------------------|

	Guitar 2
	---------

|---------------------------------------------------------------------|
|--------------------5-----7------------------------------------------|
|----------4-----7-------------------5b5.5-----4b5r4b5r4--------------|
|---/5---------------------------5------------------------------------|
|---------------------------------------------------------------------|
|---------------------------------------------------------------------|


|-----------------------------------------------|
|-----------------------------------------------|
|----------8------------------------------------|
|---9--11--------11-----9----------9------------|
|---------------------------12-----------10-----|
|-----------------------------------------------|

|-----------------------------------------------------|
|-----------------------------------------------------|
|----------8------------------------------------------|
|---9--11--------11-----9-----------------------------|
|---------------------------12-----12s14--------------|
|-----------------------------------------------------|

|--------------------------------------------------------------|
|--------------------5-----7-----8b8.5---7b7.5-----5b5.5r5-----|
|----------4-----7---------------------------------------------|
|---/5---------------------------------------------------------|
|--------------------------------------------------------------|
|--------------------------------------------------------------|


|---------------7-----------------------------|
|---5--7--8-----------8---8-----8s10-----10---|
|---------------------------------------------|
|---------------------------------------------|
|---------------------------------------------|
|---------------------------------------------|


|------------------------------------------------------------------|
|---13--13--13s12----12--12--12s10----10--10--10s8----8--8--8s7----|
|------------------------------------------------------------------|
|------------------------------------------------------------------|
|------------------------------------------------------------------|
|------------------------------------------------------------------|


|----------------------------------------------------------------------|
|---7--7--7s5----5--5--5-----------------------------------------------|
|-------------------------7----7--7--7s5----5--5--5--------------------|
|----------------------------------------------------9----9--9--9s7----|
|----------------------------------------------------------------------|
|----------------------------------------------------------------------|


|-------------------------------------------------|
|-------------------------------------------------|
|-------------------------------------------------|
|---7--7--7s5----5--5--5b6r5b6r5------------------|
|-------------------------------------------------|
|-------------------------------------------------|

	Guitar 3 (repeat once)
	---------

|------------------------------------------------|
|------------------------------------------------|
|------------------------------------------------|
|---9-----------9---x--x--7---5---5---7---x--x---|
|---7---0---0---7---x--x--5---5---5---5---x--x---|
|-------0---0------------------------------------|
PM:    |-----|               |-------------------|

|------------------------------------|
|------------------------------------|
|------------------------------------|
|---5---3---3---5---3---3---5---3----| x2
|---3---3---3---3---3---3---3---3----|
|------------------------------------|
PM:    |-----|     |-----|     |-----|


|-----------------------------------|
|-----------------------------------|
|-----------------------------------|
|---7-----------7-----------7-------|
|---7---7---7---7---7---7---7---7---|
|---5---5---5---5---5---5---5---5---|
PM:    |-----|     |-----|     |----|

|-----------------------------------|
|-----------------------------------|
|-----------------------------------|
|---7---5---5---7---5---5---7---5---|
|---5---5---5---5---5---5---5---5---|
|-----------------------------------|
PM:    |-----|     |-----|     |----|

|-------------------------------------|
|-------------------------------------|
|-------------------------------------|
|---5---3---3---5---3---3---5---5s7---|
|---3---3---3---3---3---3---3---3s5---|
|-------------------------------------|
PM:    |-----|     |------------------|

heh, Enjoy!
comments
print report bad tab
3 comments total.
0 reply
Royal Falcon wrote on January 19 2006, 03:54 pm

This intro i have tested is not so good and my friend may know a better one,i would advise you try to make this tab more detailed ,thank you

0 reply
iruka2998 wrote on April 21 2008, 12:23 pm

intros wierd

0 reply
sonicspeed6570 wrote on May 1 2008, 07:46 pm

um... where can i hear it (since i don't have the game anymore)?

I want to post or [tab]
guest
You may want to rate the tab now too:
select rating
Please do not post tabs as comments. Select "correction" instead!