Oops, an error
Loading. Please wait.

Dynasty Warriors 4 - Wall Of Fate Bass Tab

763 views 9 this week
no commentswrite comment
1 2 3 4 5
excellent!
x 1
Autoscroll
+/-
esc
set tempo
stop
Contributor
Difficulty
Tuning
intermediate
B E A D F# B
WARNING: You are trying to view
                                    content from Ultimate-Guitar.com
                                    in an unauthorized application,
                                    which is prohibited.

                                    Please use an official Ultimate
                                    Guitar Tabs application for iPhone,
                                    iPad or Android to access legitimate
                                    chords, guitar, bass, and drum tabs
                                    from Ultimate-Guitar.com database.

                                    Type "ultimate guitar tabs" in Apple
                                    App Store's or Android Market's
                                    search to find the application.
                              Wall of fate               
                            Dynasty Warriors 4           
  
tuning: 5 strings bass
i hope you understand it because i don't make text tabs, just Guitar Pro tabs, but 
maybe many people hasn't Guitar Pro, so i make this tab in guitar pro and text (this one). 
GREAT SONG, specially the bass solo
                                                                            



     E  H.           E     H        Q.     E     E  H.           E   
G||---------------------|---------------------|---------------------|
D||---------------------|---------------------|---------------------|
A||--2------------------|------------------2--|--2------------------|
E||---------------------|---------------------|---------------------|
B||---------------------|---------------------|---------------------|


  H        Q    Q       E  H.           E     H        Q.     E   
---------------------|---------------------|---------------------|
---------------------|---------------------|---------------------|
----------------4----|--2------------------|------------------2--|
---------------------|---------------------|---------------------|
---------------------|---------------------|---------------------|


  E  H.             E     E  E  E  E  E  Q.        E  E  E  E  E  E  E  E   
-----------------------|------------------------|--------------------------|
------------------4g6--|--L--4-----------4------|--------------------------|
--2--------------------|--------6--4--2---------|--2--------2--2--------2--|
-----------------------|------------------------|--------------------------|
-----------------------|------------------------|-----0--0--------0--0-----|


  E  E  E  E  E  Q.        E  E  E  E  E  E  E  E     E  E  E  Q    E  Q     
------------------------|--------------------------|------------------------|
------------------------|--------------------------|------------------------|
--2--------4--5--4------|--2--------2--2--------2--|--2---------------------|
------------------------|--------------------------|-----------2----3--4----|
-----0--0---------------|-----0--0--------0--0-----|-----0--0---------------|


  E  E  E  E  E  E  E  E     E  E  E  E  E  Q.        E  E  E  E  E  E  E  E   
--------------------------|------------------------|-------------------------
--------------------------|------------------------|-------------------------
--2--------2--2--------2--|--2--------4--5--4------|--2--------2--2--------2-
--------------------------|------------------------|-------------------------
-----0--0--------0--0-----|-----0--0---------------|-----0--0--------0--0----

  E  E  E  E  E  E  E  E     E  E  E  E  E  E  E  E   
--------------------------|--------------------------|
-----4--5--6--------------|-----6--7--8--------------|
--------------4--5--6-----|--------------6--7--8-----|
-----------------------4--|-----------------------6--|
--------------------------|--------------------------|


  E  E  E  E  E  E  E  E     E  E  E  E  E  E  E  E   
--------------------------|--------------------------|
-----4--5--6--------------|--------------------------|
--------------4--5--6-----|--------------------------|
--------------------------|--------------------------|
-----------------------0--|--0--0--0--0--0--0--0--0--|


  E  E  E  E  E  E  E  E     E  E  E  E  E  E  E  E   
--------------------------|--------------------------|
--------------------------|--------------------------|
--------------------------|--------------------------|   play this many times
--------------------------|--------------------------|
--0--0--0--0--0--0--0--0--|--0--0--0--0--0--0--0--0--| 




  E  E  E  E  E  E  E  E     Q.     E  Q.     E     E  Q    E  Q.     E   
--------------------------|----------------------|-----------------------|
--------------------------|----------------------|-----------------------|
--------------------------|------------2---------|-------------2---------|
--------------------------|--0------0---------0--|-----0----0---------0--|
--0--0--0--0--0--0--0--0--|----------------------|-----------------------|


  Q.     E  Q.     E     E  Q    E  Q.     E     E  E  E  E  E  E  E  E   
----------------------|-----------------------|--------------------------|
----------------------|-----------------------|--------------------------|
------------4---------|-------------4---------|--------------------------|
--2------2---------2--|-----2----2---------2--|--------------------------|
----------------------|-----------------------|--0--0--0--0--0--0--0--0--|


  E  E  E  E  E  E  E  E     E  E  E  E  E  E  E  E     E  E  E  E  E  E  Q     
--------------------------|--------------------------|-----------------------
--------------------------|--------------------------|-----------------------
--------------------------|--------------------------|-----------------5--6--
--------------------------|--------------------------|-----------------------
--0--0--0--0--0--0--0--0--|--0--0--0--0--0--0--0--0--|--0--0--0--0--0--------
  E  E  E  E  E  E  E  E     E  E  E  E  E  E  E  E  
 


  E  E  E  E  E  E  E  E     E  E  E  E  E  E  E  E     Q    E  E  Q.     E   
--------------------------|--------------------------|-----------------------|
--------------------------|--------------------------|-----------------------|
--------------------------|--------------------------|-------------2---------|
--------------------------|--------------------------|--0-------0---------2--|
--0--0--0--0--0--0--0--0--|--0--0--0--0--0--0--0--0--|-----------------------|


  E  Q    E  Q    Q       E  E  E  E  E  E  E  E     E  E  E  E  E  E  E  E   
-----------------------|--------------------------|--------------------------|
-----------------------|--------------------------|--------------------------|
-------------4---------|--------------------------|--------------------------|
-----2----2-------2----|--------------------------|--------------------------|
-----------------------|--0--0--0--0--0--0--0--0--|--0--0--0--0--0--0--0--0--|


  Q    E  E  Q.     E     E  Q    E  Q    Q       E  E  E  E  E  E  E  E   
-----------------------|-----------------------|--------------------------|
-----------------------|-----------------------|--------------------------|
-------------2---------|-------------4---------|--------------------------|
--0-------0---------2--|-----2----2-------2----|--------------------------|
-----------------------|-----------------------|--0--0--0--0--0--0--0--0--|


  E  E  E  E  E  E  E  E             E  E  E  E  E  E  E  E   
--------------------------|-------|--------------------------|
--------------------------|-------|--------------------------|
--0--0--0--0--0--0--0--0--|-------|--------------------------|
--------------------------|-------|--------------------------|
--------------------------|-------|--0--0--0--0--0--0--0--0--|




  E  E  E  E  E  E  E  E     Q.     E  Q.     E     E  Q    E  Q.     E   
--------------------------|----------------------|-----------------------|
--------------------------|----------------------|-----------------------|
--------------------------|------------2---------|-------------2---------|
--------------------------|--0------0---------0--|-----0----0---------0--|
--0--0--0--0--0--0--0--0--|----------------------|-----------------------|


  Q.     E  Q.     E     E  Q    E  Q.     E     E  E  E  E  E  E  E  E   
----------------------|-----------------------|--------------------------|
----------------------|-----------------------|--------------------------|
------------4---------|-------------4---------|--------------------------|
--2------2---------2--|-----2----2---------2--|--------------------------|
----------------------|-----------------------|--0--0--0--0--0--0--0--0--|


  E  E  E  E  E  E  E  E     E  E  E  E  E  E  E  E   
--------------------------|--------------------------|
--------------------------|--------------------------|
--------------------------|--------------------------|
--------------------------|--------------------------|
--0--0--0--0--0--0--0--0--|--0--0--0--0--0--0--0--0--|


  S  S. S. E   E  E  E  Q       E  E  E  E  E  E  E  E   
-----------------------------|--------------------------|
--4h-6p-4h-6p--4-------------|--------------------------|
------------------6--4--2----|--------------------------|
-----------------------------|--------------------------|
-----------------------------|--0--0--0--0--0--0--0--0--|


  E  E  E  E  E  E  E  E     E  E  E  E  E  E  E  E   
--------------------------|--------------------------|
--------------------------|--------------------------|
--------------------------|--------------------------|
--------------------------|--------------------------|
--0--0--0--0--0--0--0--0--|--0--0--0--0--0--0--0--0--|


  E  E  E  E  E  E  E  E     E  E  E  E  E  E  E  E   
--------------------------|--------------------------|
--------------------------|--------------------------|
--------------------------|--2--2--2--2--2--2--2--2--|
--------------------------|--------------------------|
--0--0--0--0--0--0--0--0--|--------------------------|


  E  E  E  E  E  E  E  E     E  E  E  E  E  E  E  E   
--------------------------|--------------------------|
--------------------------|--------------------------|
--2--2--2--2--2--2--2--2--|--------------------------|
--------------------------|--2--2--2--2--2--2--2--2--|
--------------------------|--------------------------|


  E  E  E  E  E  E  E  E     E  E  E  E  E  E  E  E   
--------------------------|--------------------------|
--------------------------|--------------------------|
--------------------------|--------------------------|
--2--2--2--2--2--2--2--2--|--------------------------|
--------------------------|--0--0--0--0--0--0--0--0--|


  E  E  E  E  E  E  E  E     E  E  E  E  E  E  E  E   
--------------------------|--------------------------|
--------------------------|--------------------------|
--------------------------|--------------------------|
--------------------------|--------------------------|
--0--0--0--0--0--0--0--0--|--0--0--0--0--0--0--0--0--|


  E  E  E  E  E  E  E  E     E  E  E  E  E  E  E  E   
--------------------------|--------------------------|
--------------------------|--------------------------|
--------------------------|--4--4--4--4--4--4--4--4--|
--------------------------|--------------------------|
--0--0--0--0--0--0--0--0--|--------------------------|


  E  E  E  E  E  E  E  E     E  E  E  E  E  E  E  E   
--------------------------|--------------------------|
--------------------------|--------------------------|
--4--4--4--4--4--4--4--4--|--0--0--0--0--0--0--0--0--|
--------------------------|--------------------------|
--------------------------|--------------------------|


                           here begins the pre-solo

  E  E  E  E  E  E  E  E     Q    E  E  Q    E  E     E  Q    Q    E  Q     
--------------------------|------------------------|-----------------------|
--------------------------|------------------------|-----------------------|
--0--0--0--0--0--0--0--0--|-------------6----------|---------------4--6----|
--------------------------|--4-------4-------4--4--|-----4----7------------|
--------------------------|------------------------|-----------------------|


  Q    E  E  Q    E  E     E  Q    E  E  E  Q       Q    E  E  Q    E  E   
------------------------|------------------------|------------------------|
-------------4----------|----------------2--4----|-------------6----------|
--2-------2-------2--2--|-----2----2--5----------|--4-------4-------4--4--|
------------------------|------------------------|------------------------|
------------------------|------------------------|------------------------|


  E  Q    E  E  E  E  E     Q.     E  Q    E  E     E  Q    E  E  E  S E.    
-------------------------|-----------------------|--------------------------|
-------------6--4--------|-----------------------|----------7--7-----5-L\---|
-----4----4--------7--4--|------------7----------|--------------------------|
-------------------------|--5------5-------5--5--|-----5----------5---------|
-------------------------|-----------------------|--------------------------|


  Q    E  E  Q    Q       E  Q    E  E  E  Q       Q    E  E  Q    E  E   
-----------------------|------------------------|------------------------|
-----------------------|------------------------|-------------4----------|
-------------6---------|----------------4--6----|--2-------2-------2--2--|
--4-------4-------4----|-----4----4--7----------|------------------------|
-----------------------|------------------------|------------------------|


  E  Q    E  E  E  Q       Q    E  E  Q    E  E     E  E  E  E  Q    E  E   
------------------------|------------------------|-------------------------|
----------4--4--3--2----|-------------6----------|--------------6----------|
-----2------------------|--4-------4-------4--4--|-----4-----4-------4--4--|
------------------------|------------------------|-------------------------|
------------------------|------------------------|-------------------------|



                                                   SOLO!

  Q    E  E  Q    E  E     E  Q    E  E  E  Q        E  E  E  E  E  E  E  E   
------------------------|-------------------------|--------------------------|
------------------------|-------------------------|--------------------------|
-------------7----------|----------------5--7\----|--------------2-----------|
--5-------5-------5--5--|-----5----5--7-----------|--4--4--2--4-----4--4--4--|
------------------------|-------------------------|--------------------------|


  E  E  E  E  E  E  E  E     Q    E  E  E  E  E  E     E  Q    Q    E  E  E   
--------------------------|-------------------------|------------------------|
-----------------------4--|-------------------------|---------------------4--|
--------------2--4--6-----|--2----1--1--4-----------|-----1----2----4--6-----|
--2--2--4--4--------------|----------------2-----4--|------------------------|
--------------------------|-------------------0-----|--0---------------------|


  Q    E  E  E  E  E  E     E  E  E  E  E  E  E  E     Q    E  E  E  E  E  E   
-------------------------|-----6--8--6--------------|-------------------------|
-------------2--4--6-----|-----------------8--6--4--|-------------------4--7--|
--4----4--4-----------4--|--L-----------4-----------|----------------4--------|
-------------------------|--------------------------|--5----4--5--7-----------|
-------------------------|--------------------------|-------------------------|


  E  S  S  E  E  E  E  E  E     Q    E  E  E  E  E  E   
-----------------------------|-------4-----6-----8-----|
--L--7h-9p-7--6--------------|--6-------6-----6-----6--|
-----------------9--7--4--0--|-------------------------|
-----------------------------|-------------------------|
-----------------------------|-------------------------|


  E  E  E  E  E  E  E  E     Q    E  E  E  E   E  E   
--------8-----6-----4-----|-------8-----9-----11-----|
--L--6-----6-----6-----6--|--9-------9-----9------9--|
--------------------------|--------------------------|
--------------------------|--------------------------|
--------------------------|--------------------------|


  E  E   E  E  E  E  E  E     E   Q.       Q     E   E   
--------11-----9-----8-----|----------------------------|
--L--9------9-----9-----9--|--------------------16--18--|
---------------------------|--4---Ls------16------------|
---------------------------|----------------------------|
---------------------------|----------------------------|


   E   E   E   E   E   E   Q       E  E  E  E  E  E  E  E   
--18----------------------------|-----2-----3-----4-----5--|
------18--16--18--16--14--------|--------------------------|
--------------------------16----|--------------------------|
--------------------------------|--------------------------|
--------------------------------|--0-----0-----0-----0-----|


  E  E  E  E  E  E  E   E     E  H.           E       
-----6-----8-----9-----10--|---------------------|
---------------------------|---------------------|
---------------------------|---------------------|
---------------------------|---------------------|
--0-----0-----0-----0------|--0------------------|

AND HERE BEGINS AGAIN...
 




Duration Legend
---------------
W - whole
H - half
Q - quarter
E - 8th
S - 16th
T - 32nd
X - 64th
. - note dotted
|-n-|  - n-tuplets


Tablature Legend
----------------
L - tied note
x - dead note
g - grace note
(n) - ghost note
> - accentuded note
NH - natural harmonic
AH - artificial harmonic
TH - tapped harmonic
SH - semi harmonic
PH - pitch harmonic
h - hammer on
p - pull off
b - bend
br - bendRelease
pb - preBend
pbr - preBendRelease
brb - bendReleaseBend
\n/ - tremolo bar dip
\n - tremolo bar dive
-/n - tremolo bar Release up
/n\ - tremolo bar inverted dip
/n - tremolo bar return
-\n - tremolo bar Release down
S - shift slide
s - legato slide
/ -  slide into from below or out of upwards
\ -  slide into from above or out of downwards
~ - vibrato
W - wide vibrato
tr - trill
TP - tremolo picking
T - tapping
S - slap
P - pop
< - fade in
^ - brush up
v - brush down
comments
We did not receive enough feedback on this tab! Please rate:
print report bad tab
1 2 3 4 5
I want to post or [tab]
guest
You may want to rate the tab now too:
select rating
Please do not post tabs as comments. Select "correction" instead!