Oops, an error
Loading. Please wait.

Final Fantasy Xiii - Kimi Ga Iru Kara Tab

3,865 views 15 this week
no commentswrite comment
1 2 3 4 5
please rate
add to favorites launch autoscroll
font size
0
reset
Autoscroll
+/-
esc
set tempo
stop
Contributor
WARNING: You are trying to view
                                    content from Ultimate-Guitar.com
                                    in an unauthorized application,
                                    which is prohibited.

                                    Please use an official Ultimate
                                    Guitar Tabs application for iPhone,
                                    iPad or Android to access legitimate
                                    chords, guitar, bass, and drum tabs
                                    from Ultimate-Guitar.com database.

                                    Type "ultimate guitar tabs" in Apple
                                    App Store's or Android Market's
                                    search to find the application.
---------------------------------------------------------------------------------------
              SAYURI SUGAWARA - KIMI GA IRU KARA (OST. FINAL FANTASY XIII)
---------------------------------------------------------------------------------------
title KIMI GA IRU KARA (OST. Final Fantasy XIII)
song by Sayuri Sugawara

tabbed by cradth helverd
tuning : standard


INTRO

e|-------4----------------------2/9---7--6h7p6-4---------0----------------2------------|
B|--4-------4---0-2--4-2----------0------------5---------0---4--0--2-0-2-----4---------|
G|--4-------0--------------------------------------4-----------------------------------|
D|--3------------------1-----1----0-------------------6--6-------------------5---------|
A|------------------------1--------------------4---------------------------------------|
E|----------0------------------------------------------------------2---------3---------|
  

VERSE

e|-----------2--2---0------------------------------------------------------------------|
B|--------0-----0------4--0--2--------0------------4-4-----------7-----0--2----2---4---|
G|-----1--------1------------------------------4h6------------4--------------4---------|
D|---------------------------1-----1-----4-----------------6---------------------2-----|
A|------------------------------1--------------------4--7-----------------2------------|
E|--0---------------------------------------4-----------------------2------------------|

e|------------------2-2---0------------------------------------------------------------|
B|--5---4--------0----0------4--0--2--------4----------4--4-----0-7---0--2----2---4----|
G|--6---4-----1-------1------------------------4---4h6------------8---------4----------|
D|--4---3--------------------------1-----1-------------------6------------------4------|
A|------------------------------------1-------------------4-------7--------------------|
E|----------0----------------------------------4-------------------------2-------------|

e|--------------------4--4---4--2--0-----------0----------------2--2--2-----0--0-------|
B|--5---4----------0------------------4-----------4-2--0--------------------------4----|
G|--6---4-------1----------4----4--------0--4-------4-----------3--------3-----3--3----|
D|--4---3-------------------------------------------2-----1----------------------------|
A|-----------------------------------------------------------1-------------------------|
E|-----------0------------------------0------------------------------------------------|

e|-----------0----------------4--4-----6-----0--2-----2------9--7-7--------------------|
B|--2---4--------4---------0--------------7-----2-----2--------------0--5--4--5--7--7--|
G|--3---3----1----------1---------------------------------8-------------4-----4--4--4--|
D|---------------4------------------6-----------1------------6----------6--------------|
A|-------------------------------------------------1--------------------4--------6--6--|
E|--4---4----2---2---0--------------------------------------------4--------------------|

e|--------0-2--3--2-----0-0-----0---2--2-------------7---6--6-----------|
B|--0h2-4---------------0-0---4-0---0--0-------------7------------------|
G|----------0---------------0-0---0------------4-----6------6--1-----0--|
D|------------------------------------------------4---------4-----1--1--|
A|-------------------2----------------------4------------------1--------|
E|----------0----------------------------2------------------------------|


CHORUS

e|--5--3--1--3--5-----------------------5-5--5--6--3--------3--------0h1-3-----------3-|
B|--2-----3--5-----------3--3----------------------------6--5---------------------1----|
G|--2-----------------2--------------2----------------3-----3------------------0-------|
D|-----------------3-----3--------3-------------------------------5---------2----------|
A|--0-----0--0--1--------------1-------------3-----------------3---------0-------------|
E|-------------------------------------------------------------------------------------|

e|-----5--6---8--6---5--5---------1---10--10--10----10--10-----12---8------8-----------|
B|-----6--8--10--8---6--6-----4---1------------------------------------11-----10--10---|
G|---------------7------------5---2---10---------10--------10--------------8-----------|
D|---------------0---------0-----------8----------8---------8-------8------------------|
A|--0-------------------------3--------------------------------------------0-----------|
E|--------------------------------1----------------------------------------------------|
 
e|----8--11---10--10--5--8--6-6----------------3--5-----6--5--3------3--8--8-----------|
B|--------8--------7----------------3--3--3--6---------------------6----8--------------|
G|--8-----8--------7-----7-------7-----3-----3----5--5-----------5------9--7--10--10---|
D|--------0--------0-----5-------5-----------------------------------------------------|
A|--0---------------------------------------------3--3--------3------------------------|
E|-------------------------------------3-----3--------------------------8--6-----------|

e|------8-------3-----3--5-5-5h6p6-3----------------0-3--1--1--|
B|---------6-6--3--6-----------------6--1---1---1--------------|
G|--10--5-------3-------------------------------------------2--|
D|--------------------------------------3---3---2--------------|
A|------0-------------------------------3---3---3--------------|
E|--------------3------------3-----3---------------------------|


e|----------------------------1---3---5--------5--7--9--10--12--12--13--12--11---------|
B|------------------1--1--2---2-------5--------5----10--10--10--10--10--12-------------|
G|--------0-2---3---2--1--1---1---3---6--------------9---9---9---9--10---9--11---------|
D|------3--------------3--3---1---1---------7--------------------0---0---9---9---------|
A|----3-3---0-1---3----1--1-----------0--7-----------0---0---0-------------------------|
E|--1----------------------------------------------------------------------------------|


VERSE 2

e|--0-----2-2-----0--------------------------------------------------------------------|
B|--0-----0-0-----0--4--0--2-----4--2------------4--4-----7---0-----0--2----2---4---5--|
G|--1-----1-1--------------3-----------4---4--6-------------6-------------4-----2---6--|
D|-------------------------1--1---------------------6-------------------------------4--|
A|--------------------------------------------------4--4---------------2------2--------|
E|--0--0-------0-----0-----------------4---4------------------2--2---------------------|
                                                                                  ^
e|--4--2--0------2-2----/7-----0-----------------------------------------4----------7--|
B|--4-----0------0-0--------7-----2-----4-4------4--4-----4--0--7-----0-----7-7--0--5--|
G|--------1------1-1--------------3-----4-4--4h6----------------8--------6-------------|
D|--3-----------------------------1--1-----------------6-----------------4----------4--|
A|--------------------------7-----------------------4-----4-----7--7-------------------|
E|--------0---0-------0-------------------4--4-----------------------------------------|

e|--6--4--2---------4-4--4-2-0-----------0--------------0--2-----2-----2-----2--4--5---|
B|-----4---------0--4-4----------4-----4---4--2-----2-4-------4-----------4--------4---|
G|-------------1----4-4-------------0--4------4--4---------------3-----------------4---|
D|-----3------------2--------------------------------------1-----1--1------------------|
A|-------------------------------2-------------------------------------------------0---|
E|-----------0-------------------------0------0--0-------------------------------------|

e|--7--4--2--2--0-0-------4-----------4-4---6-----0--2-----2--9-9----7--7--------------|
B|-----5-----4---------0-----------0--4-4------7-----2-----2-----------------0--5--4---|
G|------------------------------1-----4-4----------------------------8--8-------4------|
D|-----6-----4------2-----------------2--------------1-------------6-6----------6------|
A|------------------------------------------------------1-----------------------4------|
E|---------------------------0---------------------------------------------4-----------|

e|-----------------0--2--3-2----0-0--7--6--4h6p4--2------|
B|--5--7-7--0h2-4---------------0-0---------------2------|
G|--4--4-4------------0---------0-0---------------3------|
D|----------------------------------------------------4--|
A|-----6-6-----------------------------------------------|
E|--------------------0------3---------------------------|


CHORUS 2

e|--5--3--1--3--5-----------------------5-5--5--6--3--------3--------0h1-3-----------3-|
B|--2-----3--5-----------3--3----------------------------6--5---------------------1----|
G|--2-----------------2--------------2----------------3-----3------------------0-------|
D|-----------------3-----3--------3-------------------------------5---------2----------|
A|--0-----0--0--1--------------1-------------3-----------------3---------0-------------|
E|-------------------------------------------------------------------------------------|
 
e|-----5--6---8--6---5--5---------1---10--10--10----10--10-----12---8------8-----------|
B|-----6--8--10--8---6--6-----4---1------------------------------------11-----10--10---|
G|---------------7------------5---2---10---------10--------10--------------8-----------|
D|---------------0---------0-----------8----------8---------8-------8------------------|
A|--0-------------------------3--------------------------------------------0-----------|
E|--------------------------------1----------------------------------------------------|
 
e|----8--11---10--10--5--8--6-6----------------3--5-----6--5--3------3--8--8-----------|
B|--------8--------7----------------3--3--3--6---------------------6----8--------------|
G|--8-----8--------7-----7-------7-----3-----3----5--5-----------5------9--7--10--10---|
D|--------0--------0-----5-------5-----------------------------------------------------|
A|--0---------------------------------------------3--3--------3------------------------|
E|-------------------------------------3-----3--------------------------8--6-----------|

e|------8-------3-----3--5--5-6-5--3----------------0-3--1--1--|
B|---------6-6--3--6-----------------6--1---1---1--------------|
G|--10--5-------3-------------------------------------------2--|
D|--------------------------------------3---3---2--------------|
A|------0-------------------------------3---3---3--------------|
E|--------------3-------------3----3---------------------------|


INTERLUDE

e|--------------------1--8-------6-------------3--5--------5-6-3-------3---------------|
B|-----------------1--1-------------6--------6---------------------------6-5-6-8-6-8---|
G|-----------2--3-------------------6----------------0--6-----------3----------0-------|
D|--3--3--3--------3--------0---------------------------------------5------------------|
A|-----------0--1-------------8-----------4-------4--------------4-------------0-------|
E|--1--1--1--------------6-------------6-----------------------------------------------|

e|--10--11--10--------11--13--15--15-----17--15--14--15--17----------------------------|
B|-------------13--15-------------15-------------15--15--15--15-----13----15-----------|
G|------12------------------------14-----------------14--14--12--------------12--------|
D|---------------------------------0--0-----------0---0---0------12--------------------|
A|-------0-------------0-------------------------------------13--------13-------13-----|
E|-------------------------------------------------------------------------------------|

e|-----------------------------------13-----------------13----------13----16-13-15-----|
B|-----15-13-------------13--11---13----------10-13--10----------14----14--------------|
G|--12-------15----------10----------------10-----------------13-----------------------|
D|--------------15-13-12--0-----0--------0-----------------11--------------------------|
A|-------------------------------------------------------------------------------------|
E|-------------------------------------------------------------------------------------|

e|-----11------------------------10-9-7-----------------------------------13----13-16--|
B|--------11------------7---10-7--------10-9-7---------7-9-10----13----13----13--------|
G|-----------12-----7-----7--------------------9-6-7-9--------------14-----------------|
D|--10-----------9----9----------------------------------------------------------------|
A|------------------------------------------------------------15-----------------------|
E|-------------------------------------------------------------------------------------|

e|--------3-----8--6-6--6--5-3-------3--5-----1--3--------1----------------8--6-6--6---|         
B|--6-----------6---------------6----5--------3--1----------1--------------6-----------|
G|-----3-----5----------5-----------------------------------2----------------------5---|
D|--------------7----------------------------------------------3---2-------7-----------|
A|--3-------------------3---------3--------1-----0--0--0--0----------3-0-----------3---|
E|-------------------------------------------------------------------------------------|

e|--5-3-------3--5-----1--3-----3--5--6--5--3-----5-------5---------------8----5--6----|
B|-------6----5--------3--3-----3--3--3--------6-------------8--5-6--8--5----8----6----|
G|------------------------5-----------------4--------7-7-----7-------5-----------------|
D|------------------------3--3--3----------------------------5--------------------8----|
A|----------3-------1-----------------3------------------------------0-----------------|
E|------------------------------------------------6------------------------------------|

e|--5--6---8--5-----------------5--5--------3s6----------5--8--------------------8--10-|
B|--6--8--10-----6-6--1--1----6-----------------------------5--------------------8-----|
G|--------------------2--2------------------4s7----------5---------------------0-------|
D|--------------------------------------------------0-----------0-----0----------------|
A|------------------------------------5--8------------8------------8-----8-------------|
E|------------6-------1--1s5-------6-------------6---------------------------8---------|

e|--10---9--------------------|
B|--10--10--------------------|
G|---9---9--------------------|
D|-----------0-------2---2-5--|
A|---0---0-------0-4---4------|
E|-------------2--------------|


CHORUS 3
  
e|--5--3--1--3----------------------------------8----------------------0-1-3----------3|
B|--2-----3--5--10-----------10----------10-10-----11-11---10--8-----------1--------1--|
G|--2---------------------7-------------------------0----0-----5-----------------0-----|
D|---------------------7--------------7------------------------------5--------2--------|
A|--0-----0--0------8--------------8---------------------------0--7--------0-----------|
E|---------------6--------------6---------------8--------------------------------------|
 
e|----5--6---8---6--5-5-----3--6---5---10--10-10----10-10----12-----8-----8------------|
B|----6--8--10---8--6-6--------3---4----------------------------------11-----10--10----|
G|---------------7-------------5-------10--------10-------10----10--------8------------|
D|---------------0-------0--------------8---------8--------8-----8---------------------|
A|-0---------------------------3---3--------------------------------------0------------|
E|-------------------------------------------------------------------------------------|

e|----8--11--10-10--5--8--6-6-------------3--5-----3--6--------------------------------|
B|--------8------7---------------3-3-3-6-----------------------1----------8------------|
G|--8-----8------7-----7------7----3---3---------------------0---3-2h3p2---------------|
D|--------0------0-----5------5----------------------------2---------------------------|
A|--0----------------------------------------3--3-----3--3-----------------------------|
E|---------------------------------3---3----------------------------------8------------|

e|------------------------------------8--------------------0-1-3----------3------------|
B|----------10----------10-10--10--11-----11--10--8------------1--------1--------------|
G|--------7-----------------------------0---------------5------------0-----------------|
D|-----7-------------7-------------------------------5------------2--------------------|
A|--8-------------8-------------------------------0------------0-----------------------|
E|-------------6----------------8------------------------------------------------------|

e|-----5--6---8--6--5-5-----3--6--5--10--10-10----10-10----12----8----8-----------8-11-|
B|-----6--8--10--8--6-6--------3--4--------------------------------11----10-10-------8-|
G|---------------7-------------5-----10--------10-------10----10------8---------8----8-|
D|---------------0-------0------------8---------8--------8-----8---------------------0-|
A|--0--------------------------3--3-----------------------------------0---------0------|
E|-------------------------------------------------------------------------------------|

e|--10-10--5--8--6-6---------------3--5-----6-3--------0---8-------------8-------3-----|
B|------7---------------3--3--3-6-------------------------------------------6-6--3-----|
G|------7-----7------7-----3----3-----5--5----------3--2---7--10-10--10--5-------3-----|
D|------0-----5------5-----------------------------------------------------------------|
A|------------------------------------3--3-------3-----3-----------------0-------------|
E|-------------------------3----3--------------------------6---------------------3-----|

e|----3--5--5--5h6-5--3------------------0--3--1--1-------|
B|--6-------------------6--1---1---1--------------1-------|
G|-------------3----------------------------------2-------|
D|-------------------------3---3---2----------------------|
A|-------------------------3---3---3----------------------|
E|-------------3------3-----------------------------------|


OUTRO
 
e|-------------------------------1---3---1---------------------------------1---3---5---|
B|-------------------1---1---2---2-------1---------------------1---1---2---2-----------|
G|--------0-2---3----2---1---1---1---3---2----------0-2---3----2---1---1---1---3-------|
D|------3----------------3---2---1---1------------3----------------3---3---1---1-------|
A|----3-3---0-1---3------1---1------------------3-3---0-1---3------1---1---------------|
E|--1-----------------------------------------1------------------------------------1---|

e|------------5-8/12--------15---------------------------------------------------------|
B|----------6----------13---13---------------------------------------------------------|
G|------0-5---5-------------12---------------------------------------------------------|
D|----3---7----------------------------------------------------------------------------|
A|--3------------------------0---------------------------------------------------------|
E|-------------------------------------------------------------------------------------|
 
hope u like it! ^^
any comments, questions or corrections, 
then mail me/add my facebook at cradth@hotmail.com
thanks--
comments
We did not receive enough feedback on this tab! Please rate:
print report bad tab
1 2 3 4 5
I want to post or [tab]
guest
You may want to rate the tab now too:
select rating
Please do not post tabs as comments. Select "correction" instead!