Oops, an error
Loading. Please wait.

God Hand - Yet Oh See Mind Tab

769 views 3 this week
no commentswrite comment
1 2 3 4 5
please rate
Autoscroll
+/-
esc
set tempo
stop
Contributor
Difficulty
novice
Hey! There's an official Ultimate Guitar app which is ideal
for learning songs when you're away from computer. Get the app
WARNING: You are trying to view
                                    content from Ultimate-Guitar.com
                                    in an unauthorized application,
                                    which is prohibited.

                                    Please use an official Ultimate
                                    Guitar Tabs application for iPhone,
                                    iPad or Android to access legitimate
                                    chords, guitar, bass, and drum tabs
                                    from Ultimate-Guitar.com database.

                                    Type "ultimate guitar tabs" in Apple
                                    App Store's or Android Market's
                                    search to find the application.
--------------------------------------------------------------------------------
God Hand - Yet...Oh See Mind
--------------------------------------------------------------------------------

Song: Yet...Oh See Mind
Artist: N/A
Album: N/A

Tabbed By: A.Y.K. (10.16.06)

Notes: Here's the tab for the guitar part of the God Hand O.S.T.'s Track 7,
titled "Yet...Oh See Mind."  Some parts may be off, but I think it should be
mostly accurate.  The second solo is unfinished though, since the harmonic is
something that I can't do yet.

h = Hammer On
p = Pull Off
s = slide
t = Tremolo Pick
v = Vibrato
w = Whammy Bar

Intro Slides: (Played with time in between)

E|-----------------------------------------------------------------------------|
B|-----------------------------------------------------------------------------|
G|-----------------------------------------------------------------------------|
D|-----------------------------------------------------------------------------|
A|-----------------------------------------------------------------------------|
E|-13s0------------------------------------------------------------------------| x 2

Bassline: (Played several times throughout the song)

E|-----------------------------------------------------------------------------|
B|-----------------------------------------------------------------------------|
G|-----------------------------------------------------------------------------|
D|-----------------------------------------------------------------------------|
A|-----5-4-5-4-5-3---3---------5-4-5-4-5-3---3-6-------------------------------|
E|-3-6-------------5---6-3-3-6-------------5-----------------------------------| x 2

E|-----------------------------------------------------------------------------|
B|-----------------------------------------------------------------------------|
G|-----------------------------------------------------------------------------|
D|-----5-4-5-4-5-3---3---------------------------------------------------------|
A|-3-6-------------5---6-3-----5-4-5-4-5-3---3---------------------------------|
E|-------------------------3-6-------------5---6-3-----------------------------| x 1

E|-----------------------------------------------------------------------------|
B|-----------------------------------------------------------------------------|
G|-----------------------------------------------------------------------------|
D|-----7-6-7-6-5-3---3---------------------------------------------------------|
A|-5-8-------------5---5-------3s4-3-------------------------------------------|
E|-----------------------6-3-6-------6-3---------------------------------------| x 1

First Bridge: (Played by main guitar)

E|-----------------------------------------------------------------------------|
B|-6s8w-6-3s0------------------------------------------------------------------|
G|-----------------------------------------------------------------------------|
D|-----------------------------------------------------------------------------|
A|-----------------------------------------------------------------------------|
E|-----------------------------------------------------------------------------| x 2

E|-6s8w-6-3s0-8s10-------------------------------------------------------------|
B|-----------------10-7---8---10w----------------------------------------------|
G|----------------------7------------------------------------------------------|
D|-----------------------------------------------------------------------------|
A|-----------------------------------------------------------------------------|
E|-----------------------------------------------------------------------------| x 1

E|-----------------------------------------------------------------------------|
B|--------5-6-7----------------------------------------------------------------|
G|-7v---7----------------------------------------------------------------------|
D|-----------------------------------------------------------------------------|
A|-----------------------------------------------------------------------------|
E|-----------------------------------------------------------------------------| x 1

Main Riff: (Played by main guitar)

E|-----------------------------------------------------------------------------|
B|-8-6-------------------------------------------------------------------------|
G|-----7-5-3-5s6-5-3-----5p3---3-5-3-5-7s6-7w----------------------------------|
D|-------------------5-------5-------------------------------------------------|
A|-----------------------------------------------------------------------------|
E|-----------------------------------------------------------------------------| x 1

E|-------------------------------------6-5-3-----------------------------------|
B|-8-6-------------------------------5-------7w--------------------------------|
G|-----7-5-3-5s6-5-3---3-5p3---3-5-3-------------------------------------------|
D|-------------------5-------5-------------------------------------------------|
A|-----------------------------------------------------------------------------|
E|-----------------------------------------------------------------------------| x 1

E|-----------------------------------------------------------------------------|
B|-8-6-------------------------------------------------------------------------|
G|-----7-5-3-5s6-5-3-----5p3---3-5-3-5-7s6-7w----------------------------------|
D|-------------------5-------5-------------------------------------------------|
A|-----------------------------------------------------------------------------|
E|-----------------------------------------------------------------------------| x 1

E|-----------------------------------------------------------------------------|
B|-8-6-----------------------------5-------------------------------------------|
G|-----7-5-3-5s6-5-3---3-5p3---3-5---0-3---------------------------------------|
D|-------------------5-------5-------------------------------------------------|
A|-----------------------------------------------------------------------------|
E|-----------------------------------------------------------------------------| x 1

E|----------------------8----10-12-13-14-15s0----------------------------------|
B|-----------------7-10---10---------------------------------------------------|
G|-7-5-3-2-7-5-3-2-------------------------------------------------------------|
D|-----------------------------------------------------------------------------|
A|-----------------------------------------------------------------------------|
E|-----------------------------------------------------------------------------| x 1

Second Bridge: (Played by main guitar)

E|-----------------------------------------------------------------------------|
B|-----------------------------------------------------------------------------|
G|-----------------------------------------------------------------------------|
D|--------2-3-4----------------------------------------------------------------|
A|-5v---5----------------------------------------------------------------------|
E|-----------------------------------------------------------------------------| x 1

E|-----------------------------------------------------------------------------|
B|-----------------------------------------------------------------------------|
G|-----------------------------------------------------------------------------|
D|-5w-3-0----------------------------------------------------------------------|
A|-----------------------------------------------------------------------------|
E|-----------------------------------------------------------------------------| x 2

E|-----------------------------------------------------------------------------|
B|-----------------------------------------------------------------------------|
G|-5w-3-0---7-5----------------------------------------------------------------|
D|--------------7-4-5----------------------------------------------------------|
A|-----------------------------------------------------------------------------|
E|-----------------------------------------------------------------------------| x 1

E|-----------------------------------------------------------------------------|
B|-6s8w-6-3s0------------------------------------------------------------------|
G|-----------------------------------------------------------------------------|
D|-----------------------------------------------------------------------------|
A|-----------------------------------------------------------------------------|
E|-----------------------------------------------------------------------------| x 2

E|-6s8w-6-3s0-8s10-------------------------------------------------------------|
B|-----------------10-7---8---10w----------------------------------------------|
G|----------------------7------------------------------------------------------|
D|-----------------------------------------------------------------------------|
A|-----------------------------------------------------------------------------|
E|-----------------------------------------------------------------------------| x 1

E|-----------------------------------------------------------------------------|
B|--------5-6-7----------------------------------------------------------------|
G|-7v---7----------------------------------------------------------------------|
D|-----------------------------------------------------------------------------|
A|-----------------------------------------------------------------------------|
E|-----------------------------------------------------------------------------| x 1

Main Riff: (With a minor difference)

E|-----------------------------------------------------------------------------|
B|-8-6-------------------------------------------------------------------------|
G|-----7-5-3-5s6-5-3-----5p3---3-5-3-5-7s6-7-7w--------------------------------|
D|-------------------5-------5-------------------------------------------------|
A|-----------------------------------------------------------------------------|
E|-----------------------------------------------------------------------------| x 1

E|-------------------------------------6-5-3-----------------------------------|
B|-8-6-------------------------------5-------7w--------------------------------|
G|-----7-5-3-5s6-5-3---3-5p3---3-5-3-------------------------------------------|
D|-------------------5-------5-------------------------------------------------|
A|-----------------------------------------------------------------------------|
E|-----------------------------------------------------------------------------| x 1

E|-----------------------------------------------------------------------------|
B|-8-6-------------------------------------------------------------------------|
G|-----7-5-3-5s6-5-3-----5p3---3-5-3-5-7s6-7-7w--------------------------------|
D|-------------------5-------5-------------------------------------------------|
A|-----------------------------------------------------------------------------|
E|-----------------------------------------------------------------------------| x 1

E|-----------------------------------------------------------------------------|
B|-8-6-----------------------------5-------------------------------------------|
G|-----7-5-3-5s6-5-3---3-5p3---3-5---0-3---------------------------------------|
D|-------------------5-------5-------------------------------------------------|
A|-----------------------------------------------------------------------------|
E|-----------------------------------------------------------------------------| x 1

E|----------------------8----10-12-13-14-15s0----------------------------------|
B|-----------------7-10---10---------------------------------------------------|
G|-7-5-3-2-7-5-3-2-------------------------------------------------------------|
D|-----------------------------------------------------------------------------|
A|-----------------------------------------------------------------------------|
E|-----------------------------------------------------------------------------| x 1

First Solo:

E|------------2s10-10-10-10-10-10-10-10-10-8p6-------6---6-6-------------------|
B|--------5-6----------------------------------8-6-8---8-----8-6-8-6-----------|
G|-7v---7------------------------------------------------------------7-6-5-5-3-|
D|-----------------------------------------------------------------------------|
A|-----------------------------------------------------------------------------|
E|-----------------------------------------------------------------------------| x 1

E|---------------------------------------3-3-3---3-6-8-11w-8-------------------|
B|-------------------------------3-6-3-6-------6-------------------------------|
G|-------------------3-5p3-5-3-5-----------------------------------------------|
D|-5-3-------3-5p3-5-----------------------------------------------------------|
A|-----5p3-5-------------------------------------------------------------------|
E|-----------------------------------------------------------------------------| x 1

E|-8s15-14-13-12-11-10-9-10-9-9s13w-10s8-6---------13s0------------------------|
B|-----------------------------------------8p6-8-------------------------------|
G|-----------------------------------------------------------------------------|
D|-----------------------------------------------------------------------------|
A|-----------------------------------------------------------------------------|
E|-----------------------------------------------------------------------------| x 1

Alternate Riff: (Same sort of rhythm as the main riff)

E|-15-13-----------------------------------------------------------------------|
B|-------15-13-11-13s14-13-11------13p11----11-13-11-13-15s14-15w--------------|
G|----------------------------12---------12------------------------------------|
D|-----------------------------------------------------------------------------|
A|-----------------------------------------------------------------------------|
E|-----------------------------------------------------------------------------| x 1

E|-15-13----------------------------------------------12-18-17-15-14w----------|
B|-------15-13-11-13s14-13-11----11-13p11----11-13-11--------------------------|
G|----------------------------12----------12-----------------------------------|
D|-----------------------------------------------------------------------------|
A|-----------------------------------------------------------------------------|
E|-----------------------------------------------------------------------------| x 1

E|-15-13-----------------------------------------------------------------------|
B|-------15-13-11-13s14-13-11------13p11----11-13-11-13-15s14-15w--------------|
G|----------------------------12---------12------------------------------------|
D|-----------------------------------------------------------------------------|
A|-----------------------------------------------------------------------------|
E|-----------------------------------------------------------------------------| x 1

E|-15-13-----------------------------------------------------------------------|
B|-------15-13-11-13s14-13-11----11-13p11----11-13------11---------------------|
G|----------------------------12----------12-------9-12------------------------|
D|-----------------------------------------------------------------------------|
A|-----------------------------------------------------------------------------|
E|-----------------------------------------------------------------------------| x 1

E|----------------------------------------12-13-14-15w-------------------------|
B|-15-13-11-10-15-13-11-10-15-13-11-10-15--------------------------------------|
G|-----------------------------------------------------------------------------|
D|-----------------------------------------------------------------------------|
A|-----------------------------------------------------------------------------|
E|-----------------------------------------------------------------------------| x 1

Second Solo: (Unfinished since I don't know how to do a pinch harmonic)

E|-----------------------------------------------------------------------------|
B|----------------------------------------------------------6------------------|
G|----------------------------------3-3-------3---3---3h5s7---7s5-3h5----------|
D|-1v-0-1-2-4-----------5-4-3---3h5-----5-3h5---5---5--------------------------|
A|----------------3---3-------5------------------------------------------------|
E|------------3-6---6----------------------------------------------------------| x 1

E|-----------------------------------------------------------------------------|
B|-----------------------------------------------------------------------------|
G|-----------------------------------------------------------------------------|
D|-----------------------------------------------------------------------------|
A|-----------------------------------------------------------------------------|
E|-----------------------------------------------------------------------------| x 1

Ending Riff: (Sort of like the alternate riff)

E|-15-13-----------------------------------------------------------------------|
B|-------15-13-11-13s14-13-11----11-13p11----11-13-11-13-15s14-15-15w----------|
G|----------------------------12---------12------------------------------------|
D|-----------------------------------------------------------------------------|
A|-----------------------------------------------------------------------------|
E|-----------------------------------------------------------------------------| x 1

E|-15-13----------------------------------------------------10w-14w-17w-22w----| ***
B|-------15-13-11-13s14-13-11----11-13p11----11-13-------10--------------------|
G|----------------------------12----------12----------11-----------------------|
D|-------------------------------------------------12--------------------------|
A|-----------------------------------------------------------------------------|
E|-----------------------------------------------------------------------------| x 1

***: If your guitar only has 21 frets then you'll have to either bend up to the
     22 or use the whammy bar to force it up there.
comments
We did not receive enough feedback on this tab! Please rate:
print report bad tab
1 2 3 4 5
I want to post or [tab]
guest
You may want to rate the tab now too:
select rating
Please do not post tabs as comments. Select "correction" instead!