Oops, an error
Loading. Please wait.

Monkey Island - Main Title Tab

ver1
ver1

Whole song

Interactive

More versions @911Tabs.com
678 views 12 this week
no commentswrite comment
1 2 3 4 5
excellent!
x 1
Autoscroll
+/-
esc
set tempo
stop
Contributor
Difficulty
intermediate
Hey! There's an official Ultimate Guitar app which is ideal
for learning songs when you're away from computer. Get the app
WARNING: You are trying to view
                                    content from Ultimate-Guitar.com
                                    in an unauthorized application,
                                    which is prohibited.

                                    Please use an official Ultimate
                                    Guitar Tabs application for iPhone,
                                    iPad or Android to access legitimate
                                    chords, guitar, bass, and drum tabs
                                    from Ultimate-Guitar.com database.

                                    Type "ultimate guitar tabs" in Apple
                                    App Store's or Android Market's
                                    search to find the application.
-------------------------------------------------------------------------------
                             MONKEY ISLAND THEME - Michael Land
-------------------------------------------------------------------------------

tabbed and arranged for two guitars by Bjoern Seifert (karmadrome@gmx.net)


e|------------------------------------------------------------------|
B|----7-------------------------------------------------------------|
G|---9--------------------------------------------------------------|
D|--9---------------------------------------------------------------|
A|-7----------------------------------------------------------------|
E|------------------------------------------------------------------|
 |                                                                  |
e|------------------------12----------------------------------------|
B|--------------------------12--------------------------------------|
G|----------------------------1211----------9---11------9-----------|
D|--------------------------------------12----------12------9-------|
A|------------------------------------------------------------------|
E|------------------------------------------------------------------|



e|-------------------------------------------------------------------------|
B|-------------------------------------------------------------------------|
G|-------------------------------------------------------------------------|
D|-------------------------------------------------------------------------|
A|-------------------------------------------------------------5-----------|
E|---------3----------------5-----------3-------2--------------------------|
 |                                                                         |
e|-------------------------------------------------------------------10----|
B|-----------------------------------------------------------10--12--------|
G|----------------------------------------------9--11---12-----------------|
D|---------9---------12----11-----------12---------------------------------|
A|-10--12------------------------------------------------------------------|
E|-------------------------------------------------------------------------|


   Em              D       Em              D
e|-----7-7-----7-7-----5-5-----7-7-----7-7-----5-5-|
B|-----8-8-----8-8-----7-7-----8-8-----8-8-----7-7-|
G|-----9-9-----9-9-----7-7-----9-9-----9-9-----7-7-|
D|-----9-9-----9-9-----7-7-----9-9-----9-9-----7-7-|
A|-7---------------5-------7---------------5-------|
E|-------------------------------------------------|
 |                                                 |
e|-12----------------------------------------------|
B|-------------------------------------------------|
G|-------------------------------------------------|
D|-------------------------------------------------|
A|-------------------------------------------------|
E|-------------------------------------------------|


   Em              D       C       G               Am      Em
e|-----7-7-----7-7-----5-5-----3-3-----3-3-----3-3-----5-5-----7-7-|
B|-----8-8-----8-8-----7-7-----5-5-----3-3-----3-3-----5-5-----8-8-|
G|-----9-9-----9-9-----7-7-----5-5-----4-4-----4-4-----5-5-----9-9-|
D|-----9-9-----9-9-----7-7-----5-5-----5-5-----5-5-----7-7-----9-9-|
A|-7---------------5-------3-------------------------------7-------|
E|---------------------------------3---------------5---------------|
 |                                                                 |
e|---------0---0-3-2-0-----0---------------------------------------|
B|---------------------3---------------3---3-1-0-3-1---1---0-------|
G|-----------------------------------------------------------------|
D|-----------------------------------------------------------------|
A|-----------------------------------------------------------------|
E|-----------------------------------------------------------------|


   Em              D       C               G               Am
e|-----7-7-----7-7-----5-5-----3-3-----3-3-----3-3-----3-3-----5-5-----5-5-|
B|-----8-8-----8-8-----7-7-----5-5-----5-5-----3-3-----3-3-----5-5-----5-5-|
G|-----9-9-----9-9-----7-7-----5-5-----5-5-----4-4-----4-4-----5-5-----5-5-|
D|-----9-9-----9-9-----7-7-----5-5-----5-5-----5-5-----5-5-----7-7-----7-7-|
A|-----------------5-------3-----------------------------------------------|
E|-----------------------------------------3---------------5---------------|
 |
e|---------0---0-3-2-0-----0-------------2-3---3---5-------2-----3-2-0---2-|
B|---------------------3-----------------------------------------------3---|
G|-------------------------------------------------------------------------|
D|-------------------------------------------------------------------------|
A|-------------------------------------------------------------------------|
E|-------------------------------------------------------------------------|


   G       Bm      Em      D         G       Bm      Em      D
e|-----3-3-----7-7-----7-7-----5-5-|-----3-3-----7-7-----7-7-----7-7-|
B|-----3-3-----7-7-----8-8-----7-7-|-----3-3-----7-7-----8-8-----7-7-|
G|-----4-4-----7-7-----9-9-----7-7-|-----4-4-----7-7-----9-9-----7-7-|
D|-----5-5-----9-9-----9-9-----7-7-|-----5-5-----9-9-----9-9-----7-7-|
A|-----------------7-------5-------|-----------------7-------5-------|
E|-3-------7-----------------------|-3-------7-----------------------|
 |
e|-3---3---2-------0-----3-2-0---2-|-3---3---2-------0-----3-2-0-----|
B|-----------------------------3---|-----------------------------3---|
G|---------------------------------|---------------------------------|
D|---------------------------------|---------------------------------|
A|---------------------------------|---------------------------------|
E|---------------------------------|---------------------------------|


   C                       G       Am
e|-----3-3-----3-3-----3-3-----3-3-----5-5-|
B|-----5-5-----5-5-----5-5-----3-3-----5-5-|
G|-----5-5-----5-5-----5-5-----4-4-----5-5-|
D|-----5-5-----5-5-----5-5-----5-5-----7-7-|
A|-3---------------3-----------------------|
E|-------------------------3-------5-------|
 |                                         |
e|-0---0---0-----------0-------------------|
B|-------------------------3-1-0-3-1---1---|
G|-----------------------------------------|
D|-----------------------------------------|
A|-----------------------------------------|
E|-----------------------------------------|


   Em              D       Em              D
e|-----7-7-----7-7-----5-5-----7-7-----7-7-----5-5-|
B|-----8-8-----8-8-----7-7-----8-8-----8-8-----7-7-|
G|-----9-9-----9-9-----7-7-----9-9-----9-9-----7-7-|
D|-----9-9-----9-9-----7-7-----9-9-----9-9-----7-7-|
A|-7---------------5-------7---------------5-------|
E|-------------------------------------------------|
 |                                                 |
e|-------------------------------------------------|
B|-0-----------------------------------------------|
G|-------------------------------------------------|
D|------------------------------------------9---12-|
A|-------------------------------------------------|
E|-------------------------------------------------|


   C                       G                       D
e|-----3-3-----3-3-----3-3-----3-3-----3-3-----3-3-----5-5-----5-5-----5-5-|
B|-----5-5-----5-5-----5-5-----3-3-----3-3-----3-3-----7-7-----7-7-----7-7-|
G|-----5-5-----5-5-----5-5-----4-4-----4-4-----4-4-----7-7-----7-7-----7-7-|
D|-----5-5-----5-5-----5-5-----5-5-----5-5-----5-5-----7-7-----7-7-----7-7-|
A|-3-----------------------------------------------5-----------------------|
E|-------------------------3-----------------------------------------------|
 |                                                                         |
e|-------------------------------------------------------------------------|
B|-------------------121013--------------------------------------10--10--10|
G|-9---12--12------------------12--12----------12----------------------11--|
D|-----------------10------12--------------9-------10--11--11------12------|
A|-------------------------------------------------------------------------|
E|-------------------------------------------------------------------------|


   Em                              F
e|-----7-7-----7-7-----7-7-----7-7-----8-8-----8-8-----8-8-----8-8-|
B|-----8-8-----8-8-----8-8-----8-8-----1010----1010----1010----1010|
G|-----9-9-----9-9-----9-9-----9-9-----1010----1010----1010----1010|
D|-----9-9-----9-9-----9-9-----9-9-----1010----1010----1010----1010|
A|-7---------------7---------------8---------------8---------------|
E|-----------------------------------------------------------------|
 |                                                                 |        
e|-----------------------------------------------------------------|
B|-----------------------------------------------------------------|
G|-12--11--9-------------------------------------------------------|
D|-------------9---9-----------------------------------------------|
A|-----------------------9---10------------------------------------|
E|-----------------------------------------------------------------|


   Em                              Cm
e|-----7-7-----7-7-----7-7-----7-7-----3-3-----3-3-----3-3-----3-3-|
B|-----8-8-----8-8-----8-8-----8-8-----4-4-----4-4-----4-4-----4-4-|
G|-----9-9-----9-9-----9-9-----9-9-----5-5-----5-5-----5-5-----5-5-|
D|-----9-9-----9-9-----9-9-----9-9-----5-5-----5-5-----5-5-----5-5-|
A|-7---------------7---------------3---------------3---------------|
E|-----------------------------------------------------------------|
 |                                                                 |        
e|-7-----------------------------------------------------------3---|
B|-----8---8-----8-7---8---7-8---8---------------------------------|
G|-----------------------------9---8-------------------------------|
D|-----------------------------------------------------------------|
A|-----------------------------------------------------------------|
E|-----------------------------------------------------------------|


   D
e|-----5-5-----5-5-----5-5-----5-5-|
B|-----7-7-----7-7-----7-7-----7-7-|
G|-----7-7-----7-7-----7-7-----7-7-|
D|-----7-7-----7-7-----7-7-----7-7-|
A|-5---------------5---------------|
E|---------------------------------|
 |                                 |
e|-5---2---2-----2-0---2---0-2-----|
B|-----------------------------3---|
G|---------------------------------|
D|---------------------------------|
A|---------------------------------|
E|---------------------------------|


  Em       D       C       G               Am      Em
e|-----7-7-----5-5-----3-3-----3-3-----3-3-----5-5-----7-7-|
B|-----8-8-----7-7-----5-5-----3-3-----3-3-----5-5-----8-8-|
G|-----9-9-----7-7-----5-5-----4-4-----4-4-----5-5-----9-9-|
D|-----9-9-----7-7-----5-5-----5-5-----5-5-----7-7-----9-9-|
A|-7-------5-------3-------------------------------7-------|
E|-------------------------3---------------5---------------|
 |                                                         |
e|-0---0-3-2-0-----0---------------------------------------|
B|-------------3---------------3---3-1-0-3-1---1---0-------|
G|---------------------------------------------------------|
D|---------------------------------------------------------|
A|---------------------------------------------------------|
E|---------------------------------------------------------|


   Em              D       C               G               Am
e|-----7-7-----7-7-----5-5-----3-3-----3-3-----3-3-----3-3-----5-5-----5-5-|
B|-----8-8-----8-8-----7-7-----5-5-----5-5-----3-3-----3-3-----5-5-----5-5-|
G|-----9-9-----9-9-----7-7-----5-5-----5-5-----4-4-----4-4-----5-5-----5-5-|
D|-----9-9-----9-9-----7-7-----5-5-----5-5-----5-5-----5-5-----7-7-----7-7-|
A|-----------------5-------3-----------------------------------------------|
E|-----------------------------------------3---------------5---------------|
 |                                                                         |
e|---------0---0-3-2-0-----0-------------2-3---3---5-------2-----3-2-0---2-|
B|---------------------3-----------------------------------------------3---|
G|-------------------------------------------------------------------------|
D|-------------------------------------------------------------------------|
A|-------------------------------------------------------------------------|
E|-------------------------------------------------------------------------|


   G       Bm      Em      D         G      Bm      Em       D
e|-----3-3-----7-7-----7-7-----5-5-|-----3-3-----7-7-----7-7-----7-7-|
B|-----3-3-----7-7-----8-8-----7-7-|-----3-3-----7-7-----8-8-----7-7-|
G|-----4-4-----7-7-----9-9-----7-7-|-----4-4-----7-7-----9-9-----7-7-|
D|-----5-5-----9-9-----9-9-----7-7-|-----5-5-----9-9-----9-9-----7-7-|
A|-----------------7-------5-------|-----------------7-------5-------|
E|-3-------7-----------------------|-3-------7-----------------------|
 |                                                                   |
e|-3---3---2-------0-----3-2-0---2-|-3---3---2-------0-----3-2-0-----|
B|-----------------------------3---|-----------------------------3---|
G|---------------------------------|---------------------------------|
D|---------------------------------|---------------------------------|
A|---------------------------------|---------------------------------|
E|---------------------------------|---------------------------------|


   D               G       Am      Em
e|-----3-3-----3-3-----3-3-----7-7-----7-7-|
B|-----5-5-----5-5-----3-3-----5-5-----8-8-|
G|-----5-5-----5-5-----4-4-----5-5-----9-9-|
D|-----5-5-----5-5-----5-4-----7-7-----9-9-|
A|-3---------------------------------------|
E|-----------------3-------5-------7-------|
 |                                         |
e|-0---0---0-------------------------------|
B|---------------------3---1-0-1---0-------|
G|-----------------------------------------|
D|-----------------------------------------|
A|-----------------------------------------|
E|-----------------------------------------|

  
   Em              D       C               D       C   D   Em
e|-----7-------7-7-----5-5-----3-3-----3-3-----5-5-3---5----------|
B|-----8-8-----8-8-----7-7-----5-5-----5-5-----7-7-5---7----------|
G|-----9-9-----9-9-----7-7-----5-5-----5-5-----7-7-5---7----------|
D|-----9-9-----9-9-----7-7-----5-5-----5-5-----7-7-5---7---2------|
A|-7---------------5-------3-------3-------5-------3---5---2------|
E|---------------------------------------------------------0------|
 |                                                                |
e|-----0---0-----3-2-0-----0---0---------3-5-3-2-5-3-0-2---0------|
B|---------------------3------------------------------------------|
G|----------------------------------------------------------------|
D|----------------------------------------------------------------|
A|----------------------------------------------------------------|
E|----------------------------------------------------------------|
comments
We did not receive enough feedback on this tab! Please rate:
print report bad tab
1 2 3 4 5
I want to post or [tab]
guest
You may want to rate the tab now too:
select rating
Please do not post tabs as comments. Select "correction" instead!