Oops, an error
Loading. Please wait.

Pokemon - Viridian Forest Tab

ver1
ver1

Whole song

Interactive

More versions @911Tabs.com
2,878 views 6 this week
no commentswrite comment
1 2 3 4 5
excellent!
x 2
Autoscroll
+/-
esc
set tempo
stop
Contributor
Tabbers playing skills
advanced +
Hey! There's an official Ultimate Guitar app which is ideal
for learning songs when you're away from computer. Get the app
WARNING: You are trying to view
                                    content from Ultimate-Guitar.com
                                    in an unauthorized application,
                                    which is prohibited.

                                    Please use an official Ultimate
                                    Guitar Tabs application for iPhone,
                                    iPad or Android to access legitimate
                                    chords, guitar, bass, and drum tabs
                                    from Ultimate-Guitar.com database.

                                    Type "ultimate guitar tabs" in Apple
                                    App Store's or Android Market's
                                    search to find the application.
                                                Pokemon
                                         VIRIDIAN FOREST THEME  
                                          Red - Blue - Yellow

Guitar I


      Q    Q    Q    Q        Q     Q     Q     Q       Q    Q    Q    Q     
E||-----------------------|--------------------------|----------------------|
B||-----------------------|--11----11----11----11----|----------------------|
G||*--9----9----9----9----|--------------------------|--9----9----9----9----|
D||*----------------------|--10----10----10----10----|----------------------|
A||---7----7----7----7----|--------------------------|--7----7----7----7----|
E||-----------------------|--------------------------|----------------------|


   Q     Q     Q     Q       Q    Q    Q    Q        Q     Q     Q     Q     
---9-----9-----9-----9----|----------------------|--------------------------|
--------------------------|----------------------|--------------------------|
--------------------------|----------------------|--11----11----11----11----|
--10----10----10----10----|--9----9----9----9----|---8-----8-----8-----8----|
--------------------------|--7----7----7----7----|--------------------------|
--------------------------|----------------------|--------------------------|


  E  E  E  E  E  E  E  E     E  E  E  E  E  E  E  E     Q    Q    Q    Q     
--------------------------|--3-----3-----3-----2-----|----------------------|
--3-----3-----3-----3-----|--------2-----------------|----------------------|
--0--3-----0--6-----0--3--|--3--0--------0--2--------|--9----9----9----9----|
--------------------------|-----------------------4--|----------------------|
--------------------------|--------------------------|--7----7----7----7----|
--------------------------|--------------------------|----------------------|


   Q     Q     Q     Q       Q    Q    Q    Q        Q     Q     Q     Q     
--------------------------|----------------------|---9-----9-----9-----9----|
--11----11----11----11----|----------------------|--------------------------|
--------------------------|--9----9----9----9----|--------------------------|
--10----10----10----10----|----------------------|--10----10----10----10----|
--------------------------|--7----7----7----7----|--------------------------|
--------------------------|----------------------|--------------------------|


  Q    Q    Q    Q        Q     Q     Q     Q       E  E  E  E  E  E  E  E   
----------------------|--------------------------|--------------------------|
----------------------|--------------------------|--3-----3-----3-----3-----|
----------------------|--11----11----11----11----|--0--3-----0--6-----0--3--|
--9----9----9----9----|---8-----8-----8-----8----|--------------------------|
--7----7----7----7----|--------------------------|--------------------------|
----------------------|--------------------------|--------------------------|


  E  E  E  E  E  E  E  E     H        Q     Q        Q     Q    E  E  E  E   
--3-----3-----3-----2-----|----------------12----|--11----10----9--8--------|
--------2-----------------|----------------------|-----------------------8--|
--3--0--------0--2--------|----------------------|--------------------9-----|
-----------------------4--|----------------------|--------------------------|
--------------------------|----------------------|--------------------------|
--------------------------|----------------------|--------------------------|


  H        Q     Q        Q     Q     E   E   E  E     Q     Q     Q     Q     
----------------15----|--14----13----12--11--10--9--|-------------------10----|
----------------------|-----------------------------|-------12----11----------|
----------------------|-----------------------------|--9----------------------|
----------------------|-----------------------------|-------------------------|
----------------------|-----------------------------|-------------------------|
----------------------|-----------------------------|-------------------------|


  Q    Q     Q     Q        Q    Q    Q     Q       Q    Q     Q    Q     
--9---------------------|------------------------|-----------------------|
-------9----------12----|--11--------------10----|--9--------------------|
------------12----------|--------9----8----------|-------9----11----8----|
------------------------|------------------------|-----------------------|
------------------------|------------------------|-----------------------|
------------------------|------------------------|-----------------------|


  Q     Q     Q     Q       Q    Q     Q     Q        Q    Q    Q     Q     
-------------------10----|--9---------------------|------------------------|
-------12----11----------|-------9----------12----|--11--------------10----|
--9----------------------|------------12----------|--------9----8----------|
-------------------------|------------------------|------------------------|
-------------------------|------------------------|------------------------|
-------------------------|------------------------|------------------------|


  Q    Q     Q    Q       Q     Q     Q     Q       Q    Q     Q     Q     
-----------------------|-------------------10----|--9---------------------|
--9--------------------|-------12----11----------|-------9----------12----|
-------9----11----8----|--9----------------------|------------12----------|
-----------------------|-------------------------|------------------------|
-----------------------|-------------------------|------------------------|
-----------------------|-------------------------|------------------------|


   Q    Q    Q     Q       Q    Q     Q    Q       Q    Q    Q    Q     
------------------------|-----------------------|----------------------|
--11--------------10----|--9--------------------|--0----0----0----0----|
--------9----8----------|-------9----11----8----|----------------------|
------------------------|-----------------------|--2----2----2----2----|
------------------------|-----------------------|----------------------|
------------------------|-----------------------|----------------------|


  Q    Q    Q    Q       Q    Q    Q    Q       Q    Q    Q    Q     
--2----2----2----2----|----------------------|--3----3----3----2----|
----------------------|--3----3----3----3----|--0----0----0----0----|
--3----3----3----3----|--0----0----0----0----|----------------------|
----------------------|----------------------|----------------------|
----------------------|----------------------|----------------------|
----------------------|----------------------|----------------------|


  Q    Q    Q    Q        Q     Q     Q     Q       Q    Q    Q    Q     
----------------------|--------------------------|----------------------|
----------------------|--11----11----11----11----|----------------------|
--9----9----9----9----|--------------------------|--9----9----9----9----|
----------------------|--10----10----10----10----|----------------------|
--7----7----7----7----|--------------------------|--7----7----7----7----|
----------------------|--------------------------|----------------------|


   Q     Q     Q     Q       Q    Q    Q    Q        Q     Q     Q     Q     
---9-----9-----9-----9----|----------------------|--------------------------|
--------------------------|----------------------|--------------------------|
--------------------------|----------------------|--11----11----11----11----|
--10----10----10----10----|--9----9----9----9----|---8-----8-----8-----8----|
--------------------------|--7----7----7----7----|--------------------------|
--------------------------|----------------------|--------------------------|


  E  E  E  E  E  E  E  E     E  E  E  E  E  E  E  E     H        Q     Q     
--------------------------|--3-----3-----3-----2-----|----------------12----|
--3-----3-----3-----3-----|--------2-----------------|----------------------|
--0--3-----0--6-----0--3--|--3--0--------0--2--------|----------------------|
--------------------------|-----------------------4--|----------------------|
--------------------------|--------------------------|----------------------|
--------------------------|--------------------------|----------------------|


   Q     Q    E  E  E  E     H        Q     Q        Q     Q     E   E   E  E   
--11----10----9--8--------|----------------15----|--14----13----12--11--10--9--|
-----------------------8--|----------------------|-----------------------------|
--------------------9-----|----------------------|-----------------------------|
--------------------------|----------------------|-----------------------------|
--------------------------|----------------------|-----------------------------|
--------------------------|----------------------|-----------------------------|


                          W                   W                 
-----|-----|-----|-----|-------------------|-------------------|
-----|-----|-----|-----|--5----------------|--3----------------|
-----|-----|-----|-----|-------------------|-------------------|
-----|-----|-----|-----|-------------------|-------------------|
-----|-----|-----|-----|-------------------|-------------------|
-----|-----|-----|-----|-------------------|-------------------|


                            Repeat infinitely    
  W                   W                  
-------------------|---------------------||
--1----------------|--3------------------||
-------------------|--------------------*||
-------------------|--------------------*||
-------------------|---------------------||
-------------------|---------------------||











Guitar II


E||--------|-------|-------|-------|-------|-------|-------|-------|-------|
B||--------|-------|-------|-------|-------|-------|-------|-------|-------|
G||*-------|-------|-------|-------|-------|-------|-------|-------|-------|
D||*-------|-------|-------|-------|-------|-------|-------|-------|-------|
A||--------|-------|-------|-------|-------|-------|-------|-------|-------|
E||--------|-------|-------|-------|-------|-------|-------|-------|-------|


-------|-------|-------|-------|-------|-------|-------|
-------|-------|-------|-------|-------|-------|-------|
-------|-------|-------|-------|-------|-------|-------|
-------|-------|-------|-------|-------|-------|-------|
-------|-------|-------|-------|-------|-------|-------|
-------|-------|-------|-------|-------|-------|-------|


   E   E   E   E   E   Q.         W                 
------------------------------|--------------------|
------------------------------|--------------------|
------12----------------------|--------------------|
--14------14--13--14--14------|--10----------------|
------------------------------|--------------------|
------------------------------|--------------------|


   E   E   E   E   E   Q.         W                                     
------------------------------|--------------------|-------------------|
--11------11--10--11----------|--------------------|-------------------|
----------------------12------|--------------------|-------------------|
------11----------------------|--12----------------|-------------------|
------------------------------|--------------------|-------------------|
------------------------------|--------------------|-------------------|


                                                              W                 
-------------------|-------------------|-------------------|-------------------|
-------------------|-------------------|-------------------|--5----------------|
-------------------|-------------------|-------------------|-------------------|
-------------------|-------------------|-------------------|-------------------|
-------------------|-------------------|-------------------|-------------------|
-------------------|-------------------|-------------------|-------------------|


  W                   W                   W                 
-------------------|-------------------|-------------------|
--3----------------|-------------------|--3----------------|
-------------------|--5----------------|-------------------|
-------------------|-------------------|-------------------|
-------------------|-------------------|-------------------|
-------------------|-------------------|-------------------|


  Q    Q    Q    Q        Q     Q     Q     Q       Q    Q    Q    Q     
----------------------|--------------------------|----------------------|
----------------------|--11----11----11----11----|----------------------|
--9----9----9----9----|--------------------------|--9----9----9----9----|
----------------------|--10----10----10----10----|----------------------|
--7----7----7----7----|--------------------------|--7----7----7----7----|
----------------------|--------------------------|----------------------|


   Q     Q     Q     Q       Q    Q    Q    Q       Q    Q    Q    Q     
---9-----9-----9-----9----|----------------------|----------------------|
--------------------------|-----------------3----|--2--------------0----|
--------------------------|-------4----3---------|-------1----0---------|
--10----10----10----10----|--2-------------------|----------------------|
--------------------------|----------------------|----------------------|
--------------------------|----------------------|----------------------|


  Q    Q    Q    Q       Q    Q    Q    Q                                     
----------------------|----------------------|-------|-------|-------|-------|
----------------------|----------------------|-------|-------|-------|-------|
--3--------------2----|--1-------------------|-------|-------|-------|-------|
-------2----1---------|-------2----4----1----|-------|-------|-------|-------|
----------------------|----------------------|-------|-------|-------|-------|
----------------------|----------------------|-------|-------|-------|-------|


                                   E   E   E   E   E   Q.      
-------|-------|-------|-------|------------------------------|
-------|-------|-------|-------|------------------------------|
-------|-------|-------|-------|------12----------------------|
-------|-------|-------|-------|--14------14--13--14--14------|
-------|-------|-------|-------|------------------------------|
-------|-------|-------|-------|------------------------------|


   W                    E   E   E   E   E   Q.         W                 
--------------------|------------------------------|--------------------|
--------------------|--11------11--10--11----------|--------------------|
--------------------|----------------------12------|--------------------|
--10----------------|------11----------------------|--12----------------|
--------------------|------------------------------|--------------------|
--------------------|------------------------------|--------------------|


-------------------|-------------------|-------------------|-------------------|
-------------------|-------------------|-------------------|-------------------|
-------------------|-------------------|-------------------|-------------------|
-------------------|-------------------|-------------------|-------------------|
-------------------|-------------------|-------------------|-------------------|
-------------------|-------------------|-------------------|-------------------|


-------------------|-------------------|-------------------|
-------------------|-------------------|-------------------|
-------------------|-------------------|-------------------|
-------------------|-------------------|-------------------|
-------------------|-------------------|-------------------|
-------------------|-------------------|-------------------|


                   Repeat infinitely 
--------------------||
--------------------||
-------------------*||
-------------------*||
--------------------||
--------------------||




Duration Legend
---------------
W - whole
H - half
Q - quarter
E - 8th
S - 16th
T - 32nd
X - 64th
. - note dotted
|-n-|  - n-tuplets


Tablature Legend
----------------
L - tied note
x - dead note
g - grace note
(n) - ghost note
> - accentuded note
NH - natural harmonic
AH - artificial harmonic
TH - tapped harmonic
SH - semi harmonic
PH - pitch harmonic
h - hammer on
p - pull off
b - bend
br - bendRelease
pb - preBend
pbr - preBendRelease
brb - bendReleaseBend
\n/ - tremolo bar dip
\n - tremolo bar dive
-/n - tremolo bar Release up
/n\ - tremolo bar inverted dip
/n - tremolo bar return
-\n - tremolo bar Release down
S - shift slide
s - legato slide
/ -  slide into from below or out of upwards
\ -  slide into from above or out of downwards
~ - vibrato
W - wide vibrato
tr - trill
TP - tremolo picking
T - tapping
S - slap
P - pop
< - fade in
^ - brush up
v - brush down
comments
We did not receive enough feedback on this tab! Please rate:
print report bad tab
1 2 3 4 5
I want to post or [tab]
guest
You may want to rate the tab now too:
select rating
Please do not post tabs as comments. Select "correction" instead!