Oops, an error
Loading. Please wait.

Silent Hill 4 - Cradle Of Forest Tab

ver1
ver1

Whole song

Interactive

More versions @911Tabs.com
2,430 views 7 this week
no commentswrite comment
1 2 3 4 5
please rate
add to favorites launch autoscroll
font size
0
reset
Autoscroll
+/-
esc
set tempo
stop
Difficulty
intermediate
WARNING: You are trying to view
                                    content from Ultimate-Guitar.com
                                    in an unauthorized application,
                                    which is prohibited.

                                    Please use an official Ultimate
                                    Guitar Tabs application for iPhone,
                                    iPad or Android to access legitimate
                                    chords, guitar, bass, and drum tabs
                                    from Ultimate-Guitar.com database.

                                    Type "ultimate guitar tabs" in Apple
                                    App Store's or Android Market's
                                    search to find the application.
Cradle of forest                                 


Rythm guitar
      Em         G             C          B7          3x
E||---0-----0----3-----3----|--0-----0----2-----2-----||
B||---0-----0----0-----0----|--1-----1----0-----0-----||
G||*--0-----0----0--0--0----|--0-----0----2--2--2----*||
D||*--2--2--2----0--0--0----|--2--2--2----1--1--1----*||
A||---2--2--2----2--2--2----|--3--3--3----2--2--2-----||
E||---0--0--0----3--3--3----|-------------------------||


   Em                         G                        
---------------0-----------|--------------3-----------|
------------------0--------|-----------------0--------|
*-----------0--------0-----|-----------0--------0-----|
*--------2--------------2--|--------0--------------0--|
------2--------------------|-----2--------------------|
---0-----------------------|--3-----------------------|


  D                          C                          
--------------2-----------|--------------0------------||
-----------3-----3--------|-----------1-----1---------||
--------2-----------2-----|--------0-----------0-----*||
-----0-----------------0--|-----2-----------------2--*||
--0-----------------------|--3------------------------||
--------------------------|---------------------------||


   Em                          G                         
---0-----0----0---0--0--0-0-|--3-----3----3---3--3--3-3-|
---0-----0----0---0--0--0-0-|--0-----0----0---0--0--0-0-|
*--0--0--0--0-0---0--0--0-0-|--0--0--0--0-0---0--0--0-0-|
*--2--2--2--2-2---2--2--2-2-|--0--0--0--0-0---0--0--0-0-|
---2--2--2--2--------2--2-2-|--2--2--2--2--------2--2-2-|
---0--0--0--0--------0--0-0-|--3--3--3--3--------3--3-3-|


  D                           C          CaddC            
--2-----2----2---2--2--2-2-|--0-----0----0---0--0--0-0--||
--3--3--3--3-3---3--3--3-3-|--1-----1----3---1--1--1-1--||
--2--2--2--2-2---2--2--2-2-|--0--0--0--0-0---0--0--0-0-*||
--0--0--0--0-----0--0--0-0-|--2--2--2--2-2---2--2--2-2-*||
--0--0--0--0--------0--0---|--3--3--3--3--------3--3-3--||
---------------------------|----------------------------||


   D                           C                         2x
---2-----2----2---2--2--2-2-|--0-----0----0---0--0--0-0--||
---3--3--3--3-3---3--3--3-3-|--1-----1----1---1--1--1-1--||
*--2--2--2--2-2---2--2--2-2-|--0--0--0--0-0---0--0--0-0-*||
*--0--0--0--0-----0--0--0-0-|--2--2--2--2-2---2--2--2-2-*||
---0--0--0--0--------0--0---|--3--3--3--3--------3--3-3--||
----------------------------|----------------------------||


  D                           C                     Em         G           
--2-----2----2---2--2--2-2-|--0----------------||---0-----0----3-----3----|
--3--3--3--3-3---3--3--3-3-|--1----------------||---0-----0----0-----0----|
--2--2--2--2-2---2--2--2-2-|--0----------------||*--0-----0----0-----0----|
--0--0--0--0-----0--0--0-0-|--2----------------||*--2--2--2----0--0--0----|
--0--0--0--0--------0--0---|--3----------------||---2--2--2----2--2--2----|
---------------------------|-------------------||---0--0--0----3--3--3----|


  D          Am                       G             C          B7            
--2-----2----0-----0----|--0-----0----3-----3----|--0-----0----2-----2-----||
--3-----3----1-----1----|--1-----1----0-----0----|--1-----1----0-----0-----||
--2--2--2----2-----2----|--2-----2----0-----0----|--0--0--0----2-----2----*||
--0--0--0----2--2--2----|--2--2--2----0--0--0----|--2--2--2----1--1--1----*||
-------------0--0--0----|--0--0--0----2--2--2----|--3--3--3----2--2--2-----||
------------------------|-------------3--3--3----|-------------------------||


   Em         G             C          B7          3x
---0-----0----3-----3----|--0-----0----2-----2-----||
---0-----0----0-----0----|--1-----1----0-----0-----||
*--0-----0----0--0--0----|--0-----0----2--2--2----*||
*--2--2--2----0--0--0----|--2--2--2----1--1--1----*||
---2--2--2----2--2--2----|--3--3--3----2--2--2-----||
---0--0--0----3--3--3----|-------------------------||


   Em                         G                        
---------------0-----------|--------------3-----------|
------------------0--------|-----------------0--------|
*-----------0--------0-----|-----------0--------0-----|
*--------2--------------2--|--------0--------------0--|
------2--------------------|-----2--------------------|
---0-----------------------|--3-----------------------|


  D                          C                          
--------------2-----------|--------------0------------||
-----------3-----3--------|-----------1-----1---------||
--------2-----------2-----|--------0-----------0-----*||
-----0-----------------0--|-----2-----------------2--*||
--0-----------------------|--3------------------------||
--------------------------|---------------------------||


   D                           C                         2x
---2-----2----2---2--2--2-2-|--0-----0----0---0--0--0-0--||
---3--3--3--3-3---3--3--3-3-|--1-----1----1---1--1--1-1--||
*--2--2--2--2-2---2--2--2-2-|--0--0--0--0-0---0--0--0-0-*||
*--0--0--0--0-----0--0--0-0-|--2--2--2--2-2---2--2--2-2-*||
---0--0--0--0--------0--0---|--3--3--3--3--------3--3-3--||
----------------------------|----------------------------||


  D                           C                     Em         G           
--2-----2----2---2--2--2-2-|--0----------------||---0-----0----3-----3----|
--3--3--3--3-3---3--3--3-3-|--1----------------||---0-----0----0-----0----|
--2--2--2--2-2---2--2--2-2-|--0----------------||*--0-----0----0-----0----|
--0--0--0--0-----0--0--0-0-|--2----------------||*--2--2--2----0--0--0----|
--0--0--0--0--------0--0---|--3----------------||---2--2--2----2--2--2----|
---------------------------|-------------------||---0--0--0----3--3--3----|


  D          Am                       G             C          B7            
--2-----2----0-----0----|--0-----0----3-----3----|--0-----0----2-----2-----||
--3-----3----1-----1----|--1-----1----0-----0----|--1-----1----0-----0-----||
--2--2--2----2-----2----|--2-----2----0-----0----|--0--0--0----2-----2----*||
--0--0--0----2--2--2----|--2--2--2----0--0--0----|--2--2--2----1--1--1----*||
-------------0--0--0----|--0--0--0----2--2--2----|--3--3--3----2--2--2-----||
------------------------|-------------3--3--3----|-------------------------||


    Em                          Em                      
-----------------------0---|-----------------------0---|
-------------0---------0---|-------------0---------0---|
-------------0---------0---|-------------0---------0---|
----2---2----2---x-x-x-2---|----2---2----2---x-x-x-2---|
----2---2--2-2---x-x-x-2---|----2---2--2-2---x-x-x-2---|
--x-0---0--0-0---------0---|--x-0---0--0-0---------0---|


    Em                          Em                     
--------2--------------0---|--------2----0-----0-0-0--|
--------0----0---------0---|--------0----0-----0-0-0--|
--------0----0---------0---|----0---0----0-----0-0-0--|
----2---2----2---x-x-x-2---|----2---2--2-2-----2-2-2--|
----2---2--2-2---x-x-x-2---|----2---2--2-2-----2-2-2--|
--x-0---0--0-0---------0---|--x-0---0--0-0-----0-0-0--|


    Em         G             C          B7          3x
|---0-----0----3-----3----|--0-----0----2-----2-----||
|---0-----0----0-----0----|--1-----1----0-----0-----||
|*--0-----0----0--0--0----|--0-----0----2--2--2----*||
|*--2--2--2----0--0--0----|--2--2--2----1--1--1----*||
|---2--2--2----2--2--2----|--3--3--3----2--2--2-----||
|---0--0--0----3--3--3----|-------------------------||


  Em          G              D           Am           
--------------------------|--------------------------|
-----------0--------------|--------3-----------------|
--------------------0-----|-----------2-----------2--|
--------2--------------0--|-----0--------2-----2-----|
-----2-----------2--------|--0--------------0--------|
--0-----------3-----------|--------------------------|


              G              C7M         B7              Em         G           
--------------------------|-------------------------||---0-----0----3-----3----|
-----------1--------0-----|-----------0-------------||---0-----0----0-----0----|
--------2--------------0--|--------0-----------2----||*--0-----0----0-----0----|
-----2--------------------|-----2-----------1-------||*--2--2--2----0--0--0----|
--0--------------2--------|--3-----------2----------||---2--2--2----2--2--2----|
--------------3-----------|-------------------------||---0--0--0----3--3--3----|


  D          Am                       G             C          B7          2x
--2-----2----0-----0----|--0-----0----3-----3----|--0-----0----2-----2-----||
--3-----3----1-----1----|--1-----1----0-----0----|--1-----1----0-----0-----||
--2--2--2----2-----2----|--2-----2----0-----0----|--0--0--0----2-----2----*||
--0--0--0----2--2--2----|--2--2--2----0--0--0----|--2--2--2----1--1--1----*||
-------------0--0--0----|--0--0--0----2--2--2----|--3--3--3----2--2--2-----||
------------------------|-------------3--3--3----|-------------------------||


   Em         G             C          B7          3x
---0-----0----3-----3----|--0-----0----2-----2-----||
---0-----0----0-----0----|--1-----1----0-----0-----||
*--0-----0----0--0--0----|--0-----0----2--2--2----*||
*--2--2--2----0--0--0----|--2--2--2----1--1--1----*||
---2--2--2----2--2--2----|--3--3--3----2--2--2-----||
---0--0--0----3--3--3----|-------------------------||


   Em          G              D           Am           
---------------------------|--------------------------|
------------0--------------|--------3-----------------|
*--------------------0-----|-----------2-----------2--|
*--------2--------------0--|-----0--------2-----2-----|
------2-----------2--------|--0--------------0--------|
---0-----------3-----------|--------------------------|


              G              C7M         B7                                  
--------------------------|---------------------------||-------------------||
-----------1--------0-----|-----------0---------------||-------------------||
--------2--------------0--|--------0-----------2-----*||-------------------||
-----2--------------------|-----2-----------1-----1--*||-------------------||
--0--------------2--------|--3-----------2------------||-------------------||
--------------3-----------|---------------------------||--0----------------||

comments
We did not receive enough feedback on this tab! Please rate:
print report bad tab
1 2 3 4 5
I want to post or [tab]
guest
You may want to rate the tab now too:
select rating
Please do not post tabs as comments. Select "correction" instead!