Oops, an error
Loading. Please wait.

Turok 2 Seeds Of Evil - Port Of Adia Tab

2,198 views 1 this week
no commentswrite comment
1 2 3 4 5
please rate
add to favorites launch autoscroll
font size
0
reset
Autoscroll
+/-
esc
set tempo
stop
Contributor
Difficulty
intermediate
WARNING: You are trying to view
                                    content from Ultimate-Guitar.com
                                    in an unauthorized application,
                                    which is prohibited.

                                    Please use an official Ultimate
                                    Guitar Tabs application for iPhone,
                                    iPad or Android to access legitimate
                                    chords, guitar, bass, and drum tabs
                                    from Ultimate-Guitar.com database.

                                    Type "ultimate guitar tabs" in Apple
                                    App Store's or Android Market's
                                    search to find the application.
Turok 2: Seeds Of Evil
Port Of Adia
Guitar Tab
Standard Tuning - EADGBE
Tabbed By Jonathan Mack


I Havent Seen A Single Tab For This Song Anywhere,
Which Is Rather Suprising As Its A Kick Ass Tune And Its From
Such A Great Game.

Port Of Adia Is The First Level In Turok 2: Seeds Of Evil For The Nintendo 64...
Its The One Where You Have To Rescue The Little Girls And Activate The Distress Beacons.

The Synth/Violin Is Rather Fast.But If Your Good Enough,
It Can Still Be Played On Guitar!


      


. Palm Mute
/ Slide Up
H Hold Note/Ring Out



Intro/Verse One


Rhythm Guitar
0:00
|---------------------------------|-----------------------------|
|---------------------------------|-----------------------------|
|---------------------------------|-----------------------------|  
|3-3-3-3-3-3-3-3-3-3-3-3-3-3-3-1/3|3-3-3-3-3-3-3-3-3-3-3-3-3-3-3| x3
|---------------------------------|-----------------------------|
|---------------------------------|-----------------------------|
   . . .   . .   .   . .   . .     . . .   . .   .   . .   . . .

0:14
|-------------------------------|-----------------------------|
|-------------------------------|-----------------------------|
|-------------------------------|-----------------------------|  
|3-3-3-3-3-3-3-3-3-3-3-3-3-3-3-3|3-3-3-3-3-3-3-3-3-3-3-3-3-3-3| x1
|-------------------------------|-----------------------------|
|-------------------------------|-----------------------------|
   . . .   . .   .   . .   . . .   . .   . .   .   . .   . . .

0:19
|---------------------------------|-----------------------------|
|---------------------------------|-----------------------------|
|---------------------------------|-----------------------------|  
|3-3-3-3-3-3-3-3-3-3-3-3-3-3-3-1/3|3-3-3-3-3-3-3-3-3-3-3-3-3-3-3| x1
|---------------------------------|-----------------------------|
|---------------------------------|-----------------------------|
   . . .   . .   .   . .   . .     . . .   . .   .   . .   . . .

0:24
|-------------------------------|-----------------------------|
|-------------------------------|-----------------------------|
|-------------------------------|-----------------------------|  
|3-3-3-3-3-3-3-3-3-3-3-3-3-3-3-3|3-3-3-3-3-3-3-3-3-3-3-3-3-3-3| x1
|-------------------------------|-----------------------------|
|-------------------------------|-----------------------------|
   . . .   . .   .   . .   . . .   . .   . .   .   . .   . . .

0:29
|-------------------------------|-----------------------------|
|-------------------------------|-----------------------------|
|-------------------------------|-----------------------------|  
|4-4-4-4-4-4-4-4-4-4-4-4-4-4-4-4|4-4-4-4-4-4-4-4-4-4-4-4-4-4-4| x2
|-------------------------------|-----------------------------|
|-------------------------------|-----------------------------|
   . . .   . .   .   . .   . . .   . .   . .   .   . .   . . .

0:39
|-------------------------------|-----------------------------|
|-------------------------------|-----------------------------|
|-------------------------------|-----------------------------|  
|3-3-3-3-3-3-3-3-3-3-3-3-3-3-3-3|3-3-3-3-3-3-3-3-3-3-3-3-3-3-3| x2
|-------------------------------|-----------------------------|
|-------------------------------|-----------------------------|
   . . .   . .   .   . .   . . .   . .   . .   .   . .   . . .

0:48
|-------------------------------|-----------------------------|
|-------------------------------|-----------------------------|
|-------------------------------|-----------------------------|  
|4-4-4-4-4-4-4-4-4-4-4-4-4-4-4-4|4-4-4-4-4-4-4-4-4-4-4-4-4-4-4| x2
|-------------------------------|-----------------------------|
|-------------------------------|-----------------------------|
   . . .   . .   .   . .   . . .   . .   . .   .   . .   . . .

0:58
|-------------------------------|-----------------------------|
|-------------------------------|-----------------------------|
|-------------------------------|-----------------------------|  
|3-3-3-3-3-3-3-3-3-3-3-3-3-3-3-3|3-3-3-3-3-3-3-3-3-3-3-3-3-3-3| x2
|-------------------------------|-----------------------------|
|-------------------------------|-----------------------------|
   . . .   . .   .   . .   . . .   . .   . .   .   . .   . . .


Bass Guitar
0:09           0:19            0:28
|--------------|---------------|-------------->
|--------------|---------------|-------------->
|--------------|---------------|-------------->
|--------------|---------------|--------------> 
|--------------|---------------|-------------->
|6-6---4-6-6---|46-6---4-6-6---|42-2---2-2-2-->

0:38            0:48            0:58
|---------------|---------------|------------|
|---------------|---------------|------------|
|---------------|---------------|------------|
|---------------|---------------|------------| x1
|---------------|---------------|------------|
|46-6---4-6-6---|42-2---2-2-2---|46-6---4-6-6|

1:08
|--------------------------------------------------------------------------------->
|--------------------------------------------------------------------------------->
|--------------------------------------------------------------------------------->
|--------------------------------------------------------------------------------->
|--------------------------------------------------------------------------------->
|42222222222222222221-2222222222222222224-6666666666666666664-666666666666666666-->
  .... .. .. . .....  .... .. .. . .....  .... .. .. . .....  .... .. .. . .....

1:17
|------------------------------------------|
|------------------------------------------|
|------------------------------------------|
|------------------------------------------| x1
|------------------------------------------|
|42222222222222221-22222222----------------|
   ... .. . .....  .... ..  


Lead Guitar
0:19                            
|-------------------------------|--------------------------------->
|------------------------2-1----|------------------------4-2-1---->
|3-3-1-3-3-3-1-3-1-3-1-3-----3-1|3-3-1-3-3-3-1-3-1-3-1-3-------3-->
|-------------------------------|--------------------------------->
|-------------------------------|--------------------------------->
|-------------------------------|--------------------------------->

0:24                            
|-------------------------------|--------------------------------->
|------------------------2-1----|------------------2-1---2-1------>
|3-3-1-3-3-3-1-3-1-3-1-3-----3-1|3-3-1-3-3-3-1-3-1-----3-----3-1-->
|-------------------------------|--------------------------------->
|-------------------------------|--------------------------------->
|-------------------------------|--------------------------------->

0:29                            
|-------------------------------|--------------------------------->
|------------------------2-1----|----------------------4-2-1------>
|3-3-1-3-3-3-1-3-1-3-1-3-----3-1|3-3-1-3-3-3-1-3-1-3-1-------3-1-->
|-------------------------------|--------------------------------->
|-------------------------------|--------------------------------->
|-------------------------------|--------------------------------->

0:34                            
|-------------------------------|--------------------------------->
|------------------------2-1----|--------------2---1-----2-1------>
|3-3-1-3-3-3-1-3-1-3-1-3-----3-1|3-3-1-3-3-3-1-------3-1-----3-1-->
|-------------------------------|--------------------------------->
|-------------------------------|--------------------------------->
|-------------------------------|--------------------------------->

0:38                            
|-------------------------------|--------------------------------->
|------------------------2-1----|------------------------4-2-1---->
|3-3-1-3-3-3-1-3-1-3-1-3-----3-1|3-3-1-3-3-3-1-3-1-3-1-3-------3-->
|-------------------------------|--------------------------------->
|-------------------------------|--------------------------------->
|-------------------------------|--------------------------------->

0:44                               
|-------------------------------|------------------------------->
|------------------------2-1----|--------------2-1-----2-1------>
|3-3-1-3-3-3-1-3-1-3-1-3-----3-1|3-3-1-3-3-3-1-----3-1-----3-1-->
|-------------------------------|------------------------------->
|-------------------------------|------------------------------->
|-------------------------------|------------------------------->

0:48                            
|-------------------------------|--------------------------------->
|------------------------2-1----|------------------------4-2-1---->
|3-3-1-3-3-3-1-3-1-3-1-3-----3-1|3-3-1-3-3-3-1-3-1-3-1-3-------3-->
|-------------------------------|--------------------------------->
|-------------------------------|--------------------------------->
|-------------------------------|--------------------------------->
 
0:53                            
|-------------------------------|-------------------------------|
|------------------------2-1----|--------------2---1-----2-1----|
|3-3-1-3-3-3-1-3-1-3-1-3-----3-1|3-3-1-3-3-3-1-------3-1-----3-1|
|-------------------------------|-------------------------------| x1
|-------------------------------|-------------------------------|
|-------------------------------|-------------------------------|


Guitar Three
0:48
|-------------------------------|
|7-7-7-7-7-7-7-7-7-7-7-7-7-7-7-6|
|-------------------------------|
|-------------------------------| x1
|-------------------------------|
|-------------------------------|
   . . .   . .   .   . .   . . 

0:51
|-------------------------------|
|7-7-7-7-7-7-7-7-7-7-7-7-7-7-7-7|
|-------------------------------|
|-------------------------------| x3
|-------------------------------|
|-------------------------------|
   . . .   . .   .   . .   . . .

0:58
|--------------------------------9-8------->
|11-11-9-11-11-11-9-11-9-11-9-11-----11-9-->
|------------------------------------------>
|------------------------------------------>
|------------------------------------------>
|------------------------------------------>

1:00
|--------------------------------11-9-8----->
|11-11-9-11-11-11-9-11-9-11-9-11--------11-->
|------------------------------------------->
|------------------------------------------->
|------------------------------------------->
|------------------------------------------->

1:03
|--------------------------------9-8------>
|11-11-9-11-11-9-11-11-9-11-9-11----11-9-->
|----------------------------------------->
|----------------------------------------->
|----------------------------------------->
|----------------------------------------->

1:05
|-------------------9-8------9-8-----|
|11-11-9-11-11-9-11-----11-9-----11-9|
|------------------------------------|
|------------------------------------| x1
|------------------------------------|
|------------------------------------|

1:08
|-------------------------------|--------------------------------->
|7-7-7-7-7-7-7-7-7-7-7-7-7-7-7-6|7-7-7-7-7-7-7-7-7-7-7-7-7-7-7-9-->
|-------------------------------|--------------------------------->
|-------------------------------|--------------------------------->
|-------------------------------|--------------------------------->
|-------------------------------|--------------------------------->

1:12
|6-6-6-6-6-6-6-6-6-6-6-6-6-6-6--|6-6-6-6-6-6-6-6-6-6-6-6-6-6-6---->
|------------------------------9|------------------------------9-->
|-------------------------------|--------------------------------->
|-------------------------------|--------------------------------->
|-------------------------------|--------------------------------->
|-------------------------------|--------------------------------->

1:17
|-------------------------------|---------------------------------|
|7-7-7-7-7-7-7-7-7-7-7-7-7-7-7-6|7-7-7-7-7-7-7-6-7--6-4----7-6-4--|
|-------------------------------|------------------------6-------6|
|-------------------------------|---------------------------------| x1
|-------------------------------|---------------------------------|
|-------------------------------|---------------------------------|



Break Down One


Bass Guitar
1:22
|-------------------------------|
|-------------------------------|
|-------------------------------|
|-------------------------------| x8
|1---3---4-----1---3---4-----1-3|
|--1---1---1-1---1---1---1-1----|



Chorus One


Lead Guitar
1:42
|-----8---9-----------8---9---------9|
|11-9---9---9----11-9---9------9-11--|
|-------------10------------10-------|
|------------------------------------| x7
|------------------------------------|
|------------------------------------|

2:03
|-----8---9-----------8---9---------9---|
|11-9---9---9----11-9---9------9-11---11|
|-------------10------------10----------|
|---------------------------------------| x1
|---------------------------------------|
|---------------------------------------|


Rhythm Guitar
1:43                                                    
|------------------------------------------------------>
|------7-------7------4-6-7-------7-------------------->
|----6---6---6---6--6-------6---6---6------------------>
|------------------------------------------------------>
|------------------------------------------------------>
|------------------------------------------------------>

1:47
|------6-------------------------6-------------------|
|----6---6---------------------6---6-----------------|
|----------------------------------------------------|
|----------------------------------------------------| x2
|----------------------------------------------------|
|----------------------------------------------------|

Bass Guitar
1:42                                                 
|------------------------------------------------------>
|------------------------------------------------------>
|------------------------------------------------------>
|-----------------------------------------------3-4-6-->
|---------------------------------------3-4-6-4-------->
|222-----222----------------222-----222---------------->
 ...     ...                ...     ...              

1:46
|----------------------------------------------------|
|----------------------------------------------------|
|----------------------------------------------------|
|--------------------3-4-6----------------------3-4-6| x1
|------------3-4-6-4--------------------3-4-6-4------|
|666-----666----------------666-----666--------------|
 ...     ...                ...     ...               
                                                     
1:51                                                 
|------------------------------------------------------>
|------------------------------------------------------>
|------------------------------------------------------>
|--------------------3-4-6----------------------3-4-6-->
|------------3-4-6-4--------------------3-4-6-4-------->
|222-----222----------------222-----222---------------->
 ...     ...                ...     ...               

1:56
|----------------------------------------------------|
|----------------------------------------------------|
|----------------------------------------------------|
|--------------------3-4-6----------------------3-4-6| x1
|------------3-4-6-4--------------------3-4-6-4------|
|666-----666----------------666-----666--------------|
 ...     ...                ...     ...               

2:01
|------------------------------------------------------|
|------------------------------------------------------|
|------------------------------------------------------|
|--------------------3-4-6----------------------3-4-6--| x1
|------------3-4-6-4--------------------3-4-6-4--------|
|222-----222----------------222-----222---------------2|
 ...     ...                ...     ...               .          



Break Down Two


Bass Guitar
2:06
|-------------------------------|
|-------------------------------|
|-------------------------------|
|-------------------------------| x8
|1---3---4-----1---3---4-----1-3|
|--1---1---1-1---1---1---1-1----|


Rhythm Guitar
2:10      2:15        2:19            2:24
|---------|-----------|---------------|---------------|
|---------|-----------|---------------|---------------|
|---------|-----------|---------------|---------------|
|---------|-----------|---------------|---------------| x1
|------4--|--------4--|----4-------4--|----4-------4--|
|6-4-6---6|4-6-4-6---6|4-6---6-4-6---6|4-6---6-4-6----|


Guitar Three
2:10      2:15        2:19            2:24
|---------|-----------|----------6-9-6|----------6-9-6|
|---------|-----------|------6-9------|------6-9------|
|---------|-----------|--6-8----------|--6-8----------|
|---------|-----------|8--------------|8--------------| x1
|---------|-----------|---------------|---------------|
|---------|-----------|---------------|---------------|



Chorus Two


Lead Guitar
2:25
|-----8---9-----------8---9---------9|
|11-9---9---9----11-9---9------9-11--|
|-------------10------------10-------|
|------------------------------------| x5
|------------------------------------|
|------------------------------------|

2:37
|-----8---9-----------8---9---------9---|
|11-9---9---9----11-9---9------9-11---11|
|-------------10------------10----------|
|---------------------------------------| x1
|---------------------------------------|
|---------------------------------------|

Rhythm Guitar
2:26                                                   
|------------------------------------------------------>
|------7-------7------4-6-7-------7-------------------->
|----6---6---6---6--6-------6---6---6------------------>
|------------------------------------------------------>
|------------------------------------------------------>
|------------------------------------------------------>

2:31
|------6--------------------------6------------------|
|----6---6----------------------6---6----------------|
|--------------------3-4-6----------------------3-4-6|
|------------3-4-6-4--------------------3-4-6-4------| x1
|----------------------------------------------------|
|----------------------------------------------------|

2:36
|----------------------------------------------------|
|------7-------7------4-6-7-------7------------------|
|----6---6---6---6--6-------6---6---6----------------|
|----------------------------------------------------| x1
|----------------------------------------------------|
|----------------------------------------------------|


Bass Guitar
2:25                                                 
|------------------------------------------------------>
|------------------------------------------------------>
|------------------------------------------------------>
|--------------------3-4-6----------------------3-4-6-->
|------------3-4-6-4--------------------3-4-6-4-------->
|222-----222----------------222-----222---------------->
 ...     ...                ...     ...               

2:30
|----------------------------------------------------|
|----------------------------------------------------|
|----------------------------------------------------|
|--------------------3-4-6----------------------3-4-6| x1
|------------3-4-6-4--------------------3-4-6-4------|
|666-----666----------------666-----666--------------|
 ...     ...                ...     ...               

2:35
|------------------------------------------------------|
|------------------------------------------------------|
|------------------------------------------------------|
|--------------------3-4-6----------------------3-4-6--| x1
|------------3-4-6-4--------------------3-4-6-4--------|
|222-----222----------------222-----222---------------2|
 ...     ...                ...     ...               .        

  

Bridge Section



Rhythm Guitar
2:40
|---------------------------------|-----------------------------|
|---------------------------------|-----------------------------|
|3-3-3-3-3-3-3-3-3-3-3-3-3-3-3-1/3|3-3-3-3-3-3-3-3-3-3-3-3-3-3-3|
|---------------------------------|-----------------------------| x6
|---------------------------------|-----------------------------|
|---------------------------------|-----------------------------|
   . . .   . .   .   . .   . .     . . .   . .   .   . .   . . .  


Bass Guitar
2:42
|---------------------------------------------------------------|
|---------------------------------------------------------------|
|---------------------------------------------------------------|
|-------------------------3-4-----------------------------------| x1
|---------------------4-6-------4-------------------------------|
|4-6----------------6---------6---6----------------4-6----------| 



Lead Guitar
2:42
|--6--------------------------6-9-6------------------6----------|
|9------------------------6-9----------------------9------------|
|---------------------6-8---------------------------------------|
|-------------------8-------------------------------------------| x1
|---------------------------------------------------------------|
|---------------------------------------------------------------|

2:50
|------------------------2-1----|------------------------4-2-1--|
|4-4-2-4-4-4-2-4-2-4-4-2-----4-2|4-4-2-4-4-4-2-4-2-4-4-2-------4|
|-------------------------------|-------------------------------|
|-------------------------------|-------------------------------| x1
|-------------------------------|-------------------------------|
|-------------------------------|-------------------------------|

2:54
|------------------------2-1----|------------------2-1---2-1---2|
|4-4-2-4-4-4-2-4-2-4-4-2-----4-2|4-4-2-4-4-4-2-4-2-----4-----4--|
|-------------------------------|-------------------------------|
|-------------------------------|-------------------------------| x1
|-------------------------------|-------------------------------|
|-------------------------------|-------------------------------|

2:59
|------------------------2-1----|----------------------4-2-1----|
|4-4-2-4-4-4-2-4-2-4-4-2-----4-2|4-4-2-4-4-4-2-4-4-4-2-------4-2|
|-------------------------------|-------------------------------|
|-------------------------------|-------------------------------| x1
|-------------------------------|-------------------------------|
|-------------------------------|-------------------------------|

3:04
|------------------------2-1----|--------------2--1-----2-1----|
|4-4-2-4-4-4-2-4-2-4-4-2-----4-2|4-4-2-4-4-4-2------4-2-----4-2|
|-------------------------------|------------------------------|
|-------------------------------|------------------------------| x1
|-------------------------------|------------------------------|
|-------------------------------|------------------------------|




Verse Two


Rhythm Guitar
3:09
|---------------------------------|-----------------------------|
|---------------------------------|-----------------------------|
|3-3-3-3-3-3-3-3-3-3-3-3-3-3-3-1/3|3-3-3-3-3-3-3-3-3-3-3-3-3-3-3|
|---------------------------------|-----------------------------| x6
|---------------------------------|-----------------------------|
|---------------------------------|-----------------------------|
   . . .   . .   .   . .   . .     . . .   . .   .   . .   . . . 

Lead Guitar
3:09
|-------------------------------|--------------------------------->
|------------------------2-1----|------------------------4-2-1---->
|3-3-1-3-3-3-1-3-1-3-1-3-----3-1|3-3-1-3-3-3-1-3-1-3-1-3-------3-->
|-------------------------------|--------------------------------->
|-------------------------------|--------------------------------->
|-------------------------------|--------------------------------->

3:14 
|-------------------------------|------------------------------->
|------------------------2-1----|--------------2-1-----2-1------>
|3-3-1-3-3-3-1-3-1-3-1-3-----3-1|3-3-1-3-3-3-1-----3-1-----3-1-->
|-------------------------------|------------------------------->
|-------------------------------|------------------------------->
|-------------------------------|------------------------------->

3:18
|-------------------------------|--------------------------------->
|------------------------2-1----|------------------------4-2-1---->
|3-3-1-3-3-3-1-3-1-3-1-3-----3-1|3-3-1-3-3-3-1-3-1-3-1-3-------3-->
|-------------------------------|--------------------------------->
|-------------------------------|--------------------------------->
|-------------------------------|--------------------------------->
 
3:23
|-------------------------------|-------------------------------|
|------------------------2-1----|--------------2---1-----2-1----|
|3-3-1-3-3-3-1-3-1-3-1-3-----3-1|3-3-1-3-3-3-1-------3-1-----3-1|
|-------------------------------|-------------------------------| x1
|-------------------------------|-------------------------------|
|-------------------------------|-------------------------------|

Guitar Three
3:20
|-------------------------------|
|7-7-7-7-7-7-7-7-7-7-7-7-7-7-7-6|
|-------------------------------|
|-------------------------------| x1
|-------------------------------|
|-------------------------------|
   . . .   . .   .   . .   . . 

3:25
|-------------------------------|
|7-7-7-7-7-7-7-7-7-7-7-7-7-7-7-7|
|-------------------------------|
|-------------------------------| x3
|-------------------------------|
|-------------------------------|
   . . .   . .   .   . .   . . .


3:29
|--------------------------------9-8------->
|11-11-9-11-11-11-9-11-9-11-9-11-----11-9-->
|------------------------------------------>
|------------------------------------------>
|------------------------------------------>
|------------------------------------------>

3:31
|--------------------------------11-9-8----->
|11-11-9-11-11-11-9-11-9-11-9-11--------11-->
|------------------------------------------->
|------------------------------------------->
|------------------------------------------->
|------------------------------------------->

3:33
|--------------------------------9-8------>
|11-11-9-11-11-9-11-11-9-11-9-11----11-9-->
|----------------------------------------->
|----------------------------------------->
|----------------------------------------->
|----------------------------------------->

3:35
|-------------------9-8------9-8-----|
|11-11-9-11-11-9-11-----11-9-----11-9|
|------------------------------------|
|------------------------------------| x1
|------------------------------------|
|------------------------------------|

3:39
|-------------------------------|--------------------------------->
|7-7-7-7-7-7-7-7-7-7-7-7-7-7-7-6|7-7-7-7-7-7-7-7-7-7-7-7-7-7-7-9-->
|-------------------------------|--------------------------------->
|-------------------------------|--------------------------------->
|-------------------------------|--------------------------------->
|-------------------------------|--------------------------------->

3:43
|6-6-6-6-6-6-6-6-6-6-6-6-6-6-6--|6-6-6-6-6-6-6-6-6-6-6-6-6-6-6---->
|------------------------------9|------------------------------9-->
|-------------------------------|--------------------------------->
|-------------------------------|--------------------------------->
|-------------------------------|--------------------------------->
|-------------------------------|--------------------------------->

3:48
|-------------------------------|---------------------------------|
|7-7-7-7-7-7-7-7-7-7-7-7-7-7-7-6|7-7-7-7-7-7-7-6-7--6-4----7-6-4--|
|-------------------------------|------------------------6-------6|
|-------------------------------|---------------------------------| x1
|-------------------------------|---------------------------------|
|-------------------------------|---------------------------------|


Bass Guitar
3:09           3:18            3:28 
|--------------|---------------|------------|
|--------------|---------------|------------|
|--------------|---------------|------------|
|--------------|---------------|------------| x1
|--------------|---------------|------------|
|6-6---4-6-6---|42-2---2-2-2---|46-6---4-6-6|


3:38
|--------------------------------------------------------------------------------->
|--------------------------------------------------------------------------------->
|--------------------------------------------------------------------------------->
|--------------------------------------------------------------------------------->
|--------------------------------------------------------------------------------->
|42222222222222222221-2222222222222222224-6666666666666666664-666666666666666666-->
  .... .. .. . .....  .... .. .. . .....  .... .. .. . .....  .... .. .. . .....

3:48
|--------------------------------------------|
|--------------------------------------------|
|--------------------------------------------|
|--------------------------------------------| x1
|--------------------------------------------|
|42222222222222221-22222222------------------|
   ... .. . .....  .... .. 




3:53 - 4:13 = Drums




Build Up


Rhythm Guitar
4:21                   4:26
|----------------------|------------------------|
|----------------------|------------------------|
|--1-3--3-3-1-1-1---1-3|-------3-3-3-1-1-1---1-3|
|3----------------3----|-------------------3----| x1
|----------------------|------------------------|
|----------------------|------------------------|

4:31                   4:36                   4:39
|----------------------|----------------------|1-2-1-----1--2-1-2-1--|
|----------------------|-----------------2-1--|------2--------------2|
|--1-3--3-3-1-1-1---1-3|--1-3--3-3-1-1-1-----3|--------3-------------|
|3----------------3----|3---------------------|----------------------| x1
|----------------------|----------------------|----------------------|
|----------------------|----------------------|----------------------|

4:41                   4:44                     4:46                   4:49
|----------------------|1-2-1-----1--2-1-2-1----|----------------------|1-2-1-----1--2-1-2-1--|
|----------------------|------2--------------2--|----------------------|------2--------------2|
|--1-3--3-3-1-1-1---1-3|--------3--------------3|-----3-3-3-1-1-1---1-3|--------3-------------|
|3----------------3----|------------------------|-----------------3----|----------------------| x1
|----------------------|------------------------|----------------------|----------------------|
|----------------------|------------------------|----------------------|----------------------|

4:51                   4:53                   4:55                     4:58
|----------------------|1-2-1-----1--2-1-2-1--|------------------------|1-2-1-----1--2-1-2-1--|
|----------------------|------2--------------2|-------------------2-1--|------2--------------2|
|--1-3--3-3-1-1-1---1-3|--------3-------------|--1-3--3-3-3-1-1-1-----3|--------3-------------|
|3----------------3----|----------------------|3-----------------------|----------------------| x1
|----------------------|----------------------|------------------------|----------------------|
|----------------------|----------------------|------------------------|----------------------|

5:00
|--------------------------|
|--------------------------|
|--1-3----1-3----1-3----1-3|
|3------3------3------3----| x1
|--------------------------|
|--------------------------|


Lead Guitar (Fades In)
4:13                                                                      
|6-6-6-6-6-6-6-6|6-6-6-6-6-6-6-6|6-6-6-6-6-6-6-6|6-6-6-6--------------------|
|---------------|---------------|---------------|--------9-9-7-7-7-7-7-7-9-9|
|---------------|---------------|---------------|---------------------------|
|---------------|---------------|---------------|---------------------------| x1
|---------------|---------------|---------------|---------------------------|
|---------------|---------------|---------------|---------------------------|

4:35
|6-6-6-6-6-6-6-6|6-6-6-6-6-6-6-6|6-6-6-6-6-6---------------------6-6-6-6-6-6-6-6|
|---------------|---------------|------------9-9-7-7-7-7-7-7-9-9----------------|
|---------------|---------------|-----------------------------------------------|
|---------------|---------------|-----------------------------------------------| x1
|---------------|---------------|-----------------------------------------------|
|---------------|---------------|-----------------------------------------------|

5:00
|------------------------------------------------------666666-8888888-9999999|
|--------111111111-2222222-444444444-6666666-999999999-----------------------|
|3333333---------------------------------------------------------------------|
|----------------------------------------------------------------------------| x1
|----------------------------------------------------------------------------|
|----------------------------------------------------------------------------|

5:11
|11111111111111-13131313131313-16161616161616-18181818181818-20202020202020-21|
|-----------------------------------------------------------------------------|
|-----------------------------------------------------------------------------|
|-----------------------------------------------------------------------------| x1
|-----------------------------------------------------------------------------|
|-----------------------------------------------------------------------------|


Guitar Three
4:42              4:50  4:51   4:55  4:56
|13H--------------11H---9H-----8H----6H----|
|------------------------------------------|
|------------------------------------------|
|------------------------------------------| X1
|------------------------------------------|
|------------------------------------------|



Verse Three/Outro


Lead Guitar
5:18
|-------------------------------|--------------------------------->
|------------------------2-1----|----------------------4-2-1------>
|3-3-1-3-3-3-1-3-1-3-1-3-----3-1|3-3-1-3-3-3-1-3-1-3-1-------3-1-->
|-------------------------------|--------------------------------->
|-------------------------------|--------------------------------->
|-------------------------------|--------------------------------->

5:22
|-------------------------------|--------------------------------->
|------------------------2-1----|--------------2---1-----2-1------>
|3-3-1-3-3-3-1-3-1-3-1-3-----3-1|3-3-1-3-3-3-1-------3-1-----3-1-->
|-------------------------------|--------------------------------->
|-------------------------------|--------------------------------->
|-------------------------------|--------------------------------->

5:27
|-------------------------------|--------------------------------->
|------------------------2-1----|------------------------4-2-1---->
|3-3-1-3-3-3-1-3-1-3-1-3-----3-1|3-3-1-3-3-3-1-3-1-3-1-3-------3-->
|-------------------------------|--------------------------------->
|-------------------------------|--------------------------------->
|-------------------------------|--------------------------------->

5:32                            (Starts To Fade Out)
|-------------------------------|------------------------------->
|------------------------2-1----|--------------2-1-----2-1------>
|3-3-1-3-3-3-1-3-1-3-1-3-----3-1|3-3-1-3-3-3-1-----3-1-----3-1-->
|-------------------------------|------------------------------->
|-------------------------------|------------------------------->
|-------------------------------|------------------------------->

5:37
|-------------------------------|----------------------->
|------------------------2-1----|----------------------->
|3-3-1-3-3-3-1-3-1-3-1-3-----3-1|3-3-1-3-3-3-1-3-1-3---->
|-------------------------------|----------------------->
|-------------------------------|----------------------->
|-------------------------------|----------------------->
 

Bass Guitar
5:17        5:27            5:36
|-----------|---------------|-------|
|-----------|---------------|-------|
|-----------|---------------|-------|
|-----------|---------------|-------| x1
|-----------|---------------|-------|
|2-2---2-2-2|46-6---4-6-6---|42-2---|


Guitar Three
5:37
|--------------------------------->
|7-7-7-7-7-7-7-7-7-7-7-7-7-7-7-6-->
|--------------------------------->
|--------------------------------->
|--------------------------------->
|--------------------------------->
   . . .   . .   .   . .   . . 

5:39
|-------------------------------|
|7-7-7-7-7-7-7-7-7-7------------|
|-------------------------------|
|-------------------------------| x1
|-------------------------------|
|-------------------------------|
   . . .   . .   .
comments
We did not receive enough feedback on this tab! Please rate:
1 2 3 4 5
I want to post or [tab]
guest
You may want to rate the tab now too:
select rating
Please do not post tabs as comments. Select "correction" instead!