Oops, an error
Loading. Please wait.

Kikis Delivery Service - Breeze On A Hill Tab

8,145 views 24 this week
no commentswrite comment
1 2 3 4 5
excellent!
x 5
Autoscroll
+/-
esc
set tempo
stop
Contributor
Hey! There's an official Ultimate Guitar app which is ideal
for learning songs when you're away from computer. Get the app
WARNING: You are trying to view
                                    content from Ultimate-Guitar.com
                                    in an unauthorized application,
                                    which is prohibited.

                                    Please use an official Ultimate
                                    Guitar Tabs application for iPhone,
                                    iPad or Android to access legitimate
                                    chords, guitar, bass, and drum tabs
                                    from Ultimate-Guitar.com database.

                                    Type "ultimate guitar tabs" in Apple
                                    App Store's or Android Market's
                                    search to find the application.
MusicXML Part
     E  E  E  E  E  E  E  E     E  E  E  E   Q.     E     Q.     E  Q.     E
E||-----7--5--3--3--2--0--2--|--5--3--2--3--10------8--|--7------5--5------3--|
B||-----5--------------------|---------------8---------|--5---------5---------|
G||-----5--------------------|--0------------8---------|--6---------6---------|
D||--------------2-----------|---------------0---------|------------5---------|
A||--0-----------------------|-------------------------|--0-------------------|
E||--------------------------|--3----------------------|----------------------|

  H           H        E  E     E  E  E  E  E  E  E  E
--5--------|--7--------------|--3-----------2-----------|
--5--------|--7-----------0--|-----------0--3--------0--|
--5--------|--8--------------|--------0-----------------|
--0--------|-----------------|--------------------4-----|
-----------|-----------------|-----2--------2--2--------|
-----------|--7--------------|--0-----------------------|

  E  E  E  E  E  Q    E     E  E  E  E  E  E  E  E     E  E  E  E  E  E  E  E
--0----------------------|--------0--3--2-----------|--------------------------|
--------3--1--3----------|-----1-----------3--0-----|--0--------------------0--|
--------0-------------0--|--2--------------------2--|--------2--0-----0--2-----|
-----2-----------0----0--|--------------0-----------|-----0--------4-----------|
--3-----------2----------|--0-----------------------|--------------2-----------|
-------------------------|--------------------------|--3-----------------------|

  E  E  E  E  E  E  E  E     E  E  E  E  Q    E  E     E  E  E  E  E  E  E  E
--3-----------2-----------|--0----------------------|--------0--3--5--7--2-----|
--L--------0--4--------0--|--0-----3--1--3-------0--|-----1--------0--------3--|
--------0-----2-----------|-------------------------|--2-----------------------|
--------------------4-----|-----2-------------2--2--|--------------------------|
-----2-----------2--------|-------------------------|--0-----------------2-----|
--0-----------2-----------|--3-----------4----------|--------------------------|

  E  E  E  E  Q    E  E     E  E  E  E  E  E  E  E     E  E  E  E  E  Q    E
--0----------------------|--3-----------2-----------|--0----------------------|
--------0-------------0--|-----------0--3--------0--|--------3--1--3----------|
-----0-----0-------------|--------0-----------------|--------0-------------0--|
--------------2----------|--------------------4-----|-----2-----------0----0--|
-------------------------|-----2--------2--2--------|--3-----------2----------|
--0----------------------|--0-----------------------|-------------------------|

  E  E  E  E  E  E  E  E     E  E  E  E  E  E  E  E
--------0--3--2-----------|--------------------------|
-----1-----------3--0-----|--0--------------------0--|
--2--------------------2--|--------2--0-----0--2-----|
--------------0-----------|-----0--------4-----------|
--0-----------------------|--------------2-----------|
--------------------------|--3-----------------------|

  E  E  E  E  E  E  E  E     E  E  E  E  Q    E  E     E  E  E  E  E  E  E  E
--3-----------2-----------|--0----------------------|--------0--3--5--7--2-----|
--L--------0--4--------0--|--0-----3--1--3-------0--|-----1--------0--------3--|
--------0-----2-----------|-------------------------|--2-----------------------|
--------------------4-----|-----2-------------2--2--|--------------------------|
-----2-----------2--------|-------------------------|--0-----------------2-----|
--0-----------2-----------|--3-----------4----------|--------------------------|

  E  E  E  E  Q    E  E     E  E  E  E  E  E  E  E
--0----------------0--2--|--3--3--3--3--3--2--0--2--|
--------0----------------|-----1--1--1--1-----------|
-----0-----0-------------|--------------------------|
--------------2----------|--------------------------|
-------------------------|--0-----------0-----------|
--0----------------------|--------------------------|

  E  E  E  E  E  E  E  S S    E  E  E  E  E  E  E  E
---------------------------|--0--0--0--0--0-----------|
--3-----------3--1--0--1-3-|-----1--1--1--1--3--1--3--|
--------2------------------|-----0--0--0--0-----------|
-----4-----4--0------------|--------------------------|
--2------------------------|--3-----------3-----------|
---------------------------|--------------------------|

  E  E  E  E  E  E  E  E     E  E  E  E  E  E  E  E
--------------------------|-----------0--------------|
--0--------------------0--|--------1-----3--------1--|
--------0-----------0-----|--1--2--------------2-----|
-----0-----0-----0--------|-----------------0--------|
--------------------------|--0-----------------------|
--3-----------3-----------|--------------2-----------|

  E  E  E  E  E  E  E  E     Q.     S S Q.     S S    Q.     S S H
-----------2--5--3--2--3--|--7------5-7-0--------0-|----------------------|
-----0--3-----0-----------|--5----------2------3---|--0--------0----------|
--3-----------0-----------|--6----------0----------|--0------2------------|
--------------------------|--5----------2----------|-------------2--------|
--2-----------------------|--0---------------------|--0-------------------|
--------------0-----------|------------------------|----------------------|

  Q    E  E  E  E  E  E     E  E  E  E  E  E  E  E     E  Q    E  E  E  E  E
-------------3-----------|--2-----------0-----------|-------------------0--3--|
----------0-----------0--|--3--------0--------3--1--|--3-------------1--------|
-------------------0-----|--------------------0-----|----------0--2-----------|
--4----------------------|--------4--------2--------|-----0----0--------------|
--6-------------2--------|--2--2--------3-----------|--2----------0-----------|
-------------0-----------|--------------------------|-------------------------|

  E  E  E  E  E  E  E  E     E  E  E  E  E  E  E  E
--2-----------------------|--------------3-----------|
-----3--0-----0-----------|-----------0--L--------0--|
-----------2--------2--0--|-----0--2-----------0-----|
--0--------------0--------|--4-----------------------|
--------------------------|--2--------------2--------|
--------------3-----------|--------------0-----------|

  E  E  E  E  E  E  E  E     Q    E  E  E  E  E  E     E  E  E  E  E  E  E  E
--2-----------0-----------|-------------------0--3--|--5--7--2-----0-----------|
--4--------0--0-----3--1--|--3-------0-----1--------|--0--------3--------0-----|
--2-----------------------|-------------2-----------|--0--------------0-----0--|
--------4--------2--------|-------2--2--------------|--------------------------|
-----2--------------------|-------------0-----------|--------2-----------------|
--2-----------3-----------|--4----------------------|--------------0-----------|

  H        E  S S E  S S    E  S S Q    E  S S E  S S
--------------0---0------|----------------------------|
----------------3----1-0-|--1--------------3-2-3--0---|
--------------0----------|-----2-1-2-------2--------3-|
--2----------------------|--------------0-------------|
-------------------------|--0-------------------------|
-----------0-------------|----------------------------|

  E  S S Q    E  S S E  S S    E  E  E  E  S S S S S S S S
----------------------------|--------0---------------------|
--0--------------1-0-1------|-----1-----1----1-0-----------|
--0--0---0-------0------2-1-|--2-----------2-----2-0-------|
-------4--------------------|------------------------4-2-4-|
--------------3-------------|--------------2---------------|
--3-------------------------|--2---------------------------|

                                          |--3--|  |--3--|
  Q    Q    E  S S E  S S    Q    S S S S E  E  E  E  E  E
---------------0---0------|---------------0--2--3--2--5--3--|
-----------------4----1-0-|--1------0-1-3-1-----------------|
--0------------0----------|-------2-------2-----------------|
--2-----------------------|---------------0-----------------|
--------------------------|--0------------------------------|
-------0----0-------------|---------------------------------|

  E  E  Q    E  S S E  S S    E  E  E  E  S S S S S S S S
--2------------------------|--------0---------------------|
--0--3--L-------1-0-1------|-----1-----1----1-0-----------|
--0-------------0------2-1-|--2-----------2-----2-0-------|
--0------------------------|------------------------4-2-1-|
-------------3-------------|--------------2---------------|
---------------------------|--2---------------------------|

  Q    Q    E  S S E  E     S S S S S S S S E  S S E  E
---------------3-2-3-----|---------------------2-1-2-----|
---------------0------0--|--1-3-1-0-1--------------------|
---------------0---------|------------0--------2------2--|
--2----------------------|----------4---4-2-0------------|
-------------------------|--0----------------------------|
-------0----0------------|-------------------------------|

  S S S S S S S S E  S S E  E     S S S S S S S S E  S S E  E
---------------------0---0-----|-------------------------------|
--0-1-0---0------------4-------|----0----------------4-2-4-----|
--------2------------0------0--|--2---2-1-2----------2---------|
----------2-4-2-0--------------|----------0-2-0-------------4--|
------------------3------------|----------------3-2------------|
--3----------------------------|--2----------------------------|

  S S S S S S S S E  Q    E     E  Q    E  E  Q    E     E  E  E  E  Q    Q
-----------------------------|------------------------|-------------------2----|
----------------0-3-------1--|--1-------0--0----------|-------------------5----|
--0-2-0-------0---2-------2--|--2----------2-------2--|--2--------0--2----2----|
--------4-2-4----------------|------------------------|--------------4---------|
---------------------3----3--|-----3----3-----3----3--|-----3--L-----2---------|
--0---------------1----------|--1----------1----------|--1---------------------|

  Q    E  E  H           Q.     E  E  E  E  E     E  E  E  E  E  E  E  E
--L-------------------|------------3-----------|--2-----------0-----------|
-------4--2--4--------|---------0-----------0--|--3--------0--------3--1--|
--L----------2--------|------------------0-----|--------------------0-----|
-------------4--------|------------------------|--------4--------2--------|
----------------------|--2------------2--------|--2--2--------3-----------|
----------------------|------------0-----------|--------------------------|

  E  Q    E  E  E  E  E     E  E  E  E  E  E  E  E     E  E  E  E  E  E  E  E
-------------------0--3--|--2-----------------------|--------------3-----------|
--3-------------1--------|-----3--0-----0-----------|-----------0--L--------0--|
----------0--2-----------|-----------2--------2--0--|-----0--2-----------0-----|
-----0----0--------------|--0--------------0--------|--4-----------------------|
--2----------0-----------|--------------------------|--2--------------2--------|
-------------------------|--------------3-----------|--------------0-----------|

  E  E  E  E  E  E  E  E     Q    E  E  E  E  E  E     E  E  E  E  E  E  E  E
--2-----------0-----------|-------------------0--3--|--5--7--2-----0-----------|
--4--------0--0-----3--1--|--3-------0-----1--------|--0--------3--------0-----|
--2-----------------------|-------------2-----------|--0--------------0-----0--|
--------4--------2--------|-------2--2--------------|--------------------------|
-----2--------------------|-------------0-----------|--------2-----------------|
--2-----------3-----------|--4----------------------|--------------0-----------|

  Q    E  E  E  E  E  E     E  E  E  E  E  E  E  E
-------0--2--3--3--3--3--|--3--2--0--2--------------|
----------------1--1--1--|--1-----------3-----------|
-------------------------|--------------------2-----|
--2----------------------|-----------------4-----4--|
-------------0-----------|--0-----------2-----------|
-------------------------|--------------------------|

  E  E  E  S S E  E  E  E     E  E  E  E  E  E  E  E
---------------0--0--0--0--|--0-----------------------|
--3--1--0--1-3----1--1--1--|--1--3--1--3--0-----------|
------------------0--0--0--|--0-----------------0-----|
--0------------------------|-----------------0-----0--|
---------------3-----------|--3-----------------------|
---------------------------|--------------3-----------|

  E  E  E  E  E  E  E  E     E  E  E  E  E  E  E  E     E  E  E  E  Q.     S S
-----------------------0--|-----------------------2--|--5--3--2--3--7------5-7-|
-----------0--------1-----|--3--------1-----0--3-----|--0-----------5----------|
--------0-----1--2--------|--------2-----3-----------|--0-----------6----------|
-----0--------------------|-----0--------------------|--------------5----------|
--------------0-----------|--------------2-----------|--------------0----------|
--3-----------------------|--2-----------------------|--0----------------------|

  Q.     S S Q.     S S    Q    Q    Q    E  E     E  E  E  E  E  E  E  E
--0--------0------------|-----------------------|--3-----------2-----------|
--2------3---0--------0-|--------------------0--|-----------0--3--------0--|
--0----------0------2---|-----------------------|--------0-----------------|
------------------------|--2----L----4----------|--------------------4-----|
-------------0----------|------------6----------|-----2--------2--2--------|
------------------------|-----------------------|--0-----------------------|

  E  E  E  E  E  Q    E     E  E  E  E  E  E  E  E     E  E  E  E  E  E  E  E
--0----------------------|--------0--3--2-----------|--------------------------|
--------3--1--3----------|-----1-----------3--0-----|--0--------------------0--|
--------0-------------0--|--2--------------------2--|--------2--0-----0--2-----|
-----2-----------0----0--|--------------0-----------|-----0--------4-----------|
--3-----------2----------|--0-----------------------|--------------2-----------|
-------------------------|--------------------------|--3-----------------------|

  E  E  E  E  E  E  E  E     E  E  E  E  Q    E  E     E  E  E  E  E  E  E  E
--3-----------2-----------|--0----------------------|--------0--3--5--7--2-----|
--L--------0--4--------0--|--0-----3--1--3-------0--|-----1--------0--------3--|
--------0-----2-----------|-------------------------|--2-----------------------|
--------------------4-----|-----2-------------2--2--|--------------------------|
-----2-----------2--------|-------------------------|--0-----------------2-----|
--0-----------2-----------|--3-----------4----------|--------------------------|

  H        H
--0-----------------||
--0-----------------||
--2--------0--------||
-----------2--------||
--------------------||
--0--------0--------||

Duration Legend
---------------
W - whole
H - half
Q - quarter
E - 8th
S - 16th
T - 32nd
X - 64th
. - note dotted
|-n-|  - n-tuplets


http://en.wikipedia.org/wiki/Joe_Hisaishi
comments
print report bad tab
I want to post or [tab]
guest
You may want to rate the tab now too:
select rating
Please do not post tabs as comments. Select "correction" instead!