Oops, an error
Loading. Please wait.

Kikis Delivery Service - Rouge Message Tab

2,788 views 3 this week
no commentswrite comment
1 2 3 4 5
please rate
Autoscroll
+/-
esc
set tempo
stop
Contributor
Tuning
D A D G B E
Hey! There's an official Ultimate Guitar app which is ideal
for learning songs when you're away from computer. Get the app
WARNING: You are trying to view
                                    content from Ultimate-Guitar.com
                                    in an unauthorized application,
                                    which is prohibited.

                                    Please use an official Ultimate
                                    Guitar Tabs application for iPhone,
                                    iPad or Android to access legitimate
                                    chords, guitar, bass, and drum tabs
                                    from Ultimate-Guitar.com database.

                                    Type "ultimate guitar tabs" in Apple
                                    App Store's or Android Market's
                                    search to find the application.
Drop D Tuning (Capo 1)

bpm=150

     T    T   T    T   T  T   T      T    T    T    T       
     Q    E   E    E   E  E   E      Q    Q    Q    E  E    
E||-------------------------------|------------------------|
B||-------------------------------|------------------------|
G||-------------------------------|------------------------|
D||-------------------------------|------------------------|
A||--x----x--(x)--(x)--x--x--(x)--|--x----x----x----x--3s--|
D||-------------------------------|------------------------|


          T        T                 T        T       
  Q    E  E  E  E  E  E      Q    E  E  E  E  E  E    
--------------------------|--------------------------|
--------------------------|--------------------------|
-------7--------7--L------|-------7--------7--L------|
-------7--------7--L------|-------7--------7--L------|
--5-------x--5-----x--3s--|--5-------x--5-----x--0h--|
--------------------------|--------------------------|


          T        T                 T        T       
  Q    E  E  E  E  E  E      Q    E  E  E  E  E  E    
--------------------------|--------------------------|
--------------------------|--------------------------|
-------4--------4--L------|-------4--------4--L------|
-------4--------4--L------|-------4--------4--L------|
--2-------x--2-----x--0h--|--2-------x--2-----x--3s--|
--------------------------|--------------------------|


          T        T                 T        T       
  Q    E  E  E  E  E  E      Q    E  E  E  E  E  E    
--------------------------|--------------------------|
--------------------------|--------------------------|
-------7--------7--L------|-------7--------7--L------|
-------7--------7--L------|-------7--------7--L------|
--5-------x--5-----x--3s--|--5-------x--5-----x--0h--|
--------------------------|--------------------------|


          T        T                 T        T                               
  Q    E  E  E  E  E  E      Q    E  E  E  E  E  E     Q    E  E  Q    E  E   
--------------------------|-------------------------|------------------------|
--------------------------|-------------------------|------------------------|
-------4--------4--L------|-------4--------4--L-----|--2----2-----2-------2--|
-------4--------4--L------|-------4--------4--L-----|------------------4-----|
--2-------x--2-----x--0h--|--2-------x--2-----x--0--|------------------------|
--------------------------|-------------------------|--0-------0-------------|


       T                                      T             T           T      
  Q    E  E  E  E  E  E     E  E  E  E  E  E  E  E     Q    E  E  E  E  E  E   
-------------------0-----|--2--0--------------------|-------------------------|
-------------0--3-----3--|--------3-----------------|-------------------------|
--L-------2--------------|--------------------------|-------------------------|
-------x-----------------|-----------------0--x-----|-------x--------0--x-----|
-------------------------|--2--------2--L--2-----0--|--2-------2--L--2-----0--|
--0-------0--------------|--------------------------|-------------------------|


                                T                                      T      
  Q    E  E  Q    E  E     Q    E  E  E  E  E  E     E  E  E  E  E  E  E  E   
------------------------|-------------------0-----|--2--0--------------------|
------------------------|-------------0--3-----3--|--------3-----------------|
--2----2-----2-------2--|--L-------2--------------|--------------------------|
------------------4-----|-------x-----------------|-----------------0--x-----|
------------------------|-------------------------|--2--------2--L--2-----0--|
--0-------0-------------|--0-------0--------------|--------------------------|


       T                                                                     
             |----3----|                                                     
  Q    E  E  Q    Q    Q       Q    E  E  Q    Q       Q    E  E  Q    Q     
----------------------------|-----------------------|-----------------------|
-------------0----2----3----|------------------0----|-------0-----2---------|
----------------------------|--0----0-----2---------|--2---------------2----|
-------x--------------------|--0--------------------|--2--------------------|
--2-------2--L----0---------|-----------------------|--0-------0-------0----|
----------------------------|--5-------5------------|-----------------------|


       T                                                
  Q    E  E  E   E  E   E     E   E  E  E  E  E  E  E   
---------------------------|---------------------------|
--3----------3p--2---------|---------------------------|
--2-----------------4p--2--|--4p--2--------------------|
-------x-------------------|--4------4-----------4-----|
---------------------------|--2---------2--L--2-----0--|
--0-------0----------------|---------------------------|


                                                         T           T      
  Q    E  E  E  E  Q       Q    E  E  E  E  Q       Q    E  E  E  E  E  E   
------------------------|------------------------|-------------------------|
----------------0--L----|-------0-----2----------|--3----x--3--L--3--x--3--|
--0----0-----2----------|--2-------------2--L----|--2----x--2--L--2--x--2--|
--0---------------------|--2---------------------|--0----x--0--L--0--x--0--|
------------------------|--0-------0-----0-------|-------------------------|
--5-------5-------------|------------------------|--0----x--0--L--0--x--0--|


  T                                                        T                  
  E  E  E  E  E  E  E  E     Q    E  E  Q    E  E     Q    E  E  E  E  E  E   
--------------------------|------------------------|-------------------0-----|
--x-----------------------|------------------------|-------------0--3-----3--|
--x-----------------------|--2----2-----2-------2--|--L-------2--------------|
--x-----------------------|------------------4-----|-------------------------|
-----0--L--0--0--0--L--0--|------------------------|-------x-----------------|
--x-----------------------|--0-------0-------------|--0-------0--------------|


                    T             T           T                               
  E  E  E  E  E  E  E  E     Q    E  E  E  E  E  E     Q    E  E  Q    E  E   
--2--0--------------------|-------------------------|------------------------|
--------3-----------------|-------------------------|------------------------|
--------------------------|-------------------------|--2----2-----2-------2--|
-----------------0--------|----------------0--------|------------------4-----|
--2--------2--L--2--x--0--|--2----x--2--L--2--x--0--|------------------------|
--------------------------|-------------------------|--0-------0-------------|


       T                                      T      
  Q    E  E  E  E  E  E     E  E  E  E  E  E  E  E   
-------------------0-----|--2--0--------------------|
-------------0--3-----3--|--------3-----------------|
--L-------2--------------|--------------------------|
-------------------------|-----------------0--------|
-------x-----------------|--2--------2--L--2--x--0--|
--0-------0--------------|--------------------------|


       T                                                                     
             |----3----|                                                     
  Q    E  E  Q    Q    Q       Q    E  E  Q    Q       Q    E  E  Q    Q     
----------------------------|-----------------------|-----------------------|
-------------0----2----3----|------------------0----|-------0-----2---------|
----------------------------|--0----0-----2---------|--2---------------2----|
----------------------------|--0--------------------|--2--------------------|
--2----x--2--L----0---------|-----------------------|--0-------0-------0----|
----------------------------|--5-------5------------|-----------------------|


       T                                                
  Q    E  E  E   E  E   E     E   E  E  E  E  E  E  E   
---------------------------|---------------------------|
--3----------3p--2---------|---------------------------|
--2-----------------4p--2--|--4p--2--------------------|
-------x-------------------|--4------4-----------4-----|
---------------------------|--2---------2--L--2-----0--|
--0-------0----------------|---------------------------|


                                                         T           T       
  Q    E  E  E  E  Q       Q    E  E  E  E  Q       Q    E  E  E  E  E  E    
------------------------|------------------------|--------------------------|
----------------0--L----|-------0-----2----------|--3----x--------3--x------|
--0----0-----2----------|--2-------------2--L----|--2----x--------2--x------|
--0---------------------|--2---------------------|--0----x--------0--x------|
------------------------|--0-------0-----0-------|----------------------3s--|
--5-------5-------------|------------------------|--0----x--0--L-----x------|


          T        T        ^                                              
  Q    E  E  E  E  E  E     Q    Q    Q    Q       Q    E  E  E  E  E  E   
-------------------------|-----------------5----|--7----5--7--L--5--------|
-------------------------|------------7---------|-------------------7--5--|
-------7--------7--L-----|-------7--------------|-------------------------|
-------7--------7--L-----|--0-------------------|-------------------------|
--5-------x--5-----x--0--|--0-------------------|-------------------------|
-------------------------|--0-------------------|-------------------------|


  ^               T                 T        T                             
  Q    E  E  Q    E  E      Q    E  E  E  E  E  E     Q    Q    Q    Q     
-------------------------|-------------------------|-----------------0----|
--3----3-----3----x------|-------------------------|-------0----3---------|
--4-------4-------x------|-------4--------4--------|--0-------------------|
--4---------------x------|-------4--------4--------|--0-------------------|
--2---------------x--0h--|--2-------x--2-----x--0--|----------------------|
-------------------------|-------------------------|--5-------------------|


                                            |--3--|                             
  Q    E  Q    E  E  E     E  E  E  E  Q    E  E  E     E  E  E  E  Q    E  E   
--2----0--2----0-----0--|-----5----------------------|-------------------------|
------------------3-----|--7-----7--5-------0--2--0--|-------------------------|
------------------------|--6-----------6-------------|--2----------------------|
------------------------|----------------------------|-------------------------|
------------------------|--0-------------------------|--0--0-------------------|
------------------------|----------------------------|--------5--5--4----2--2--|


                                T                                      T      
  Q    E  E  Q    E  E     Q    E  E  E  E  E  E     E  E  E  E  E  E  E  E   
------------------------|-------------------0-----|--2--0--------------------|
------------------------|-------------0--3-----3--|--------3-----------------|
--2----2-----2-------2--|--L-------2--------------|--------------------------|
------------------4-----|-------------------------|-----------------0--------|
------------------------|-------x-----------------|--2--------2--L--2--x--0--|
--0-------0-------------|--0-------0--------------|--------------------------|


       T                                                                     
             |----3----|                                                     
  Q    E  E  Q    Q    Q       Q    E  E  Q    Q       Q    E  E  Q    Q     
----------------------------|-----------------------|-----------------------|
-------------0----2----3----|------------------0----|-------0-----2---------|
----------------------------|--0----0-----2---------|--2---------------2----|
----------------------------|--0--------------------|--2--------------------|
--2----x--2--L----0---------|-----------------------|--0-------0-------0----|
----------------------------|--5-------5------------|-----------------------|


       T          T             T          T                               
  Q    E  E  Q    E  E     Q    E  E  Q    E  E     Q    E  E  E  E  Q     
------------------------|------------------------|------------------------|
--3----x-----3----x--3--|--3----x-----3----x-----|----------------0--L----|
--2----x-----2----x--2--|--2----x-----2----x-----|--0----0-----2----------|
-------x--0-------x-----|-------x----------x-----|--0---------------------|
-------------4-------4--|--2-------2--0-------0--|------------------------|
--0---------------------|------------------------|--5-------5-------------|


                                     T        T       
  Q    E  E  E  E  E  E      Q    E  E  E  E  E  E    
--------------------------|--------------------------|
-------0-----2------------|--------------------------|
--2-------------2--L------|-------7--------7--L------|
--2-----------------------|-------7--------7--L------|
--0-------0-----0-----3s--|--5-------x--5-----x--3s--|
--------------------------|--------------------------|


          T        T                 T        T       
  Q    E  E  E  E  E  E      Q    E  E  E  E  E  E    
--------------------------|--------------------------|
--------------------------|--------------------------|
-------7--------7--L------|-------4--------4--L------|
-------7--------7--L------|-------4--------4--L------|
--5-------x--5-----x--0h--|--2-------x--2-----x--0h--|
--------------------------|--------------------------|


          T        T                 T        T       
  Q    E  E  E  E  E  E      Q    E  E  E  E  E  E    
--------------------------|--------------------------|
--------------------------|--------------------------|
-------4--------4--L------|-------7--------7--L------|
-------4--------4--L------|-------7--------7--L------|
--2-------x--2-----x--3s--|--5-------x--5-----x--3s--|
--------------------------|--------------------------|

                             Rall...
          T        T                 T        T                                 
  Q    E  E  E  E  E  E      Q    E  E  E  E  E  E      Q    E  E  E  E  E  E   
--------------------------|--------------------------|-------------------------|
--------------------------|--------------------------|-------------------------|
-------7--------7--L------|-------4--------4--L------|-------4-----------------|
-------7--------7--L------|-------4--------4--L------|-------4-----------------|
--5-------x--5-----x--0h--|--2-------x--2-----x--0h--|--2-------2--2--0--2--4--|
--------------------------|--------------------------|-------------------------|


  ^                  
  W                  
--2----------------||
--3----------------||
--2----------------||
--0----------------||
--0----------------||
--0----------------||




Duration Legend
---------------
W - whole
H - half
Q - quarter
E - 8th
S - 16th
T - 32nd
X - 64th
. - note dotted
|-n-|  - n-tuplets


Tablature Legend
----------------
L - tied note
x - dead note
(n) - ghost note
> - accentuded note
h - hammer on
p - pull off
s - legato slide
T - tapping
^ - brush up
Rall. - Gradually slow down
comments
We did not receive enough feedback on this tab! Please rate:
print report bad tab
1 2 3 4 5
I want to post or [tab]
guest
You may want to rate the tab now too:
select rating
Please do not post tabs as comments. Select "correction" instead!