Oops, an error
Loading. Please wait.

Lord Of The Rings - Shire Theme Tab

ver1
ver1

Whole song

Interactive

More versions @911Tabs.com
22,591 views 249 this week
1 commentread comment
1 2 3 4 5
accurate
x 20
Autoscroll
+/-
esc
set tempo
stop
Contributor
Difficulty
novice
Hey! There's an official Ultimate Guitar app which is ideal
for learning songs when you're away from computer. Get the app
WARNING: You are trying to view
                                    content from Ultimate-Guitar.com
                                    in an unauthorized application,
                                    which is prohibited.

                                    Please use an official Ultimate
                                    Guitar Tabs application for iPhone,
                                    iPad or Android to access legitimate
                                    chords, guitar, bass, and drum tabs
                                    from Ultimate-Guitar.com database.

                                    Type "ultimate guitar tabs" in Apple
                                    App Store's or Android Market's
                                    search to find the application.
e|---------------------------------------------3--2--------------------------|
B|-------------3-------------------------3--5--------3-----------------------|
G|----0--2--4-----4--2--4--2--0-------4-----------------4--5--4--2-----------|
D|---------------------------------------------------------------------------|
A|---------------------------------------------------------------------------|
E|---------------------------------------------------------------------------|


e|---------------------------------------------------------------------------|
B|-------------3-------------------------3--5--3-----------------------------|
G|----0--2--4-----4--2--4--2--0-------4-----------4--5--4--2----0------------|
D|---------------------------------------------------------------------------|
A|---------------------------------------------------------------------------|
E|---------------------------------------------------------------------------|

First tab, it's pretty simple, enjoy.
comments
print report bad tab
1 comment total.
+5 reply
Tommygun666 wrote on March 31 2012, 05:17 am

First thanks for your nice tabs, it sounds better than all the others on this website! i think that there is only one little mistake:
e------------------------------
B-------------3----------------
G---0--2--4------4--2--0-------
D------------------------------
A------------------------------
E------------------------------
and the rest sounds very correct =)

I want to post or [tab]
guest
You may want to rate the tab now too:
select rating
Please do not post tabs as comments. Select "correction" instead!