Oops, an error
Loading. Please wait.

420 Proof - Heres Your Proof Bass Tab

2,222 views 15 this week
no commentswrite comment
1 2 3 4 5
excellent!
x 3
add to favorites launch autoscroll
font size
0
reset
Autoscroll
+/-
esc
set tempo
stop
Contributor
WARNING: You are trying to view
                                    content from Ultimate-Guitar.com
                                    in an unauthorized application,
                                    which is prohibited.

                                    Please use an official Ultimate
                                    Guitar Tabs application for iPhone,
                                    iPad or Android to access legitimate
                                    chords, guitar, bass, and drum tabs
                                    from Ultimate-Guitar.com database.

                                    Type "ultimate guitar tabs" in Apple
                                    App Store's or Android Market's
                                    search to find the application.
==========Black Xmas==========

F||-------|-------|-------|-------|-------|-------|-------|-------|-------|
C||-------|-------|-------|-------|-------|-------|-------|-------|-------|
G||-------|-------|-------|-------|-------|-------|-------|-------|-------|
C||-------|-------|-------|-------|-------|-------|-------|-------|-------|


-------|-------|-------|-------|-------|-------|-------|
-------|-------|-------|-------|-------|-------|-------|
-------|-------|-------|-------|-------|-------|-------|
-------|-------|-------|-------|-------|-------|-------|


  Q    E  E  Q    E  H           E  E  E  E  E  E  E  E   
------------------------------|--------------------------|
------------------------------|--------------------------|
------------------------------|--------------------------|
--3----3--5--7----5--0--------|--------2--2--2--2--2--2--|


  Q    E  E  Q    E  H           E  E  E  E  E  E  E  E   
------------------------------|--------------------------|
------------------------------|--------------------------|
------------------------------|--------------------------|
--3----3--5--7----5--0--------|--------2--2--2--2--2--2--|


  Q    E  E  Q    E  H           E  E  E  E  E  E  E  E   
------------------------------|--------------------------|
------------------------------|--------------------------|
------------------------------|--------------------------|
--3----3--5--7----5--0--------|--------2--2--2--2--2--2--|


  Q    E  E  Q    E  H           E  E  E  E  E  E  E  E   
------------------------------|--------------------------|
------------------------------|--------------------------|
------------------------------|--------------------------|
--3----3--5--7----5--0--------|--------2--2--2--2--2--2--|


  Q    E  E  Q    E  H           E  E  E  E  E  E  E  E   
------------------------------|--------------------------|
------------------------------|--------------------------|
------------------------------|--------------------------|
--3----3--5--7----5--0--------|--------2--2--2--2--2--2--|


  Q    E  E  Q    E  H           E  E  E  E  E  E  E  E   
------------------------------|--------------------------|
------------------------------|--------------------------|
------------------------------|--------------------------|
--3----3--5--7----5--0--------|--------2--2--2--2--2--2--|


  Q    E  E  Q    E  H           E  E  E  E  E  E  E  E   
------------------------------|--------------------------|
------------------------------|--------------------------|
------------------------------|--------------------------|
--3----3--5--7----5--0--------|--------2--2--2--2--2--2--|


  Q    E  E  Q    E  H           E  E  E  E  E  E  E  E   
------------------------------|--------------------------|
------------------------------|--------------------------|
------------------------------|--------------------------|
--3----3--5--7----5--0--------|--------7--7--7--7--7--7--|


  E  E  E  E  E  E  E  E     E  E  E  E  E  E  E  E   
--------------------------|--------------------------|
--------------------------|--------------------------|
--------------------------|--------------------------|
--1--0--0--0--1--0--0--0--|--3--0--0--0--3--0--2--0--|


  E  E  E  E  E  E  E  E     E  E  E  E  E  E  E  E   
--------------------------|--------------------------|
--------------------------|--------------------------|
--------------------------|--------------------------|
--1--0--0--0--1--0--0--0--|--3--0--0--0--3--0--2--0--|


  E  E  E  E  E  E  E  E     E  E  E  E  E  E  E  E   
--------------------------|--------------------------|
--------------------------|--------------------------|
--------------------------|--------------------------|
--1--0--0--0--1--0--0--0--|--3--0--0--0--3--0--2--0--|


  E  E  E  E  E  E  E  E     E  E  E  E  E  E  E  E     Q    E  E  Q    E  E   
--------------------------|--------------------------|------------------------|
--------------------------|--------------------------|------------------------|
--------------------------|--------------------------|------------------------|
--1--0--0--0--1--0--0--0--|--3--0--0--0--3--0--2--0--|--3----3--5--7----5--0--|


  E  E     Q    E  E  Q    E  E     E  E     Q    E  E  Q    E  E     E  E   
--------|------------------------|--------|------------------------|--------|
--------|------------------------|--------|------------------------|--------|
--------|------------------------|--------|------------------------|--------|
--------|--3----3--5--7----5--0--|--------|--3----3--5--7----5--0--|--------|


  Q    E  E  Q    E  E     E  E     Q    E  E  Q    E  H         
------------------------|--------|------------------------------|
------------------------|--------|------------------------------|
------------------------|--------|------------------------------|
--3----3--5--7----5--0--|--------|--3----3--5--7----5--0--------|


  E  E  E  E  E  E  E  E     Q    E  E  Q    E  H         
--------------------------|------------------------------|
--------------------------|------------------------------|
--------------------------|------------------------------|
--------2--2--2--2--2--2--|--3----3--5--7----5--0--------|


  E  E  E  E  E  E  E  E     Q    E  E  Q    E  H         
--------------------------|------------------------------|
--------------------------|------------------------------|
--------------------------|------------------------------|
--------2--2--2--2--2--2--|--3----3--5--7----5--0--------|


  E  E  E  E  E  E  E  E     Q    E  E  Q    E  H         
--------------------------|------------------------------|
--------------------------|------------------------------|
--------------------------|------------------------------|
--------2--2--2--2--2--2--|--3----3--5--7----5--0--------|


  E  E  E  E  E  E  E  E     Q    E  E  Q    E  H         
--------------------------|------------------------------|
--------------------------|------------------------------|
--------------------------|------------------------------|
--------2--2--2--2--2--2--|--3----3--5--7----5--0--------|


  E  E  E  E  E  E  E  E     Q    E  E  Q    E  H         
--------------------------|------------------------------|
--------------------------|------------------------------|
--------------------------|------------------------------|
--------2--2--2--2--2--2--|--3----3--5--7----5--0--------|


  E  E  E  E  E  E  E  E     Q    E  E  Q    E  H         
--------------------------|------------------------------|
--------------------------|------------------------------|
--------------------------|------------------------------|
--------2--2--2--2--2--2--|--3----3--5--7----5--0--------|


  E  E  E  E  E  E  E  E     Q    E  E  Q    E  H         
--------------------------|------------------------------|
--------------------------|------------------------------|
--------------------------|------------------------------|
--------2--2--2--2--2--2--|--3----3--5--7----5--0--------|


  E  E  E  E  E  E  E  E     E  E  E  E  E  E  E  E   
--------------------------|--------------------------|
--------------------------|--------------------------|
--------------------------|--------------------------|
--------7--7--7--7--7--7--|--3--0--0--3--0--0--3--0--|


  E  E  E  E  E  E  E  E     E  E  E  E  E  E  E  E   
--------------------------|--------------------------|
--------------------------|--------------------------|
--------------------------|--------------------------|
--0--3--0--0--3--0--3--0--|--2--0--0--2--0--0--2--0--|


  E  E  E  E  E  E  E  E     E  E  E  E  E  E  E  E   
--------------------------|--------------------------|
--------------------------|--------------------------|
--------------------------|--------------------------|
--0--2--0--0--1--0--1--0--|--3--0--0--3--0--0--3--0--|


  E  E  E  E  E  E  E  E     E  E  E  E  E  E  E  E   
--------------------------|--------------------------|
--------------------------|--------------------------|
--------------------------|--------------------------|
--0--3--0--0--3--0--3--0--|--2--0--0--2--0--0--2--0--|


  E  E  E  E  E  E  E  E     E  E  E  E  E  E  E  E   
--------------------------|--------------------------|
--------------------------|--------------------------|
--------------------------|--------------------------|
--0--2--0--0--1--0--1--0--|--3--0--0--3--0--0--3--0--|


  E  E  E  E  E  E  E  E     E  E  E  E  E  E  E  E   
--------------------------|--------------------------|
--------------------------|--------------------------|
--------------------------|--------------------------|
--0--3--0--0--3--0--3--0--|--2--0--0--2--0--0--2--0--|


  E  E  E  E  E  E  E  E     E  E  E  E  E  E  E  E   
--------------------------|--------------------------|
--------------------------|--------------------------|
--------------------------|--------------------------|
--0--2--0--0--1--0--1--0--|--3--0--0--3--0--0--3--0--|


  E  E  E  E  E  E  E  E     E  E  E  E  E  E  E  E   
--------------------------|--------------------------|
--------------------------|--------------------------|
--------------------------|--------------------------|
--0--3--0--0--3--0--3--0--|--2--0--0--2--0--0--2--0--|


  E  E  E  E  E  E  E  E     E  E  E  E  E  E  E  E   
--------------------------|--------------------------|
--------------------------|--------------------------|
--------------------------|--------------------------|
--0--2--0--0--1--0--1--0--|--3--0--0--3--0--0--3--0--|


  E  E  E  E  E  E  E  E     E  E  E  E  E  E  E  E   
--------------------------|--------------------------|
--------------------------|--------------------------|
--------------------------|--------------------------|
--0--3--0--0--3--0--3--0--|--2--0--0--2--0--0--2--0--|


  E  E  E  E  E  E  E  E     E  E  E  E  E  E  E  E   
--------------------------|--------------------------|
--------------------------|--------------------------|
--------------------------|--------------------------|
--0--2--0--0--1--0--1--0--|--3--0--0--3--0--0--3--0--|


  E  E  E  E  E  E  E  E     E  E  E  E  E  E  E  E   
--------------------------|--------------------------|
--------------------------|--------------------------|
--------------------------|--------------------------|
--0--3--0--0--3--0--3--0--|--2--0--0--2--0--0--2--0--|


  E  E  E  E  E  E  E  E     E  E  E  E  E  E  E  E   
--------------------------|--------------------------|
--------------------------|--------------------------|
--------------------------|--------------------------|
--0--2--0--0--1--0--1--0--|--3--0--0--3--0--0--3--0--|


  E  E  E  E  E  E  E  E     E  E  E  E  E  E  E  E   
--------------------------|--------------------------|
--------------------------|--------------------------|
--------------------------|--------------------------|
--0--3--0--0--3--0--3--0--|--2--0--0--2--0--0--2--0--|


  E  E  E  E  E  E  E  E     E  E  E  E  E  E  E  E   
--------------------------|--------------------------|
--------------------------|--------------------------|
--------------------------|--------------------------|
--0--2--0--0--1--0--1--0--|--3--0--0--3--0--0--3--0--|


  E  E  E  E  E  E  E  E     E  E  E  E  E  E  E  E   
--------------------------|--------------------------|
--------------------------|--------------------------|
--------------------------|--------------------------|
--0--3--0--0--3--0--3--0--|--2--0--0--2--0--0--2--0--|


  E  E  E  E  E  E  E  E     W                   W                 
--------------------------|-------------------|-------------------|
--------------------------|-------------------|-------------------|
--------------------------|--0----------------|--2----------------|
--0--2--0--0--1--0--1--0--|--0----------------|--2----------------|


  W                   W                   W                   W                 
-------------------|-------------------|-------------------|-------------------|
-------------------|-------------------|-------------------|-------------------|
--0----------------|--2----------------|--0----------------|--2----------------|
--0----------------|--2----------------|--0----------------|--2----------------|


  W                   W                   Q    E  E  Q    E  H         
-------------------|-------------------|------------------------------|
-------------------|-------------------|------------------------------|
--0----------------|--2----------------|------------------------------|
--0----------------|--2----------------|--3----3--5--7----5--0--------|


  E  E  E  E  E  E  E  E     Q    E  E  Q    E  H         
--------------------------|------------------------------|
--------------------------|------------------------------|
--------------------------|------------------------------|
--------2--2--2--2--2--2--|--3----3--5--7----5--0--------|


  E  E  E  E  E  E  E  E     Q    E  E  Q    E  H         
--------------------------|------------------------------|
--------------------------|------------------------------|
--------------------------|------------------------------|
--------2--2--2--2--2--2--|--3----3--5--7----5--0--------|


  E  E  E  E  E  E  E  E     Q    E  E  Q    E  H         
--------------------------|------------------------------|
--------------------------|------------------------------|
--------------------------|------------------------------|
--------2--2--2--2--2--2--|--3----3--5--7----5--0--------|


  E  E  E  E  E  E  E  E     Q    E  E  Q    E  H         
--------------------------|------------------------------|
--------------------------|------------------------------|
--------------------------|------------------------------|
--------2--2--2--2--2--2--|--3----3--5--7----5--0--------|


  E  E  E  E  E  E  E  E     Q    E  E  Q    E  H         
--------------------------|------------------------------|
--------------------------|------------------------------|
--------------------------|------------------------------|
--------2--2--2--2--2--2--|--3----3--5--7----5--0--------|


  E  E  E  E  E  E  E  E     Q    E  E  Q    E  H         
--------------------------|------------------------------|
--------------------------|------------------------------|
--------------------------|------------------------------|
--------2--2--2--2--2--2--|--3----3--5--7----5--0--------|


  E  E  E  E  E  E  E  E     Q    E  E  Q    E  H         
--------------------------|------------------------------|
--------------------------|------------------------------|
--------------------------|------------------------------|
--------2--2--2--2--2--2--|--3----3--5--7----5--0--------|


  E  E  E  E  E  E  E  E     E  E  E  E  E  E  E  E     W                  
--------------------------|--------------------------|-------------------||
--------------------------|--------------------------|-------------------||
--------------------------|--------------------------|--0----------------||
--------7--7--7--7--7--7--|--------7--7--7--7--7--7--|--0----------------||

==========Who Am I?==========

F||--------------------------|------------------------|
C||--------------------------|------------------------|
G||--------------------------|------------------------|
C||--0----3--5--6----0--3----|-----0--3--5--8----8----|


  Q    E  E  Q    E  Q       E  E  E  E  Q    Q       Q    E  E  Q    E  Q     
--------------------------|------------------------|--------------------------|
--------------------------|------------------------|--------------------------|
--------------------------|------------------------|--------------------------|
--0----3--5--6----0--3----|-----0--3--5--8----8----|--0----3--5--6----0--3----|


  E  E  E  E  Q    Q       Q    E  E  Q    E  Q       E  E  E  E  Q    Q     
------------------------|--------------------------|------------------------|
------------------------|--------------------------|------------------------|
------------------------|--------------------------|------------------------|
-----0--3--5--8----8----|--0----3--5--6----0--3----|-----0--3--5--5----5----|


  Q    E  E  Q    E  Q       E  E  E  E  Q    Q       Q    E  E  Q    E  Q     
--------------------------|------------------------|--------------------------|
--------------------------|------------------------|--------------------------|
--------------------------|------------------------|--------------------------|
--0----3--5--6----0--3----|-----0--3--5--8----8----|--0----3--5--6----0--3----|


  E  E  E  E  Q    Q       Q    E  E  Q    E  Q       E  E  E  E  Q    Q     
------------------------|--------------------------|------------------------|
------------------------|--------------------------|------------------------|
------------------------|--------------------------|------------------------|
-----0--3--5--8----8----|--0----3--5--6----0--3----|-----0--3--5--8----8----|


  Q    E  E  Q    E  Q       E  E  E  E  Q    Q                             
--------------------------|------------------------|-------|-------|-------|
--------------------------|------------------------|-------|-------|-------|
--------------------------|------------------------|-------|-------|-------|
--0----3--5--6----0--3----|-----0--3--5--5----5----|-------|-------|-------|


-------|-------|-------|-------|-------|-------|-------|-------|-------|-------|
-------|-------|-------|-------|-------|-------|-------|-------|-------|-------|
-------|-------|-------|-------|-------|-------|-------|-------|-------|-------|
-------|-------|-------|-------|-------|-------|-------|-------|-------|-------|


-------|-------|-------|-------|-------|-------|-------|-------|-------|-------|
-------|-------|-------|-------|-------|-------|-------|-------|-------|-------|
-------|-------|-------|-------|-------|-------|-------|-------|-------|-------|
-------|-------|-------|-------|-------|-------|-------|-------|-------|-------|


-------|-------|-------|-------|-------|-------|-------|-------|-------|
-------|-------|-------|-------|-------|-------|-------|-------|-------|
-------|-------|-------|-------|-------|-------|-------|-------|-------|
-------|-------|-------|-------|-------|-------|-------|-------|-------|


  E  E  E  E  E  E  E  E     E  E  E  E  E  E  E  E   
--------------------------|--------------------------|
--------------------------|--------------------------|
--2--2--2--2--2--2--2--2--|--------------------------|
--------------------------|--3--3--3--3--2--5--2--0--|


  E  E  E  E  E  E  E  E     E  E  E  E  E  E  E  E   
--------------------------|--------------------------|
--------------------------|--------------------------|
--------------------------|--------------------------|
--7--7--7--7--7--7--7--7--|--5--5--5--5--5--5--5--5--|


  E  E  E  E  E  E  E  E     E  E  E  E  E  E  E  E   
--------------------------|--------------------------|
--------------------------|--------------------------|
--2--2--2--2--2--2--2--2--|--------------------------|
--------------------------|--3--3--3--3--2--5--2--0--|


  E  E  E  E  E  E  E  E     E  E  E  E  E  E  E  E   
--------------------------|--------------------------|
--------------------------|--------------------------|
--------------------------|--------------------------|
--7--7--7--7--7--7--7--7--|--5--5--5--5--5--5--5--5--|


  E  E  E  E  E  E  E  E     E  E  E  E  E  E  E  E   
--------------------------|--------------------------|
--------------------------|--------------------------|
--2--2--2--2--2--2--2--2--|--------------------------|
--------------------------|--3--3--3--3--2--5--2--0--|


  E  E  E  E  E  E  E  E     E  E  E  E  E  E  E  E   
--------------------------|--------------------------|
--------------------------|--------------------------|
--------------------------|--------------------------|
--7--7--7--7--7--7--7--7--|--5--5--5--5--5--5--5--5--|


  E  E  E  E  E  E  E  E     E  E  E  E  E  E  E  E   
--------------------------|--------------------------|
--------------------------|--------------------------|
--2--2--2--2--2--2--2--2--|--------------------------|
--------------------------|--3--3--3--3--2--5--2--0--|


  E  E  E  E  E  E  E  E     E  E  E  E  E  E  E  E   
--------------------------|--------------------------|
--------------------------|--------------------------|
--------------------------|--------------------------|
--7--7--7--7--7--7--7--7--|--5--5--5--5--5--5--5--5--|


  Q    E  E  Q    E  Q       E  E  E  E  Q    Q       Q    E  E  Q    E  Q     
--------------------------|------------------------|--------------------------|
--------------------------|------------------------|--------------------------|
--------------------------|------------------------|--------------------------|
--0----3--5--6----0--3----|-----0--3--5--8----8----|--0----3--5--6----0--3----|


  E  E  E  E  Q    Q       Q    E  E  Q    E  Q       E  E  E  E  Q    Q     
------------------------|--------------------------|------------------------|
------------------------|--------------------------|------------------------|
------------------------|--------------------------|------------------------|
-----0--3--5--8----8----|--0----3--5--6----0--3----|-----0--3--5--8----8----|


  Q    E  E  Q    E  Q       E  E  E  E  Q    Q                             
--------------------------|------------------------|-------|-------|-------|
--------------------------|------------------------|-------|-------|-------|
--------------------------|------------------------|-------|-------|-------|
--0----3--5--6----0--3----|-----0--3--5--5----5----|-------|-------|-------|


-------|-------|-------|-------|-------|-------|-------|-------|-------|-------|
-------|-------|-------|-------|-------|-------|-------|-------|-------|-------|
-------|-------|-------|-------|-------|-------|-------|-------|-------|-------|
-------|-------|-------|-------|-------|-------|-------|-------|-------|-------|


-------|-------|-------|-------|-------|-------|-------|-------|-------|-------|
-------|-------|-------|-------|-------|-------|-------|-------|-------|-------|
-------|-------|-------|-------|-------|-------|-------|-------|-------|-------|
-------|-------|-------|-------|-------|-------|-------|-------|-------|-------|


                                          E  E  E  E  E  E  E  E   
-------|-------|-------|-------|-------|--------------------------|
-------|-------|-------|-------|-------|--------------------------|
-------|-------|-------|-------|-------|--2--2--2--2--2--2--2--2--|
-------|-------|-------|-------|-------|--------------------------|


  E  E  E  E  E  E  E  E     E  E  E  E  E  E  E  E   
--------------------------|--------------------------|
--------------------------|--------------------------|
--------------------------|--------------------------|
--3--3--3--3--2--5--2--0--|--7--7--7--7--7--7--7--7--|


  E  E  E  E  E  E  E  E     E  E  E  E  E  E  E  E   
--------------------------|--------------------------|
--------------------------|--------------------------|
--------------------------|--2--2--2--2--2--2--2--2--|
--5--5--5--5--5--5--5--5--|--------------------------|


  E  E  E  E  E  E  E  E     E  E  E  E  E  E  E  E   
--------------------------|--------------------------|
--------------------------|--------------------------|
--------------------------|--------------------------|
--3--3--3--3--2--5--2--0--|--7--7--7--7--7--7--7--7--|


  E  E  E  E  E  E  E  E     E  E  E  E  E  E  E  E   
--------------------------|--------------------------|
--------------------------|--------------------------|
--------------------------|--2--2--2--2--2--2--2--2--|
--5--5--5--5--5--5--5--5--|--------------------------|


  E  E  E  E  E  E  E  E     E  E  E  E  E  E  E  E   
--------------------------|--------------------------|
--------------------------|--------------------------|
--------------------------|--------------------------|
--3--3--3--3--2--5--2--0--|--7--7--7--7--7--7--7--7--|


  E  E  E  E  E  E  E  E     E  E  E  E  E  E  E  E   
--------------------------|--------------------------|
--------------------------|--------------------------|
--------------------------|--2--2--2--2--2--2--2--2--|
--5--5--5--5--5--5--5--5--|--------------------------|


  E  E  E  E  E  E  E  E     E  E  E  E  E  E  E  E   
--------------------------|--------------------------|
--------------------------|--------------------------|
--------------------------|--------------------------|
--3--3--3--3--2--5--2--0--|--7--7--7--7--7--7--7--7--|


  E  E  E  E  E  E  E  E     W                                     
--------------------------|-------------------|-------------------|
--------------------------|-------------------|-------------------|
--------------------------|--0----------------|-------------------|
--5--5--5--5--5--5--5--5--|--0----------------|-------------------|


  W                                       W                                     
-------------------|-------------------|-------------------|-------------------|
-------------------|-------------------|-------------------|-------------------|
--0----------------|-------------------|--0----------------|-------------------|
--0----------------|-------------------|--0----------------|-------------------|


  W                   E  E  E  E  E  E  E  E     E  E  E  E  E  E  E  E   
-------------------|--------------------------|--------------------------|
-------------------|--------------------------|--------------------------|
--0----------------|--------------------------|--2--2--2--2--2--2--2--2--|
--0----------------|--------0--0--0--0--0--0--|--------------------------|


  E  E  E  E  E  E  E  E     E  E  E  E  E  E  E  E   
--------------------------|--------------------------|
--------------------------|--------------------------|
--------------------------|--------------------------|
--3--3--3--3--2--5--2--0--|--7--7--7--7--7--7--7--7--|


  E  E  E  E  E  E  E  E     E  E  E  E  E  E  E  E   
--------------------------|--------------------------|
--------------------------|--------------------------|
--------------------------|--2--2--2--2--2--2--2--2--|
--5--5--5--5--5--5--5--5--|--------------------------|


  E  E  E  E  E  E  E  E     E  E  E  E  E  E  E  E   
--------------------------|--------------------------|
--------------------------|--------------------------|
--------------------------|--------------------------|
--3--3--3--3--2--5--2--0--|--7--7--7--7--7--7--7--7--|


  E  E  E  E  E  E  E  E     E  E  E  E  E  E  E  E   
--------------------------|--------------------------|
--------------------------|--------------------------|
--------------------------|--------------------------|
--5--5--5--5--5--5--5--5--|--2--2--2--2--1--1--1--1--|


  E  E  E  E  E  E  E  E     E  E  E  E  E  E  E  E   
--------------------------|--------------------------|
--------------------------|--------------------------|
--------------------------|--------------------------|
--2--2--2--2--1--1--1--1--|--2--2--2--2--1--1--1--1--|


  E  E  E  E  E  E  E  E     E  E  E  E  E  E  E  E   
--------------------------|--------------------------|
--------------------------|--------------------------|
--------------------------|--------------------------|
--2--2--2--2--1--1--1--1--|--2--2--2--2--1--1--1--1--|


  E  E  E  E  E  E  E  E     E  E  E  E  E  E  E  E   
--------------------------|--------------------------|
--------------------------|--------------------------|
--------------------------|--------------------------|
--2--2--2--2--1--1--1--1--|--2--2--2--2--1--1--1--1--|


  E  E  E  E  E  E  E  E     E  E  E  E  E  E  E  E   
--------------------------|--------------------------|
--------------------------|--------------------------|
--------------------------|--------------------------|
--2--2--2--2--1--1--1--1--|--2--2--2--2--1--1--1--1--|


  E  E  E  E  E  E  E  E     E  E  E  E  E  E  E  E   
--------------------------|--------------------------|
--------------------------|--------------------------|
--------------------------|--------------------------|
--2--2--2--2--1--1--1--1--|--2--2--2--2--1--1--1--1--|


  E  E  E  E  E  E  E  E     E  E  E  E  E  E  E  E   
--------------------------|--------------------------|
--------------------------|--------------------------|
--------------------------|--------------------------|
--2--2--2--2--1--1--1--1--|--2--2--2--2--1--1--1--1--|


  E  E  E  E  E  E  E  E     E  E  E  E  E  E  E  E   
--------------------------|--------------------------|
--------------------------|--------------------------|
--------------------------|--------------------------|
--2--2--2--2--1--1--1--1--|--2--2--2--2--1--1--1--1--|


  E  E  E  E  E  E  E  E     E  E  E  E  E  E  E  E   
--------------------------|--------------------------|
--------------------------|--------------------------|
--------------------------|--------------------------|
--2--2--2--2--1--1--1--1--|--2--2--2--2--1--1--1--1--|


  E  E  E  E  E  E  E  E     E  E  E  E  E  E  E  E   
--------------------------|--------------------------|
--------------------------|--------------------------|
--------------------------|--------------------------|
--2--2--2--2--1--1--1--1--|--2--2--2--2--1--1--1--1--|


  E  E  E  E  E  E  E  E     E  E  E  E  E  E  E  E   
--------------------------|--------------------------|
--------------------------|--------------------------|
--------------------------|--------------------------|
--2--2--2--2--1--1--1--1--|--2--2--2--2--1--1--1--1--|


  E  E  E  E  E  E  E  E     E  E  E  E  E  E  E  E   
--------------------------|--------------------------|
--------------------------|--------------------------|
--------------------------|--------------------------|
--2--2--2--2--1--1--1--1--|--2--2--2--2--1--1--1--1--|


  E  E  E  E  E  E  E  E     E  E  E  E  E  E  E  E   
--------------------------|--------------------------|
--------------------------|--------------------------|
--------------------------|--------------------------|
--2--2--2--2--1--1--1--1--|--2--2--2--2--1--1--1--1--|


  E  E  E  E  E  E  E  E     E  E  E  E  E  E  E  E   
--------------------------|--------------------------|
--------------------------|--------------------------|
--------------------------|--------------------------|
--2--2--2--2--1--1--1--1--|--2--2--2--2--1--1--1--1--|


  E  E  E  E  E  E  E  E     E  E  E  E  E  E  E  E   
--------------------------|--------------------------|
--------------------------|--------------------------|
--------------------------|--------------------------|
--2--2--2--2--1--1--1--1--|--2--2--2--2--1--1--1--1--|


  E  E  E  E  E  E  E  E     E  E  E  E  E  E  E  E   
--------------------------|--------------------------|
--------------------------|--------------------------|
--------------------------|--------------------------|
--2--2--2--2--1--1--1--1--|--2--2--2--2--1--1--1--1--|


  E  E  E  E  E  E  E  E     E  E  E  E  E  E  E  E   
--------------------------|--------------------------|
--------------------------|--------------------------|
--------------------------|--------------------------|
--2--2--2--2--1--1--1--1--|--2--2--2--2--1--1--1--1--|


  E  E  E  E  E  E  E  E     W                                               
--------------------------|-------------------|-----|-----|-----|-----|-----|
--------------------------|-------------------|-----|-----|-----|-----|-----|
--------------------------|-------------------|-----|-----|-----|-----|-----|
--2--2--2--2--1--1--1--1--|--2----------------|-----|-----|-----|-----|-----|


-----|-----|-----|-----|-----|-----|-----|-----|-----|-----|-----|-----|
-----|-----|-----|-----|-----|-----|-----|-----|-----|-----|-----|-----|
-----|-----|-----|-----|-----|-----|-----|-----|-----|-----|-----|-----|
-----|-----|-----|-----|-----|-----|-----|-----|-----|-----|-----|-----|


  E  E  E  E  E  E  E  E     E  E  E  E  E  E  E  E   
--------------------------|--------------------------|
--------------------------|--------------------------|
--2--2--2--2--2--2--2--2--|--------------------------|
--------------------------|--3--3--3--3--2--5--2--0--|


  E  E  E  E  E  E  E  E     E  E  E  E  E  E  E  E   
--------------------------|--------------------------|
--------------------------|--------------------------|
--------------------------|--------------------------|
--7--7--7--7--7--7--7--7--|--5--5--5--5--5--5--5--5--|


  E  E  E  E  E  E  E  E     E  E  E  E  E  E  E  E   
--------------------------|--------------------------|
--------------------------|--------------------------|
--2--2--2--2--2--2--2--2--|--------------------------|
--------------------------|--3--3--3--3--2--5--2--0--|


  E  E  E  E  E  E  E  E     E  E  E  E  E  E  E  E   
--------------------------|--------------------------|
--------------------------|--------------------------|
--------------------------|--------------------------|
--7--7--7--7--7--7--7--7--|--5--5--5--5--5--5--5--5--|


  E  E  E  E  E  E  E  E     E  E  E  E  E  E  E  E   
--------------------------|--------------------------|
--------------------------|--------------------------|
--2--2--2--2--2--2--2--2--|--------------------------|
--------------------------|--3--3--3--3--2--5--2--0--|


  E  E  E  E  E  E  E  E     E  E  E  E  E  E  E  E   
--------------------------|--------------------------|
--------------------------|--------------------------|
--------------------------|--------------------------|
--7--7--7--7--7--7--7--7--|--5--5--5--5--5--5--5--5--|


  E  E  E  E  E  E  E  E     E  E  E  E  E  E  E  E   
--------------------------|--------------------------|
--------------------------|--------------------------|
--2--2--2--2--2--2--2--2--|--------------------------|
--------------------------|--3--3--3--3--2--5--2--0--|


  E  E  E  E  E  E  E  E     E  E  E  E  E  E  E  E   
--------------------------|--------------------------|
--------------------------|--------------------------|
--------------------------|--------------------------|
--7--7--7--7--7--7--7--7--|--5--5--5--5--5--5--5--5--|


  Q    E  E  Q    E  Q       E  E  E  E  Q    Q       Q    E  E  Q    E  Q     
--------------------------|------------------------|--------------------------|
--------------------------|------------------------|--------------------------|
--------------------------|------------------------|--------------------------|
--0----3--5--6----0--3----|-----0--3--5--8----8----|--0----3--5--6----0--3----|


  E  E  E  E  Q    Q       Q    E  E  Q    E  Q       E  E  E  E  Q    Q     
------------------------|--------------------------|------------------------|
------------------------|--------------------------|------------------------|
------------------------|--------------------------|------------------------|
-----0--3--5--8----8----|--0----3--5--6----0--3----|-----0--3--5--8----8----|


  Q    E  E  Q    E  Q       E  E  E  E  Q    Q      
--------------------------|------------------------||
--------------------------|------------------------||
--------------------------|------------------------||
--0----3--5--6----0--3----|-----0--3--5--5----5----||

==========Live To Die==========

                  S S S S S S S S S S S S S S S S  
F||----|-------|----------------------------------|
C||----|-------|----------------------------------|
G||----|-------|----------------------------------|
C||----|-------|--2-2-4-4-2-2-4-4-2-2-4-4-3-3-0-0-|


  S S S S S S S S S S S S S S S S    S S S S S S S S S S S S S S S S  
----------------------------------|----------------------------------|
----------------------------------|----------------------------------|
----------------------------------|----------------------------------|
--2-2-4-4-2-2-4-4-2-2-4-4-3-3-0-0-|--2-2-4-4-2-2-4-4-2-2-4-4-3-3-0-0-|


  S S S S S S S S S S S S S S S S    S S S S S S S S S S S S S S S S  
----------------------------------|----------------------------------|
----------------------------------|----------------------------------|
----------------------------------|----------------------------------|
--2-2-4-4-2-2-4-4-2-2-4-4-3-3-0-0-|--2-2-4-4-2-2-4-4-2-2-4-4-3-3-0-0-|


  S S S S S S S S S S S S S S S S    S S S S S S S S S S S S S S S S  
----------------------------------|----------------------------------|
----------------------------------|----------------------------------|
----------------------------------|----------------------------------|
--2-2-4-4-2-2-4-4-2-2-4-4-3-3-0-0-|--2-2-4-4-2-2-4-4-2-2-4-4-3-3-0-0-|


  S S S S S S S S S S S S S S S S    S S S S S S S S S S S S S S S S  
----------------------------------|----------------------------------|
----------------------------------|----------------------------------|
----------------------------------|----------------------------------|
--2-2-4-4-2-2-4-4-2-2-4-4-3-3-0-0-|--2-2-4-4-2-2-4-4-2-2-4-4-3-3-0-0-|


  S S S S S S S S S S S S S S S S            S S S S S S S S S S S S S S S S  
----------------------------------|-------|----------------------------------|
----------------------------------|-------|----------------------------------|
----------------------------------|-------|----------------------------------|
--2-2-4-4-2-2-4-4-2-2-4-4-3-3-0-0-|-------|--2-2-4-4-2-2-4-4-2-2-4-4-3-3-0-0-|


  S S S S S S S S S S S S S S S S            S S S S S S S S S S S S S S S S  
----------------------------------|-------|----------------------------------|
----------------------------------|-------|----------------------------------|
----------------------------------|-------|----------------------------------|
--2-2-4-4-2-2-4-4-2-2-4-4-3-3-0-0-|-------|--2-2-4-4-2-2-4-4-2-2-4-4-3-3-0-0-|


  S S S S S S S S S S S S S S S S    S S S S S S S S S S S S S S S S  
----------------------------------|----------------------------------|
----------------------------------|----------------------------------|
----------------------------------|----------------------------------|
--2-2-4-4-2-2-4-4-2-2-4-4-3-3-0-0-|--9-9-9-9-9-9-9-9-7-7-7-7-7-7-7-7-|


  S S S S S S S S S S S S S S S S    S S S S S S S S S S S S S S S S  
----------------------------------|----------------------------------|
----------------------------------|----------------------------------|
----------------------------------|----------------------------------|
--2-2-4-4-2-2-4-4-2-2-4-4-3-3-0-0-|--2-2-4-4-2-2-4-4-2-2-4-4-3-3-0-0-|


  S S S S S S S S S S S S S S S S    S S S S S S S S S S S S S S S S  
----------------------------------|----------------------------------|
----------------------------------|----------------------------------|
----------------------------------|----------------------------------|
--9-9-9-9-9-9-9-9-7-7-7-7-7-7-7-7-|--2-2-4-4-2-2-4-4-2-2-4-4-3-3-0-0-|


  S S S S S S S S S S S S S S S S    S S S S S S S S S S S S S S S S  
----------------------------------|----------------------------------|
----------------------------------|----------------------------------|
----------------------------------|----------------------------------|
--2-2-4-4-2-2-4-4-2-2-4-4-3-3-0-0-|--2-2-4-4-2-2-4-4-2-2-4-4-3-3-0-0-|


  S S S S S S S S S S S S S S S S    E  E  E  E  E  E  E  E   
----------------------------------|--------------------------|
----------------------------------|--------------------------|
----------------------------------|--------------------------|
--2-2-4-4-2-2-4-4-2-2-4-4-3-3-0-0-|--3--3--3--3--0--0--7--7--|


  E  E  E  E  E  E  E  E     E  E  E  E  E  E  E  E   
--------------------------|--------------------------|
--------------------------|--------------------------|
--------------------------|--------------------------|
--5--5--7--7--5--5--7--7--|--3--3--3--3--0--0--7--7--|


  E  E  E  E  E  E  E  E     E  E  E  E  E  E  E  E   
--------------------------|--------------------------|
--------------------------|--------------------------|
--------------------------|--------------------------|
--5--5--7--7--5--5--7--7--|--3--3--3--3--0--0--7--7--|


  E  E  E  E  E  E  E  E     E  E  E  E  E  E  E  E   
--------------------------|--------------------------|
--------------------------|--------------------------|
--------------------------|--------------------------|
--5--5--7--7--5--5--7--7--|--3--3--3--3--0--0--7--7--|


  E  E  E  E  E  E  E  E                           
--------------------------|-----|-----|-----|-----|
--------------------------|-----|-----|-----|-----|
--------------------------|-----|-----|-----|-----|
--5--5--7--7--5--5--7--7--|-----|-----|-----|-----|


  S S S S S S S S S S S S S S S S    S S S S S S S S S S S S S S S S  
----------------------------------|----------------------------------|
----------------------------------|----------------------------------|
----------------------3-3---------|----------------------3-3---------|
--5-5-7-7-5-5-7-7-3-3-----3-3-0-0-|--5-5-7-7-5-5-7-7-3-3-----3-3-2-2-|


  S S S S S S S S S S S S S S S S    S S S S S S S S S S S S S S S S  
----------------------------------|----------------------------------|
----------------------------------|----------------------------------|
----------------------3-3---------|----------------------3-3---------|
--5-5-7-7-5-5-7-7-3-3-----3-3-0-0-|--5-5-7-7-5-5-7-7-3-3-----3-3-2-2-|


  S S S S S S S S S S S S S S S S    S S S S S S S S S S S S S S S S  
----------------------------------|----------------------------------|
----------------------------------|----------------------------------|
----------------------------------|----------------------------------|
--2-2-4-4-2-2-4-4-2-2-4-4-3-3-0-0-|--2-2-4-4-2-2-4-4-2-2-4-4-3-3-0-0-|


  S S S S S S S S S S S S S S S S    S S S S S S S S S S S S S S S S  
----------------------------------|----------------------------------|
----------------------------------|----------------------------------|
----------------------------------|----------------------------------|
--2-2-4-4-2-2-4-4-2-2-4-4-3-3-0-0-|--2-2-4-4-2-2-4-4-2-2-4-4-3-3-0-0-|


  S S S S S S S S S S S S S S S S    S S S S S S S S S S S S S S S S  
----------------------------------|----------------------------------|
----------------------------------|----------------------------------|
----------------------------------|----------------------------------|
--2-2-4-4-2-2-4-4-2-2-4-4-3-3-0-0-|--2-2-4-4-2-2-4-4-2-2-4-4-3-3-0-0-|


  S S S S S S S S S S S S S S S S    S S S S S S S S S S S S S S S S          
----------------------------------|----------------------------------|-------|
----------------------------------|----------------------------------|-------|
----------------------------------|----------------------------------|-------|
--2-2-4-4-2-2-4-4-2-2-4-4-3-3-0-0-|--2-2-4-4-2-2-4-4-2-2-4-4-3-3-0-0-|-------|


  S S S S S S S S S S S S S S S S    S S S S S S S S S S S S S S S S          
----------------------------------|----------------------------------|-------|
----------------------------------|----------------------------------|-------|
----------------------------------|----------------------------------|-------|
--2-2-4-4-2-2-4-4-2-2-4-4-3-3-0-0-|--2-2-4-4-2-2-4-4-2-2-4-4-3-3-0-0-|-------|


  S S S S S S S S S S S S S S S S    S S S S S S S S S S S S S S S S  
----------------------------------|----------------------------------|
----------------------------------|----------------------------------|
----------------------------------|----------------------------------|
--2-2-4-4-2-2-4-4-2-2-4-4-3-3-0-0-|--2-2-4-4-2-2-4-4-2-2-4-4-3-3-0-0-|


  S S S S S S S S S S S S S S S S    S S S S S S S S S S S S S S S S  
----------------------------------|----------------------------------|
----------------------------------|----------------------------------|
----------------------------------|----------------------------------|
--9-9-9-9-9-9-9-9-7-7-7-7-7-7-7-7-|--2-2-4-4-2-2-4-4-2-2-4-4-3-3-0-0-|


  S S S S S S S S S S S S S S S S    S S S S S S S S S S S S S S S S  
----------------------------------|----------------------------------|
----------------------------------|----------------------------------|
----------------------------------|----------------------------------|
--2-2-4-4-2-2-4-4-2-2-4-4-3-3-0-0-|--9-9-9-9-9-9-9-9-7-7-7-7-7-7-7-7-|


  S S S S S S S S S S S S S S S S    S S S S S S S S S S S S S S S S  
----------------------------------|----------------------------------|
----------------------------------|----------------------------------|
----------------------------------|----------------------------------|
--2-2-4-4-2-2-4-4-2-2-4-4-3-3-0-0-|--2-2-4-4-2-2-4-4-2-2-4-4-3-3-0-0-|


  S S S S S S S S S S S S S S S S    S S S S S S S S S S S S S S S S  
----------------------------------|----------------------------------|
----------------------------------|----------------------------------|
----------------------------------|----------------------------------|
--2-2-4-4-2-2-4-4-2-2-4-4-3-3-0-0-|--2-2-4-4-2-2-4-4-2-2-4-4-3-3-0-0-|


  E  E  E  E  E  E  E  E     E  E  E  E  E  E  E  E   
--------------------------|--------------------------|
--------------------------|--------------------------|
--------------------------|--------------------------|
--3--3--3--3--0--0--7--7--|--5--5--7--7--5--5--7--7--|


  E  E  E  E  E  E  E  E     E  E  E  E  E  E  E  E   
--------------------------|--------------------------|
--------------------------|--------------------------|
--------------------------|--------------------------|
--3--3--3--3--0--0--7--7--|--5--5--7--7--5--5--7--7--|


  E  E  E  E  E  E  E  E     E  E  E  E  E  E  E  E   
--------------------------|--------------------------|
--------------------------|--------------------------|
--------------------------|--------------------------|
--3--3--3--3--0--0--7--7--|--8--5--7--7--5--5--7--7--|


  E  E  E  E  E  E  E  E     E  E  E  E  E  E  E  E                           
--------------------------|--------------------------|-----|-----|-----|-----|
--------------------------|--------------------------|-----|-----|-----|-----|
--------------------------|--------------------------|-----|-----|-----|-----|
--3--3--3--3--0--0--7--7--|--5--5--7--7--5--5--7--7--|-----|-----|-----|-----|


  S S S S S S S S S S S S S S S S    S S S S S S S S S S S S S S S S  
----------------------------------|----------------------------------|
----------------------------------|----------------------------------|
----------------------3-3---------|----------------------3-3---------|
--5-5-7-7-5-5-7-7-3-3-----3-3-0-0-|--5-5-7-7-5-5-7-7-3-3-----3-3-2-2-|


  S S S S S S S S S S S S S S S S    S S S S S S S S S S S S S S S S  
----------------------------------|----------------------------------|
----------------------------------|----------------------------------|
----------------------3-3---------|----------------------3-3---------|
--5-5-7-7-5-5-7-7-3-3-----3-3-0-0-|--5-5-7-7-5-5-7-7-3-3-----3-3-2-2-|


  S S S S S S S S S S S S S S S S    S S S S S S S S S S S S S S S S  
----------------------------------|----------------------------------|
----------------------------------|----------------------------------|
----------------------3-3---------|----------------------3-3---------|
--5-5-7-7-5-5-7-7-3-3-----3-3-0-0-|--5-5-7-7-5-5-7-7-3-3-----3-3-2-2-|


  S S S S S S S S S S S S S S S S    S S S S S S S S S S S S S S S S  
----------------------------------|----------------------------------|
----------------------------------|----------------------------------|
----------------------3-3---------|----------------------3-3---------|
--5-5-7-7-5-5-7-7-3-3-----3-3-0-0-|--5-5-7-7-5-5-7-7-3-3-----3-3-2-2-|


  S S S S S S S S S S S S S S S S    S S S S S S S S S S S S S S S S  
----------------------------------|----------------------------------|
----------------------------------|----------------------------------|
----------------------------------|----------------------------------|
--8-8-8-8-8-8-8-8-7-7-7-7-6-6-6-6-|--8-8-8-8-8-8-8-8-7-7-7-7-5-5-5-5-|


  S S S S S S S S S S S S S S S S    S S S S S S S S S S S S S S S S  
----------------------------------|----------------------------------|
----------------------------------|----------------------------------|
----------------------------------|----------------------------------|
--8-8-8-8-8-8-8-8-7-7-7-7-6-6-6-6-|--8-8-8-8-8-8-8-8-7-7-7-7-5-5-5-5-|


  S S S S S S S S S S S S S S S S    S S S S S S S S S S S S S S S S  
----------------------------------|----------------------------------|
----------------------------------|----------------------------------|
----------------------------------|----------------------------------|
--8-8-8-8-8-8-8-8-7-7-7-7-6-6-6-6-|--8-8-8-8-8-8-8-8-7-7-7-7-5-5-5-5-|


  S S S S S S S S S S S S S S S S    S S S S S S S S S S S S S S S S  
----------------------------------|----------------------------------|
----------------------------------|----------------------------------|
----------------------------------|----------------------------------|
--8-8-8-8-8-8-8-8-7-7-7-7-6-6-6-6-|--8-8-8-8-8-8-8-8-7-7-7-7-5-5-5-5-|


  S S S S S S S S S S S S S S S S    S S S S S S S S S S S S S S S S  
----------------------------------|----------------------------------|
----------------------------------|----------------------------------|
----------------------3-3---------|----------------------3-3---------|
--5-5-7-7-5-5-7-7-3-3-----3-3-0-0-|--5-5-7-7-5-5-7-7-3-3-----3-3-2-2-|


  S S S S S S S S S S S S S S S S    S S S S S S S S S S S S S S S S  
----------------------------------|----------------------------------|
----------------------------------|----------------------------------|
----------------------3-3---------|----------------------3-3---------|
--5-5-7-7-5-5-7-7-3-3-----3-3-0-0-|--5-5-7-7-5-5-7-7-3-3-----3-3-2-2-|


  S S S S S S S S S S S S S S S S    S S S S S S S S S S S S S S S S  
----------------------------------|----------------------------------|
----------------------------------|----------------------------------|
----------------------3-3---------|----------------------3-3---------|
--5-5-7-7-5-5-7-7-3-3-----3-3-0-0-|--5-5-7-7-5-5-7-7-3-3-----3-3-2-2-|


  S S S S S S S S S S S S S S S S    S S S S S S S S S S S S S S S S  
----------------------------------|----------------------------------|
----------------------------------|----------------------------------|
----------------------3-3---------|----------------------3-3---------|
--5-5-7-7-5-5-7-7-3-3-----3-3-0-0-|--5-5-7-7-5-5-7-7-3-3-----3-3-2-2-|


  E  E  E  E  E  E  E  E     E  E  E  E  E  E  E  E   
--------------------------|--------------------------|
--------------------------|--------------------------|
--5--5--5--5--2--2--2--2--|--0--0--0--0--3--3--3--3--|
--------------------------|--------------------------|


  E  E  E  E  E  E  E  E     E  E  E  E  E  E  E  E   
--------------------------|--------------------------|
--------------------------|--------------------------|
--5--5--5--5--2--2--2--2--|--------------------------|
--------------------------|--0--0--0--0--3--3--3--3--|


  E  E  E  E  E  E  E  E     E  E  E  E  E  E  E  E   
--------------------------|--------------------------|
--------------------------|--------------------------|
--5--5--5--5--2--2--2--2--|--0--0--0--0--3--3--3--3--|
--------------------------|--------------------------|


  E  E  E  E  E  E  E  E     E  E  E  E  E  E  E  E    
--------------------------|--------------------------||
--------------------------|--------------------------||
--5--5--5--5--2--2--2--2--|--------------------------||
--------------------------|--0--0--0--0--3--3--3--3--||

==========Grudge==========

F||-------|-------|-------|-------|-------|-------|-------|-------|-------|
C||-------|-------|-------|-------|-------|-------|-------|-------|-------|
G||-------|-------|-------|-------|-------|-------|-------|-------|-------|
C||-------|-------|-------|-------|-------|-------|-------|-------|-------|


-------|-------|-------|-----|-----|-----|-----|-----|-----|-----|-----|-----|
-------|-------|-------|-----|-----|-----|-----|-----|-----|-----|-----|-----|
-------|-------|-------|-----|-----|-----|-----|-----|-----|-----|-----|-----|
-------|-------|-------|-----|-----|-----|-----|-----|-----|-----|-----|-----|


-----|-----|-----|-----|-----|-----|-----|-----|-----|-----|-----|-----|-----|
-----|-----|-----|-----|-----|-----|-----|-----|-----|-----|-----|-----|-----|
-----|-----|-----|-----|-----|-----|-----|-----|-----|-----|-----|-----|-----|
-----|-----|-----|-----|-----|-----|-----|-----|-----|-----|-----|-----|-----|


-----|-----|-------|-------|-------|-------|-------|-------|-------|-------|
-----|-----|-------|-------|-------|-------|-------|-------|-------|-------|
-----|-----|-------|-------|-------|-------|-------|-------|-------|-------|
-----|-----|-------|-------|-------|-------|-------|-------|-------|-------|


                                  E  E  E  E     E  E  E  E     E  E  E  E   
-------|-------|-------|-------|--------------|--------------|--------------|
-------|-------|-------|-------|--------------|--------------|--------------|
-------|-------|-------|-------|--------------|--------------|--------------|
-------|-------|-------|-------|--0--0--0--0--|--0--0--0--0--|--2--2--2--2--|


  E  E  E  E     E  E  E  E     E  E  E  E     E  E  E  E     E  E  E  E   
--------------|--------------|--------------|--------------|--------------|
--------------|--------------|--------------|--------------|--------------|
--------------|--------------|--------------|--------------|--------------|
--5--5--5--5--|--2--2--2--2--|--5--5--5--5--|--0--0--0--0--|--0--0--0--0--|


  E  E  E  E     E  E  E  E     E  E  E  E     E  E  E  E     E  E  E  E   
--------------|--------------|--------------|--------------|--------------|
--------------|--------------|--------------|--------------|--------------|
--------------|--------------|--------------|--------------|--------------|
--2--2--2--2--|--5--5--5--5--|--2--2--2--2--|--5--5--5--5--|--0--0--0--0--|


  E  E  E  E     E  E  E  E     E  E  E  E     E  E  E  E     E  E  E  E   
--------------|--------------|--------------|--------------|--------------|
--------------|--------------|--------------|--------------|--------------|
--------------|--------------|--------------|--------------|--------------|
--0--0--0--0--|--2--2--2--2--|--5--5--5--5--|--2--2--2--2--|--5--5--5--5--|


  E  E  E  E     E  E  E  E     E  E  E  E     E  E  E  E     E  E  E  E   
--------------|--------------|--------------|--------------|--------------|
--------------|--------------|--------------|--------------|--------------|
--------------|--------------|--------------|--------------|--------------|
--0--0--0--0--|--0--0--0--0--|--2--2--2--2--|--5--5--5--5--|--2--2--2--2--|


  E  E  E  E                                                                   
--------------|-------|-------|-------|-------|-------|-------|-------|-------|
--------------|-------|-------|-------|-------|-------|-------|-------|-------|
--------------|-------|-------|-------|-------|-------|-------|-------|-------|
--5--5--5--5--|-------|-------|-------|-------|-------|-------|-------|-------|


-------|-------|-------|-------|-------|-------|-------|-------|
-------|-------|-------|-------|-------|-------|-------|-------|
-------|-------|-------|-------|-------|-------|-------|-------|
-------|-------|-------|-------|-------|-------|-------|-------|


  E  E  E  E  E  E  E  E     E  E  E  E  E  E  E  E   
--------------------------|--------------------------|
--------------------------|--------------------------|
--3--3--3--3--3--3--3--3--|--2--2--2--2--2--2--2--2--|
--------------------------|--------------------------|


  E  E  E  E  E  E  E  E     E  E  E  E  E  E  E  E   
--------------------------|--------------------------|
--------------------------|--------------------------|
--0--0--0--0--0--0--0--0--|--2--2--2--2--2--2--2--2--|
--------------------------|--------------------------|


  E  E  E  E  E  E  E  E     E  E  E  E  E  E  E  E   
--------------------------|--------------------------|
--------------------------|--------------------------|
--3--3--3--3--3--3--3--3--|--2--2--2--2--2--2--2--2--|
--------------------------|--------------------------|


  E  E  E  E  E  E  E  E     E  E  E  E  E  E  E  E   
--------------------------|--------------------------|
--------------------------|--------------------------|
--0--0--0--0--0--0--0--0--|--2--2--2--2--2--2--2--2--|
--------------------------|--------------------------|


  E  E  E  E  E  E  E  E     E  E  E  E  E  E  E  E   
--------------------------|--------------------------|
--------------------------|--------------------------|
--3--3--3--3--3--3--3--3--|--2--2--2--2--2--2--2--2--|
--------------------------|--------------------------|


  E  E  E  E  E  E  E  E     E  E  E  E  E  E  E  E   
--------------------------|--------------------------|
--------------------------|--------------------------|
--0--0--0--0--0--0--0--0--|--2--2--2--2--2--2--2--2--|
--------------------------|--------------------------|


  E  E  E  E  E  E  E  E     E  E  E  E  E  E  E  E   
--------------------------|--------------------------|
--------------------------|--------------------------|
--3--3--3--3--3--3--3--3--|--2--2--2--2--2--2--2--2--|
--------------------------|--------------------------|


  E  E  E  E  E  E  E  E     E  E  E  E  E  E  E  E   
--------------------------|--------------------------|
--------------------------|--------------------------|
--0--0--0--0--0--0--0--0--|--2--2--2--2--2--2--2--2--|
--------------------------|--------------------------|


  E  E  E  E  E  E  E  E     E  E  E  E  E  E  E  E   
--------------------------|--------------------------|
--------------------------|--------------------------|
--------------------------|--------------------------|
--0--0--0--0--2--2--1--1--|--0--0--0--0--2--2--1--1--|


  E  E  E  E  E  E  E  E     E  E  E  E  E  E  E  E   
--------------------------|--------------------------|
--------------------------|--------------------------|
--------------------------|--------------------------|
--2--2--2--2--4--4--3--3--|--5--5--5--5--7--7--6--6--|


  E  E  E  E  E  E  E  E     E  E  E  E  E  E  E  E   
--------------------------|--------------------------|
--------------------------|--------------------------|
--------------------------|--------------------------|
--2--2--2--2--4--4--3--3--|--5--5--5--5--7--7--6--6--|


  E  E  E  E  E  E  E  E     E  E  E  E  E  E  E  E   
--------------------------|--------------------------|
--------------------------|--------------------------|
--------------------------|--------------------------|
--0--0--0--0--2--2--1--1--|--0--0--0--0--2--2--1--1--|


  E  E  E  E  E  E  E  E     E  E  E  E  E  E  E  E   
--------------------------|--------------------------|
--------------------------|--------------------------|
--------------------------|--------------------------|
--2--2--2--2--4--4--3--3--|--5--5--5--5--7--7--6--6--|


  E  E  E  E  E  E  E  E     E  E  E  E  E  E  E  E   
--------------------------|--------------------------|
--------------------------|--------------------------|
--------------------------|--------------------------|
--2--2--2--2--4--4--3--3--|--5--5--5--5--7--7--6--6--|


  E  E  E  E  E  E  E  E     E  E  E  E  E  E  E  E   
--------------------------|--------------------------|
--------------------------|--------------------------|
--------------------------|--------------------------|
--0--0--0--0--2--2--1--1--|--0--0--0--0--2--2--1--1--|


  E  E  E  E  E  E  E  E     E  E  E  E  E  E  E  E   
--------------------------|--------------------------|
--------------------------|--------------------------|
--------------------------|--------------------------|
--2--2--2--2--4--4--3--3--|--5--5--5--5--7--7--6--6--|


  E  E  E  E  E  E  E  E     E  E  E  E  E  E  E  E   
--------------------------|--------------------------|
--------------------------|--------------------------|
--------------------------|--------------------------|
--2--2--2--2--4--4--3--3--|--5--5--5--5--7--7--6--6--|


  E  E  E  E  E  E  E  E     E  E  E  E  E  E  E  E   
--------------------------|--------------------------|
--------------------------|--------------------------|
--------------------------|--------------------------|
--0--0--0--0--2--2--1--1--|--0--0--0--0--2--2--1--1--|


  E  E  E  E  E  E  E  E     E  E  E  E  E  E  E  E   
--------------------------|--------------------------|
--------------------------|--------------------------|
--------------------------|--------------------------|
--2--2--2--2--4--4--3--3--|--5--5--5--5--7--7--6--6--|


  E  E  E  E  E  E  E  E     E  E  E  E  E  E  E  E          
--------------------------|--------------------------|-----||
--------------------------|--------------------------|-----||
--------------------------|--------------------------|-----||
--2--2--2--2--4--4--3--3--|--5--5--5--5--7--7--6--6--|-----||

==========Between Demons & Devils==========

     E  E  E  E  E  E  E  E     E  E  E  E  E  E  E  E   
F||--------------------------|--------------------------|
C||--------------------------|--9--9--9--9--7--7--7--7--|
G||--------------3--3--3--3--|--------------------------|
C||--1--1--1--1--------------|--------------------------|


  E  E  E  E  E  E  E  E     E  E  E  E  E  E  E  E   
--------------------------|--------------------------|
--------------------------|--9--9--9--9--7--7--7--7--|
--------------3--3--3--3--|--------------------------|
--1--1--1--1--------------|--------------------------|


  E  E  E  E  E  E  E  E     E  E  E  E  E  E  E  E   
--------------------------|--------------------------|
--------------------------|--9--9--9--9--7--7--7--7--|
--------------3--3--3--3--|--------------------------|
--1--1--1--1--------------|--------------------------|


  E  E  E  E  E  E  E  E     E  E  E  E  E  E  E  E   
--------------------------|--------------------------|
--------------------------|--9--9--9--9--7--7--7--7--|
--------------3--3--3--3--|--------------------------|
--1--1--1--1--------------|--------------------------|


  E  E  E  E  E  E  E  E     E  E  E  E  E  E  E  E   
--------------------------|--------------------------|
--------------------------|--9--9--9--9--7--7--7--7--|
--------------3--3--3--3--|--------------------------|
--1--1--1--1--------------|--------------------------|


  E  E  E  E  E  E  E  E     E  E  E  E  E  E  E  E   
--------------------------|--------------------------|
--------------------------|--9--9--9--9--7--7--7--7--|
--------------3--3--3--3--|--------------------------|
--1--1--1--1--------------|--------------------------|


  E  E  E  E  E  E  E  E     E  E  E  E  E  E  E  E   
--------------------------|--------------------------|
--------------------------|--9--9--9--9--7--7--7--7--|
--------------3--3--3--3--|--------------------------|
--1--1--1--1--------------|--------------------------|


  E  E  E  E  E  E  E  E     E  E  E  E  E  E  E  E   
--------------------------|--------------------------|
--------------------------|--9--9--9--9--7--7--7--7--|
--------------3--3--3--3--|--------------------------|
--1--1--1--1--------------|--------------------------|


  E  E  E  E  E  E  E  E     E  E  E  E  E  E  E  E   
--------------------------|--------------------------|
--------------------------|--9--9--9--9--7--7--7--7--|
--------------3--3--3--3--|--------------------------|
--1--1--1--1--------------|--------------------------|


  E  E  E  E  E  E  E  E     E  E  E  E  E  E  E  E   
--------------------------|--------------------------|
--------------------------|--9--9--9--9--7--7--7--7--|
--------------3--3--3--3--|--------------------------|
--1--1--1--1--------------|--------------------------|


  E  E  E  E  E  E  E  E     E  E  E  E  E  E  E  E   
--------------------------|--------------------------|
--------------------------|--9--9--9--9--7--7--7--7--|
--------------3--3--3--3--|--------------------------|
--1--1--1--1--------------|--------------------------|


  E  E  E  E  E  E  E  E     E  E  E  E  E  E  E  E   
--------------------------|--------------------------|
--------------------------|--9--9--9--9--7--7--7--7--|
--------------3--3--3--3--|--------------------------|
--1--1--1--1--------------|--------------------------|


  E  E  E  E  E  E  E  E     E  E  E  E  E  E  E  E     E  E  E  E  E  E  E   
--------------------------|--------------------------|-----------------------|
--------------------------|--------------------------|-----------------------|
--------------2--2--2--2--|--3--3--3--3--5--5--5--5--|-----------------------|
--2--2--2--2--------------|--------------5--5--5--5--|--0--0-----0--0--------|


  E  E  E  E  E  E  Q       E  E  E  E  E  E  E  E     E  E  E  E  E  E  E  E   
-------------------------|--------------------------|--------------------------|
-------------------------|--------------------------|--------------------------|
-------------------------|--------------2--2--2--2--|--3--3--3--3--5--5--5--5--|
--0--0-----0--0-----1----|--2--2--2--2--------------|--------------5--5--5--5--|


  E  E  E  E  E  E  E     E  E  E  E  E  E  E  E     E  E  E  E  E  E  E  E   
-----------------------|--------------------------|--------------------------|
-----------------------|--------------------------|--------------------------|
-----------------------|--------------------------|--------------3--3--3--3--|
--0--0-----0--0--------|--2--2--2--2--3--3--5--5--|--1--1--1--1--------------|


  E  E  E  E  E  E  E  E     E  E  E  E  E  E  E  E   
--------------------------|--------------------------|
--9--9--9--9--7--7--7--7--|--------------------------|
--------------------------|--------------3--3--3--3--|
--------------------------|--1--1--1--1--------------|


  E  E  E  E  E  E  E  E     E  E  E  E  E  E  E  E   
--------------------------|--------------------------|
--9--9--9--9--7--7--7--7--|--------------------------|
--------------------------|--------------3--3--3--3--|
--------------------------|--1--1--1--1--------------|


  E  E  E  E  E  E  E  E     E  E  E  E  E  E  E  E   
--------------------------|--------------------------|
--9--9--9--9--7--7--7--7--|--------------------------|
--------------------------|--------------3--3--3--3--|
--------------------------|--1--1--1--1--------------|


  E  E  E  E  E  E  E  E     E  E  E  E  E  E  E  E   
--------------------------|--------------------------|
--9--9--9--9--7--7--7--7--|--------------------------|
--------------------------|--------------3--3--3--3--|
--------------------------|--1--1--1--1--------------|


  E  E  E  E  E  E  E  E     E  E  E  E  E  E  E  E   
--------------------------|--------------------------|
--9--9--9--9--7--7--7--7--|--------------------------|
--------------------------|--------------3--3--3--3--|
--------------------------|--1--1--1--1--------------|


  E  E  E  E  E  E  E  E     E  E  E  E  E  E  E  E   
--------------------------|--------------------------|
--9--9--9--9--7--7--7--7--|--------------------------|
--------------------------|--------------3--3--3--3--|
--------------------------|--1--1--1--1--------------|


  E  E  E  E  E  E  E  E     E  E  E  E  E  E  E  E   
--------------------------|--------------------------|
--9--9--9--9--7--7--7--7--|--------------------------|
--------------------------|--------------3--3--3--3--|
--------------------------|--1--1--1--1--------------|


  E  E  E  E  E  E  E  E     E  E  E  E  E  E  E  E   
--------------------------|--------------------------|
--9--9--9--9--7--7--7--7--|--------------------------|
--------------------------|--------------3--3--3--3--|
--------------------------|--1--1--1--1--------------|


  E  E  E  E  E  E  E  E     E  E  E  E  E  E  E  E   
--------------------------|--------------------------|
--9--9--9--9--7--7--7--7--|--------------------------|
--------------------------|--------------3--3--3--3--|
--------------------------|--1--1--1--1--------------|


  E  E  E  E  E  E  E  E     E  E  E  E  E  E  E  E   
--------------------------|--------------------------|
--9--9--9--9--7--7--7--7--|--------------------------|
--------------------------|--------------3--3--3--3--|
--------------------------|--1--1--1--1--------------|


  E  E  E  E  E  E  E  E     E  E  E  E  E  E  E  E   
--------------------------|--------------------------|
--9--9--9--9--7--7--7--7--|--------------------------|
--------------------------|--------------3--3--3--3--|
--------------------------|--1--1--1--1--------------|


  E  E  E  E  E  E  E  E     E  E  E  E  E  E  E  E   
--------------------------|--------------------------|
--9--9--9--9--7--7--7--7--|--------------------------|
--------------------------|--------------2--2--2--2--|
--------------------------|--2--2--2--2--------------|


  E  E  E  E  E  E  E  E     E  E  E  E  E  E  E     E  E  E  E  E  E  Q     
--------------------------|-----------------------|-------------------------|
--------------------------|-----------------------|-------------------------|
--3--3--3--3--5--5--5--5--|-----------------------|-------------------------|
--------------5--5--5--5--|--0--0-----0--0--------|--0--0-----0--0-----1----|


  E  E  E  E  E  E  E  E     E  E  E  E  E  E  E  E     E  E  E  E  E  E  E   
--------------------------|--------------------------|-----------------------|
--------------------------|--------------------------|-----------------------|
--------------2--2--2--2--|--3--3--3--3--5--5--5--5--|-----------------------|
--2--2--2--2--------------|--------------5--5--5--5--|--0--0-----0--0--------|


  E  E  E  E  E  E  E  E     E  E  E  E  E  E  E  E   
--------------------------|--------------------------|
--------------------------|--------------------------|
--------------------------|--------------3--3--3--3--|
--2--2--2--2--3--3--5--5--|--1--1--1--1--------------|


  E  E  E  E  E  E  E  E     E  E  E  E  E  E  E  E   
--------------------------|--------------------------|
--9--9--9--9--7--7--7--7--|--------------------------|
--------------------------|--------------3--3--3--3--|
--------------------------|--1--1--1--1--------------|


  E  E  E  E  E  E  E  E     E  E  E  E  E  E  E  E   
--------------------------|--------------------------|
--9--9--9--9--7--7--7--7--|--------------------------|
--------------------------|--------------3--3--3--3--|
--------------------------|--1--1--1--1--------------|


  E  E  E  E  E  E  E  E     E  E  E  E  E  E  E  E   
--------------------------|--------------------------|
--9--9--9--9--7--7--7--7--|--------------------------|
--------------------------|--------------3--3--3--3--|
--------------------------|--1--1--1--1--------------|


  E  E  E  E  E  E  E  E     W                                     
--------------------------|--7----------------|-------------------|
--9--9--9--9--7--7--7--7--|--0----------------|-------------------|
--------------------------|--5----------------|-------------------|
--------------------------|--0----------------|-------------------|


  W                                       W                                     
--7----------------|-------------------|--7----------------|-------------------|
--0----------------|-------------------|--0----------------|-------------------|
--5----------------|-------------------|--5----------------|-------------------|
--0----------------|-------------------|--0----------------|-------------------|


  W                                       W                                     
--7----------------|-------------------|--7----------------|-------------------|
--0----------------|-------------------|--0----------------|-------------------|
--5----------------|-------------------|--5----------------|-------------------|
--0----------------|-------------------|--0----------------|-------------------|


  W                         W                         W                       
--7----------------|-----|--7----------------|-----|--7----------------|-----|
--0----------------|-----|--0----------------|-----|--0----------------|-----|
--5----------------|-----|--5----------------|-----|--5----------------|-----|
--0----------------|-----|--0----------------|-----|--0----------------|-----|


  S S S S S S S S S S S S S S S S    S S S S S S S S S S S S S S S S  
----------------------------------|----------------------------------|
----------------------------------|----------------------------------|
----------------------------------|----------------------------------|
--2-2-2-2-0-0-6-6-2-2-2-2-3-3-3-3-|--2-2-2-2-0-0-6-6-3-3-3-3-5-5-5-5-|


  S S S S S S S S S S S S S S S S    S S S S S S S S S S S S S S S S  
----------------------------------|----------------------------------|
----------------------------------|----------------------------------|
----------------------------------|----------------------------------|
--2-2-2-2-0-0-6-6-2-2-2-2-3-3-3-3-|--2-2-2-2-0-0-6-6-3-3-3-3-5-5-5-5-|


  S S S S S S S S S S S S S S S S    S S S S S S S S S S S S S S S S  
----------------------------------|----------------------------------|
----------------------------------|----------------------------------|
----------------------------------|----------------------------------|
--2-2-2-2-0-0-6-6-2-2-2-2-3-3-3-3-|--2-2-2-2-0-0-6-6-3-3-3-3-5-5-5-5-|


  S S S S S S S S S S S S S S S S    S S S S S S S S S S S S S S S S  
----------------------------------|----------------------------------|
----------------------------------|----------------------------------|
----------------------------------|----------------------------------|
--2-2-2-2-0-0-6-6-2-2-2-2-3-3-3-3-|--2-2-2-2-0-0-6-6-3-3-3-3-5-5-5-5-|


  S S S S S S S S S S S S S S S S    S S S S S S S S S S S S S S S S  
----------------------------------|----------------------------------|
----------------------------------|----------------------------------|
----------------------------------|----------------------------------|
--2-2-2-2-0-0-6-6-2-2-2-2-3-3-3-3-|--2-2-2-2-0-0-6-6-3-3-3-3-5-5-5-5-|


  S S S S S S S S S S S S S S S S    S S S S S S S S S S S S S S S S  
----------------------------------|----------------------------------|
----------------------------------|----------------------------------|
----------------------------------|----------------------------------|
--2-2-2-2-0-0-6-6-2-2-2-2-3-3-3-3-|--2-2-2-2-0-0-6-6-3-3-3-3-5-5-5-5-|


  S S S S S S S S S S S S S S S S    S S S S S S S S S S S S S S S S  
----------------------------------|----------------------------------|
----------------------------------|----------------------------------|
----------------------------------|----------------------------------|
--2-2-2-2-0-0-6-6-2-2-2-2-3-3-3-3-|--2-2-2-2-0-0-6-6-3-3-3-3-5-5-5-5-|


  S S S S S S S S S S S S S S S S    S S S S S S S S S S S S S S S S  
----------------------------------|----------------------------------|
----------------------------------|----------------------------------|
----------------------------------|----------------------------------|
--2-2-2-2-0-0-6-6-2-2-2-2-3-3-3-3-|--2-2-2-2-0-0-6-6-3-3-3-3-5-5-5-5-|


  E  E  E  E  E  E  E  E     E  E  E  E  E  E  E  E   
--------------------------|--------------------------|
--------------------------|--------------------------|
--------------2--2--2--2--|--3--3--3--3--5--5--5--5--|
--2--2--2--2--------------|--------------------------|


  E  E  E  E  E  E  E  E     E  E  E  E  E  E  E  E   
--------------------------|--------------------------|
--------------------------|--------------------------|
--------------2--2--2--2--|--3--3--3--3--5--5--5--5--|
--2--2--2--2--------------|--------------------------|


  E  E  E  E  E  E  E  E     E  E  E  E  E  E  E  E   
--------------------------|--------------------------|
--------------------------|--------------------------|
--------------2--2--2--2--|--3--3--3--3--5--5--5--5--|
--2--2--2--2--------------|--------------------------|


  E  E  E  E  E  E  E  E     E  E  E  E  E  E  E  E   
--------------------------|--------------------------|
--------------------------|--------------------------|
--------------2--2--2--2--|--3--3--3--3--5--5--5--5--|
--2--2--2--2--------------|--------------------------|


  E  E  E  E  E  E  E  E     E  E  E  E  E  E  E  E   
--------------------------|--------------------------|
--------------------------|--------------------------|
--------------2--2--2--2--|--3--3--3--3--5--5--5--5--|
--2--2--2--2--------------|--------------------------|


  E  E  E  E  E  E  E  E     E  E  E  E  E  E  E  E   
--------------------------|--------------------------|
--------------------------|--------------------------|
--------------2--2--2--2--|--3--3--3--3--5--5--5--5--|
--2--2--2--2--------------|--------------------------|


  E  E  E  E  E  E  E  E     E  E  E  E  E  E  E  E   
--------------------------|--------------------------|
--------------------------|--------------------------|
--------------2--2--2--2--|--3--3--3--3--5--5--5--5--|
--2--2--2--2--------------|--------------------------|


  E  E  E  E  E  E  E  E     E  E  E  E  E  E  E  E   
--------------------------|--------------------------|
--------------------------|--------------------------|
--------------2--2--2--2--|--3--3--3--3--5--5--5--5--|
--2--2--2--2--------------|--------------------------|


  E  E  E  E  E  E  E  E     E  E  E  E  E  E  E  E   
--------------------------|--------------------------|
--------------------------|--------------------------|
--------------2--2--2--2--|--3--3--3--3--5--5--5--5--|
--2--2--2--2--------------|--------------------------|


  E  E  E  E  E  E  E  E     E  E  E  E  E  E  E  E   
--------------------------|--------------------------|
--------------------------|--------------------------|
--------------2--2--2--2--|--3--3--3--3--5--5--5--5--|
--2--2--2--2--------------|--------------------------|


  E  E  E  E  E  E  E  E     E  E  E  E  E  E  E  E   
--------------------------|--------------------------|
--------------------------|--------------------------|
--------------2--2--2--2--|--3--3--3--3--5--5--5--5--|
--2--2--2--2--------------|--------------------------|


  E  E  E  E  E  E  E  E     E  E  E  E  E  E  E  E   
--------------------------|--------------------------|
--------------------------|--------------------------|
--------------2--2--2--2--|--3--3--3--3--5--5--5--5--|
--2--2--2--2--------------|--------------------------|


  E  E  E  E  E  E  E  E     E  E  E  E  E  E  E  E   
--------------------------|--------------------------|
--------------------------|--------------------------|
--------------2--2--2--2--|--3--3--3--3--5--5--5--5--|
--2--2--2--2--------------|--------------------------|


  E  E  E  E  E  E  E  E     E  E  E  E  E  E  E  E   
--------------------------|--------------------------|
--------------------------|--------------------------|
--------------2--2--2--2--|--3--3--3--3--5--5--5--5--|
--2--2--2--2--------------|--------------------------|


  E  E  E  E  E  E  E  E     E  E  E  E  E  E  E  E   
--------------------------|--------------------------|
--------------------------|--------------------------|
--------------2--2--2--2--|--------------------------|
--2--2--2--2--------------|--2--2--2--2--3--3--5--5--|


  E  E  E  E  E  E  E  E     E  E  E  E  E  E  E  E   
--------------------------|--------------------------|
--------------------------|--9--9--9--9--7--7--7--7--|
--------------3--3--3--3--|--------------------------|
--1--1--1--1--------------|--------------------------|


  E  E  E  E  E  E  E  E     E  E  E  E  E  E  E  E   
--------------------------|--------------------------|
--------------------------|--9--9--9--9--7--7--7--7--|
--------------3--3--3--3--|--------------------------|
--1--1--1--1--------------|--------------------------|


  E  E  E  E  E  E  E  E     E  E  E  E  E  E  E  E   
--------------------------|--------------------------|
--------------------------|--9--9--9--9--7--7--7--7--|
--------------3--3--3--3--|--------------------------|
--1--1--1--1--------------|--------------------------|


  E  E  E  E  E  E  E  E     E  E  E  E  E  E  E  E   
--------------------------|--------------------------|
--------------------------|--9--9--9--9--7--7--7--7--|
--------------3--3--3--3--|--------------------------|
--1--1--1--1--------------|--------------------------|


  E  E  E  E  E  E  E  E     E  E  E  E  E  E  E  E     E  E  E  E  E  E  E   
--------------------------|--------------------------|-----------------------|
--------------------------|--------------------------|-----------------------|
--------------2--2--2--2--|--3--3--3--3--5--5--5--5--|-----------------------|
--2--2--2--2--------------|--------------5--5--5--5--|--0--0-----0--0--------|


  E  E  E  E  E  E  Q       E  E  E  E  E  E  E  E     E  E  E  E  E  E  E  E   
-------------------------|--------------------------|--------------------------|
-------------------------|--------------------------|--------------------------|
-------------------------|--------------2--2--2--2--|--3--3--3--3--5--5--5--5--|
--0--0-----0--0-----1----|--2--2--2--2--------------|--------------5--5--5--5--|


  E  E  E  E  E  E  E     E  E  E  E  E  E  E  E     E  E  E  E  E  E  E  E   
-----------------------|--------------------------|--------------------------|
-----------------------|--------------------------|--------------------------|
-----------------------|--------------------------|--------------3--3--3--3--|
--0--0-----0--0--------|--2--2--2--2--3--3--5--5--|--1--1--1--1--------------|


  E  E  E  E  E  E  E  E     E  E  E  E  E  E  E  E   
--------------------------|--------------------------|
--9--9--9--9--7--7--7--7--|--------------------------|
--------------------------|--------------3--3--3--3--|
--------------------------|--1--1--1--1--------------|


  E  E  E  E  E  E  E  E     E  E  E  E  E  E  E  E   
--------------------------|--------------------------|
--9--9--9--9--7--7--7--7--|--------------------------|
--------------------------|--------------3--3--3--3--|
--------------------------|--1--1--1--1--------------|


  E  E  E  E  E  E  E  E     E  E  E  E  E  E  E  E   
--------------------------|--------------------------|
--9--9--9--9--7--7--7--7--|--------------------------|
--------------------------|--------------3--3--3--3--|
--------------------------|--1--1--1--1--------------|


  E  E  E  E  E  E  E  E    
--------------------------||
--9--9--9--9--7--7--7--7--||
--------------------------||
--------------------------||

==========(Per)Versions Of The Truth==========

             E  S S E  S S E  S S E  S S    E  S S E  S S E  S S E  S S  
F||-------|------------------------------|------------------------------|
C||-------|------------------------------|------------------------------|
G||-------|------------------------------|------------------------------|
C||-------|--0--0-0-1--0-0-0--0-0-1--0-0-|--0--0-0-1--0-0-0--0-0-1--0-0-|


  E  S S E  S S E  S S E  S S    E  S S E  S S E  S S E  S S  
------------------------------|------------------------------|
------------------------------|------------------------------|
------------------------------|------------------------------|
--0--0-0-1--0-0-0--0-0-1--0-0-|--0--0-0-1--0-0-0--0-0-1--0-0-|


  E  E  E  E  E   E  E   E     E  E  E  E  E   E  E   E   
----------------------------|----------------------------|
----------------------------|----------------------------|
----------------------------|----------------------------|
--2--2--2--2--0h--2--0h--2--|--2--2--2--2--0h--2--0h--2--|


  E  S S E  S S E  S S E  S S    E  S S E  S S E  S S E  S S  
------------------------------|------------------------------|
------------------------------|------------------------------|
------------------------------|------------------------------|
--0--0-0-1--0-0-0--0-0-1--0-0-|--0--0-0-1--0-0-0--0-0-1--0-0-|


  E  E  E  E  E   E  E   E     E  E  E  E  E   E  E   E   
----------------------------|----------------------------|
----------------------------|----------------------------|
----------------------------|----------------------------|
--2--2--2--2--0h--2--0h--2--|--2--2--2--2--0h--2--0h--2--|


  E  S S E  S S E  S S E  S S    E  S S E  S S E  S S E  S S  
------------------------------|------------------------------|
------------------------------|------------------------------|
------------------------------|------------------------------|
--0--0-0-1--0-0-0--0-0-1--0-0-|--0--0-0-1--0-0-0--0-0-1--0-0-|


  E  E  E  E  E   E  E   E     E  E  E  E  E   E  E   E   
----------------------------|----------------------------|
----------------------------|----------------------------|
----------------------------|----------------------------|
--2--2--2--2--0h--2--0h--2--|--2--2--2--2--0h--2--0h--2--|


  E  S S E  S S E  S S E  S S    E  S S E  S S E  S S E  S S  
------------------------------|------------------------------|
------------------------------|------------------------------|
------------------------------|------------------------------|
--0--0-0-1--0-0-0--0-0-1--0-0-|--0--0-0-1--0-0-0--0-0-1--0-0-|


  E  E  E  E  E   E  E   E     E  E  E  E  E   E  E   E   
----------------------------|----------------------------|
----------------------------|----------------------------|
----------------------------|----------------------------|
--2--2--2--2--0h--2--0h--2--|--2--2--2--2--0h--2--0h--2--|


  E  S S E  S S E  S S E  S S    E  S S E  S S E  S S E  S S  
------------------------------|------------------------------|
------------------------------|------------------------------|
------------------------------|------------------------------|
--0--0-0-1--0-0-0--0-0-1--0-0-|--0--0-0-1--0-0-0--0-0-1--0-0-|


  E  S S E  S S E  S S E  S S    E  S S E  S S E  S S E  S S  
------------------------------|------------------------------|
------------------------------|------------------------------|
------------------------------|------------------------------|
--0--0-0-1--0-0-0--0-0-1--0-0-|--0--0-0-1--0-0-0--0-0-1--0-0-|


  E  E  E  E  E  E  E  E     E  E  E  E  E  E  E  E   
--------------------------|--------------------------|
--------------------------|--------------------------|
--------------------------|--------------------------|
--2--2--2--2--0--0--1--1--|--2--2--2--2--0--0--1--1--|


  E  E  E  E  E  E  E  E     E  E  E  E  E  E  E  E   
--------------------------|--------------------------|
--------------------------|--------------------------|
--------------------------|--------------------------|
--2--2--2--2--2--2--2--2--|--3--3--3--3--3--3--3--3--|


  E  E  E  E  E  E  E  E     E  E  E  E  E  E  E  E   
--------------------------|--------------------------|
--------------------------|--3--3--3--3--5--5--5--5--|
--3--3--3--3--5--5--5--5--|--------------------------|
--------------------------|--------------------------|


  E  E  E  E  E  E  E  E     E  E  E  E  E  E  E  E   
--------------------------|--------------------------|
--------------------------|--1--1--1--1--------------|
--2--2--2--2--2--2--2--2--|--------------1--1--1--1--|
--------------------------|--------------------------|


  E  E  E  E  E  E  E  E     E  E  E  E  E  E  E  E   
--------------------------|--------------------------|
--------------------------|--3--3--3--3--5--5--5--5--|
--3--3--3--3--5--5--5--5--|--------------------------|
--------------------------|--------------------------|


  E  E  E  E  E  E  E  E     E  E  E  E  E  E  E  E   
--------------------------|--------------------------|
--------------------------|--------------------------|
--2--2--2--2--2--2--2--2--|--2--2--2--2--2--2--2--2--|
--------------------------|--------------------------|


  E  E  E  E  E  E  E  E     W                   E  S S E  S S E  S S E  S S  
--------------------------|-------------------|------------------------------|
--1--1--1--1--1--1--1--1--|-------------------|------------------------------|
--------------------------|--1----------------|------------------------------|
--------------------------|--0----------------|--0--0-0-1--0-0-0--0-0-1--0-0-|


  E  S S E  S S E  S S E  S S    E  S S E  S S E  S S E  S S  
------------------------------|------------------------------|
------------------------------|------------------------------|
------------------------------|------------------------------|
--0--0-0-1--0-0-0--0-0-1--0-0-|--0--0-0-1--0-0-0--0-0-1--0-0-|


  E  S S E  S S E  S S E  S S    E  E  E  E  E   E  E   E   
------------------------------|----------------------------|
------------------------------|----------------------------|
------------------------------|----------------------------|
--0--0-0-1--0-0-0--0-0-1--0-0-|--2--2--2--2--0h--2--0h--2--|


  E  E  E  E  E   E  E   E     E  S S E  S S E  S S E  S S  
----------------------------|------------------------------|
----------------------------|------------------------------|
----------------------------|------------------------------|
--2--2--2--2--0h--2--0h--2--|--0--0-0-1--0-0-0--0-0-1--0-0-|


  E  S S E  S S E  S S E  S S    E  E  E  E  E   E  E   E   
------------------------------|----------------------------|
------------------------------|----------------------------|
------------------------------|----------------------------|
--0--0-0-1--0-0-0--0-0-1--0-0-|--2--2--2--2--0h--2--0h--2--|


  E  E  E  E  E   E  E   E     E  S S E  S S E  S S E  S S  
----------------------------|------------------------------|
----------------------------|------------------------------|
----------------------------|------------------------------|
--2--2--2--2--0h--2--0h--2--|--0--0-0-1--0-0-0--0-0-1--0-0-|


  E  S S E  S S E  S S E  S S    E  E  E  E  E   E  E   E   
------------------------------|----------------------------|
------------------------------|----------------------------|
------------------------------|----------------------------|
--0--0-0-1--0-0-0--0-0-1--0-0-|--2--2--2--2--0h--2--0h--2--|


  E  E  E  E  E   E  E   E     E  S S E  S S E  S S E  S S  
----------------------------|------------------------------|
----------------------------|------------------------------|
----------------------------|------------------------------|
--2--2--2--2--0h--2--0h--2--|--0--0-0-1--0-0-0--0-0-1--0-0-|


  E  S S E  S S E  S S E  S S    E  E  E  E  E   E  E   E   
------------------------------|----------------------------|
------------------------------|----------------------------|
------------------------------|----------------------------|
--0--0-0-1--0-0-0--0-0-1--0-0-|--2--2--2--2--0h--2--0h--2--|


  E  E  E  E  E   E  E   E     E  S S E  S S E  S S E  S S  
----------------------------|------------------------------|
----------------------------|------------------------------|
----------------------------|------------------------------|
--2--2--2--2--0h--2--0h--2--|--0--0-0-1--0-0-0--0-0-1--0-0-|


  E  S S E  S S E  S S E  S S    E  S S E  S S E  S S E  S S  
------------------------------|------------------------------|
------------------------------|------------------------------|
------------------------------|------------------------------|
--0--0-0-1--0-0-0--0-0-1--0-0-|--0--0-0-1--0-0-0--0-0-1--0-0-|


  E  S S E  S S E  S S E  S S    E  E  E  E  E  E  E  E   
------------------------------|--------------------------|
------------------------------|--------------------------|
------------------------------|--------------------------|
--0--0-0-1--0-0-0--0-0-1--0-0-|--2--2--2--2--0--0--1--1--|


  E  E  E  E  E  E  E  E     E  E  E  E  E  E  E  E   
--------------------------|--------------------------|
--------------------------|--------------------------|
--------------------------|--------------------------|
--2--2--2--2--0--0--1--1--|--2--2--2--2--2--2--2--2--|


  E  E  E  E  E  E  E  E     E  E  E  E  E  E  E  E   
--------------------------|--------------------------|
--------------------------|--------------------------|
--------------------------|--3--3--3--3--5--5--5--5--|
--3--3--3--3--3--3--3--3--|--------------------------|


  E  E  E  E  E  E  E  E     E  E  E  E  E  E  E  E   
--------------------------|--------------------------|
--3--3--3--3--5--5--5--5--|--------------------------|
--------------------------|--2--2--2--2--2--2--2--2--|
--------------------------|--------------------------|


  E  E  E  E  E  E  E  E     E  E  E  E  E  E  E  E   
--------------------------|--------------------------|
--1--1--1--1--------------|--------------------------|
--------------1--1--1--1--|--3--3--3--3--5--5--5--5--|
--------------------------|--------------------------|


  E  E  E  E  E  E  E  E     E  E  E  E  E  E  E  E   
--------------------------|--------------------------|
--3--3--3--3--5--5--5--5--|--------------------------|
--------------------------|--2--2--2--2--2--2--2--2--|
--------------------------|--------------------------|


  E  E  E  E  E  E  E  E     E  E  E  E  E  E  E  E   
--------------------------|--------------------------|
--------------------------|--1--1--1--1--1--1--1--1--|
--2--2--2--2--2--2--2--2--|--------------------------|
--------------------------|--------------------------|


  E  E  E  E  E  E  E  E     E  E  E  E  E  E  E  E   
--------------------------|--------------------------|
--------------------------|--------------------------|
--1--1--1--1--1--1--1--1--|--3--3--3--3--5--5--5--5--|
--------------------------|--------------------------|


  E  E  E  E  E  E  E  E     E  E  E  E  E  E  E  E   
--------------------------|--------------------------|
--3--3--3--3--5--5--5--5--|--------------------------|
--------------------------|--2--2--2--2--2--2--2--2--|
--------------------------|--------------------------|


  E  E  E  E  E  E  E  E     E  E  E  E  E  E  E  E   
--------------------------|--------------------------|
--1--1--1--1--------------|--------------------------|
--------------1--1--1--1--|--3--3--3--3--5--5--5--5--|
--------------------------|--------------------------|


  E  E  E  E  E  E  E  E     E  E  E  E  E  E  E  E   
--------------------------|--------------------------|
--3--3--3--3--5--5--5--5--|--------------------------|
--------------------------|--2--2--2--2--2--2--2--2--|
--------------------------|--------------------------|


  E  E  E  E  E  E  E  E     E  E  E  E  E  E  E  E     W                 
--------------------------|--------------------------|-------------------|
--------------------------|--1--1--1--1--1--1--1--1--|-------------------|
--2--2--2--2--2--2--2--2--|--------------------------|--1----------------|
--------------------------|--------------------------|--0----------------|


  E  S S E  S S E     E  S S E  S S E     E  S S E  S S E  S S E  S S  
-------------------|-------------------|------------------------------|
-------------------|-------------------|------------------------------|
-------------------|-------------------|------------------------------|
--0--0-0-1--0-0-0--|--0--0-0-1--0-0-0--|--0--0-0-1--0-0-0--0-0-1--0-0-|


  E  S S S S S S S    E  S S E  S S E     E  S S E  S S E   
-------------------|-------------------|-------------------|
-------------------|-------------------|-------------------|
-------------------|-------------------|-------------------|
--0--0-0-1-1-1-1-0-|--0--0-0-1--0-0-0--|--0--0-0-1--0-0-0--|


  E  S S E  S S E  S S E  S S    E  S S S S S S S    E  S S E  S S E   
------------------------------|-------------------|-------------------|
------------------------------|-------------------|-------------------|
------------------------------|-------------------|-------------------|
--0--0-0-1--0-0-0--0-0-1--0-0-|--0--0-0-1-1-1-1-0-|--0--0-0-1--0-0-0--|


  E  S S E  S S E     E  S S E  S S E  S S E  S S    E  S S S S S S S  
-------------------|------------------------------|-------------------|
-------------------|------------------------------|-------------------|
-------------------|------------------------------|-------------------|
--0--0-0-1--0-0-0--|--0--0-0-1--0-0-0--0-0-1--0-0-|--0--0-0-1-1-1-1-0-|


  E  S S E  S S E     E  S S E  S S E     E  S S E  S S E  S S E  S S  
-------------------|-------------------|------------------------------|
-------------------|-------------------|------------------------------|
-------------------|-------------------|------------------------------|
--0--0-0-1--0-0-0--|--0--0-0-1--0-0-0--|--0--0-0-1--0-0-0--0-0-1--0-0-|


  E  S S S S S S S    E  E  E  E  E  E  E  E     E  E  E  E  E  E  E  E   
-------------------|--------------x--x--x--x--|--------------x--x--x--x--|
-------------------|--------------x--x--x--x--|--------------x--x--x--x--|
-------------------|--------------x--x--x--x--|--------------x--x--x--x--|
--0--0-0-1-1-1-1-0-|--0--0--0--0--x--x--x--x--|--0--0--0--0--x--x--x--x--|


  E  E  E  E  E  E  E  E     E  E  E  E  E  E  E  E   
--------------x--x--x--x--|--------------------------|
--------------x--x--x--x--|--------------------------|
--------------x--x--x--x--|--------------------------|
--3--3--3--3--x--x--x--x--|--3--3--3--3--5--5--5--5--|


  E  E  E  E  E  E  E  E     E  E  E  E  E  E  E  E   
--------------x--x--x--x--|--------------x--x--x--x--|
--------------x--x--x--x--|--------------x--x--x--x--|
--------------x--x--x--x--|--------------x--x--x--x--|
--0--0--0--0--x--x--x--x--|--0--0--0--0--x--x--x--x--|


  E  E  E  E  E  E  E  E     E  E  E  E  E  E  E  E   
--------------x--x--x--x--|--------------------------|
--------------x--x--x--x--|--------------------------|
--------------x--x--x--x--|--------------------------|
--3--3--3--3--x--x--x--x--|--3--3--3--3--1--1--1--1--|


  E  E  E  E  E  E  E  E     E  E  E  E  E  E  E  E   
--------------x--x--x--x--|--------------x--x--x--x--|
--------------x--x--x--x--|--------------x--x--x--x--|
--------------x--x--x--x--|--------------x--x--x--x--|
--0--0--0--0--x--x--x--x--|--0--0--0--0--x--x--x--x--|


  E  E  E  E  E  E  E  E     E  E  E  E  E  E  E  E   
--------------x--x--x--x--|--------------------------|
--------------x--x--x--x--|--------------------------|
--------------x--x--x--x--|--------------------------|
--3--3--3--3--x--x--x--x--|--3--3--3--3--5--5--5--5--|


  E  E  E  E  E  E  E  E     E  E  E  E  E  E  E  E   
--------------x--x--x--x--|--------------x--x--x--x--|
--------------x--x--x--x--|--------------x--x--x--x--|
--------------x--x--x--x--|--------------x--x--x--x--|
--0--0--0--0--x--x--x--x--|--0--0--0--0--x--x--x--x--|


  E  E  E  E  E  E  E  E     E  E  E  E  E  E  E  E   
--------------x--x--x--x--|--------------------------|
--------------x--x--x--x--|--------------------------|
--------------x--x--x--x--|--------------------------|
--3--3--3--3--x--x--x--x--|--3--3--3--3--1--1--1--1--|


  E  E  E  E  E  E  E  E     E  E  E  E  E  E  E  E   
--------------------------|--------------------------|
--------------------------|--3--3--3--3--5--5--5--5--|
--3--3--3--3--5--5--5--5--|--------------------------|
--------------------------|--------------------------|


  E  E  E  E  E  E  E  E     E  E  E  E  E  E  E  E   
--------------------------|--------------------------|
--------------------------|--1--1--1--1--------------|
--2--2--2--2--2--2--2--2--|--------------1--1--1--1--|
--------------------------|--------------------------|


  E  E  E  E  E  E  E  E     E  E  E  E  E  E  E  E   
--------------------------|--------------------------|
--------------------------|--3--3--3--3--5--5--5--5--|
--3--3--3--3--5--5--5--5--|--------------------------|
--------------------------|--------------------------|


  E  E  E  E  E  E  E  E     E  E  E  E  E  E  E  E   
--------------------------|--------------------------|
--------------------------|--------------------------|
--2--2--2--2--2--2--2--2--|--2--2--2--2--2--2--2--2--|
--------------------------|--------------------------|


  E  E  E  E  E  E  E  E     E  E  E  E  E  E  E  E   
--------------------------|--------------------------|
--1--1--1--1--1--1--1--1--|--------------------------|
--------------------------|--1--1--1--1--1--1--1--1--|
--------------------------|--------------------------|


  E  E  E  E  E  E  E  E     E  E  E  E  E  E  E  E   
--------------------------|--------------------------|
--------------------------|--3--3--3--3--5--5--5--5--|
--3--3--3--3--5--5--5--5--|--------------------------|
--------------------------|--------------------------|


  E  E  E  E  E  E  E  E     E  E  E  E  E  E  E  E   
--------------------------|--------------------------|
--------------------------|--1--1--1--1--------------|
--2--2--2--2--2--2--2--2--|--------------1--1--1--1--|
--------------------------|--------------------------|


  E  E  E  E  E  E  E  E     E  E  E  E  E  E  E  E   
--------------------------|--------------------------|
--------------------------|--3--3--3--3--5--5--5--5--|
--3--3--3--3--5--5--5--5--|--------------------------|
--------------------------|--------------------------|


  E  E  E  E  E  E  E  E     E  E  E  E  E  E  E  E   
--------------------------|--------------------------|
--------------------------|--------------------------|
--2--2--2--2--2--2--2--2--|--2--2--2--2--2--2--2--2--|
--------------------------|--------------------------|


  E  E  E  E  E  E  E  E     W                   E  S S E  S S E  S S E  S S  
--------------------------|-------------------|------------------------------|
--1--1--1--1--1--1--1--1--|-------------------|------------------------------|
--------------------------|--1----------------|------------------------------|
--------------------------|--0----------------|--0--0-0-1--0-0-0--0-0-1--0-0-|


  E  S S E  S S E  S S E  S S    E  S S E  S S E  S S E  S S  
------------------------------|------------------------------|
------------------------------|------------------------------|
------------------------------|------------------------------|
--0--0-0-1--0-0-0--0-0-1--0-0-|--0--0-0-1--0-0-0--0-0-1--0-0-|


  E  S S E  S S E  S S E  S S   
------------------------------||
------------------------------||
------------------------------||
--0--0-0-1--0-0-0--0-0-1--0-0-||

==========Your Sideshow==========

F||-------|-------|-------|-------|-------|-------|-------|-------|
C||-------|-------|-------|-------|-------|-------|-------|-------|
G||-------|-------|-------|-------|-------|-------|-------|-------|
C||-------|-------|-------|-------|-------|-------|-------|-------|


  Q    E  E  S  S  Q       Q    E  E  E   Q       Q    E  E  S  S  Q     
------------------------|----------------------|------------------------|
------------------------|----------------------|------------------------|
------------------------|----------------------|------------------------|
--2----2--2--2h-3p-2----|--2----2--2--4s--5----|--2----2--2--2h-3p-2----|


  Q    E  E  E   Q       Q    E  E  S  S  Q       Q    E  E  E   Q     
----------------------|------------------------|----------------------|
----------------------|------------------------|----------------------|
----------------------|------------------------|----------------------|
--2----2--2--4s--5----|--2----2--2--2h-3p-2----|--2----2--2--4s--5----|


  Q    E  E  S  S  Q       Q    E  E  E   Q       Q    E  E  S  S  Q     
------------------------|----------------------|------------------------|
------------------------|----------------------|------------------------|
------------------------|----------------------|------------------------|
--2----2--2--2h-3p-2----|--2----2--2--4s--5----|--2----2--2--2h-3p-2----|


  Q    E  E  E   Q       Q    E  E  S  S  Q       Q    E  E  E   Q     
----------------------|------------------------|----------------------|
----------------------|------------------------|----------------------|
----------------------|------------------------|----------------------|
--2----2--2--4s--5----|--2----2--2--2h-3p-2----|--2----2--2--4s--5----|


  Q    E  E  S  S  Q       Q    E  E  E   Q        E   E   E   E  E  E  E  E   
------------------------|----------------------|------------------------------|
------------------------|----------------------|------------------------------|
------------------------|----------------------|------------------------------|
--2----2--2--2h-3p-2----|--2----2--2--4s--5----|--11--11--11--11--9--9--9--9--|


  E  E  E  E  E  E  E  E     Q    E  E  S  S  Q       Q    E  E  E   Q     
--------------------------|------------------------|----------------------|
--------------------------|------------------------|----------------------|
--------------------------|------------------------|----------------------|
--7--7--7--7--6--6--6--6--|--2----2--2--2h-3p-2----|--2----2--2--4s--5----|


  Q    E  E  S  S  Q       Q    E  E  E   Q       Q    E  E  S  S  Q     
------------------------|----------------------|------------------------|
------------------------|----------------------|------------------------|
------------------------|----------------------|------------------------|
--2----2--2--2h-3p-2----|--2----2--2--4s--5----|--2----2--2--2h-3p-2----|


  Q    E  E  E   Q        E   E   E   E  E  E  E  E   
----------------------|------------------------------|
----------------------|------------------------------|
----------------------|------------------------------|
--2----2--2--4s--5----|--11--11--11--11--9--9--9--9--|


  E  E  E  E  E  E  E  E     Q    E  E  S  S  Q       Q    E  E  E   Q     
--------------------------|------------------------|----------------------|
--------------------------|------------------------|----------------------|
--------------------------|------------------------|----------------------|
--7--7--7--7--6--6--6--6--|--2----2--2--2h-3p-2----|--2----2--2--4s--5----|


  Q    E  E  S  S  Q       Q    E  E  E   Q       Q    E  E  S  S  Q     
------------------------|----------------------|------------------------|
------------------------|----------------------|------------------------|
------------------------|----------------------|------------------------|
--2----2--2--2h-3p-2----|--2----2--2--4s--5----|--2----2--2--2h-3p-2----|


  Q    E  E  E   Q        E   E   E   E  E  E  E  E   
----------------------|------------------------------|
----------------------|------------------------------|
----------------------|------------------------------|
--2----2--2--4s--5----|--11--11--11--11--9--9--9--9--|


  E  E  E  E  E  E  E  E     E  E  E  E  E  E  E  E   
--------------------------|--------------------------|
--------------------------|--------------------------|
--------------------------|--------------------------|
--7--7--7--7--6--6--6--6--|--2--2--2--2--2--3--2--2--|


  E  E  E  E  E  E  E  E     E  E  E  E  E  E  E  E   
--------------------------|--------------------------|
--------------------------|--------------------------|
--------------------------|--------------------------|
--2--2--2--2--4--4--5--5--|--2--2--2--2--2--3--2--2--|


  E  E  E  E  E  E  E  E     E  E  E  E  E  E  E  E   
--------------------------|--------------------------|
--------------------------|--------------------------|
--------------------------|--------------------------|
--2--2--2--2--4--4--5--5--|--2--2--2--2--2--2--2--2--|


  E  E  E  E  E  E  E  E     E  E  E  E  E  E  E  E   
--------------------------|--------------------------|
--------------------------|--------------------------|
--------------------------|--------------------------|
--2--2--2--2--1--1--1--1--|--0--0--0--0--0--0--0--0--|


  E  E  E  E  E  E  E  E     E  E  E  E  E  E  E  E   
--------------------------|--------------------------|
--------------------------|--------------------------|
--------------------------|--------------------------|
--0--0--0--0--4--4--4--4--|--2--2--2--2--2--2--2--2--|


  E  E  E  E  E  E  E  E      E   E   E   E  E  E  E  E   
--------------------------|------------------------------|
--------------------------|------------------------------|
--------------------------|------------------------------|
--2--2--2--2--1--1--1--1--|--11--11--11--11--9--9--9--9--|


  E  E  E  E  E  E  E  E     E  E  E  E  E  E  E  E   
--------------------------|--------------------------|
--------------------------|--------------------------|
--------------------------|--------------------------|
--7--7--7--7--6--6--6--6--|--2--2--2--2--2--2--2--2--|


  E  E  E  E  E  E  E  E     E  E  E  E  E  E  E  E   
--------------------------|--------------------------|
--------------------------|--------------------------|
--------------------------|--------------------------|
--2--2--2--2--1--1--1--1--|--0--0--0--0--0--0--0--0--|


  E  E  E  E  E  E  E  E     E  E  E  E  E  E  E  E   
--------------------------|--------------------------|
--------------------------|--------------------------|
--------------------------|--------------------------|
--0--0--0--0--4--4--4--4--|--2--2--2--2--2--2--2--2--|


  E  E  E  E  E  E  E  E     W                         Q    E  E  S  S  Q     
--------------------------|-------------------|-----|------------------------|
--------------------------|-------------------|-----|------------------------|
--------------------------|--2----------------|-----|------------------------|
--2--2--2--2--1--1--1--1--|--2----------------|-----|--2----2--2--2h-3p-2----|


  Q    E  E  E   Q       Q    E  E  S  S  Q       Q    E  E  E   Q     
----------------------|------------------------|----------------------|
----------------------|------------------------|----------------------|
----------------------|------------------------|----------------------|
--2----2--2--4s--5----|--2----2--2--2h-3p-2----|--2----2--2--4s--5----|


  Q    E  E  S  S  Q       Q    E  E  E   Q        E   E   E   E  E  E  E  E   
------------------------|----------------------|------------------------------|
------------------------|----------------------|------------------------------|
------------------------|----------------------|------------------------------|
--2----2--2--2h-3p-2----|--2----2--2--4s--5----|--11--11--11--11--9--9--9--9--|


  E  E  E  E  E  E  E  E     Q    E  E  S  S  Q       Q    E  E  E   Q     
--------------------------|------------------------|----------------------|
--------------------------|------------------------|----------------------|
--------------------------|------------------------|----------------------|
--7--7--7--7--6--6--6--6--|--2----2--2--2h-3p-2----|--2----2--2--4s--5----|


  Q    E  E  S  S  Q       Q    E  E  E   Q       Q    E  E  S  S  Q     
------------------------|----------------------|------------------------|
------------------------|----------------------|------------------------|
------------------------|----------------------|------------------------|
--2----2--2--2h-3p-2----|--2----2--2--4s--5----|--2----2--2--2h-3p-2----|


  Q    E  E  E   Q        E   E   E   E  E  E  E  E   
----------------------|------------------------------|
----------------------|------------------------------|
----------------------|------------------------------|
--2----2--2--4s--5----|--11--11--11--11--9--9--9--9--|


  E  E  E  E  E  E  E  E     Q    E  E  S  S  Q       Q    E  E  E   Q     
--------------------------|------------------------|----------------------|
--------------------------|------------------------|----------------------|
--------------------------|------------------------|----------------------|
--7--7--7--7--6--6--6--6--|--2----2--2--2h-3p-2----|--2----2--2--4s--5----|


  Q    E  E  S  S  Q       Q    E  E  E   Q       Q    E  E  S  S  Q     
------------------------|----------------------|------------------------|
------------------------|----------------------|------------------------|
------------------------|----------------------|------------------------|
--2----2--2--2h-3p-2----|--2----2--2--4s--5----|--2----2--2--2h-3p-2----|


  Q    E  E  E   Q        E   E   E   E  E  E  E  E   
----------------------|------------------------------|
----------------------|------------------------------|
----------------------|------------------------------|
--2----2--2--4s--5----|--11--11--11--11--9--9--9--9--|


  E  E  E  E  E  E  E  E     E  E  E  E  E  E  E  E   
--------------------------|--------------------------|
--------------------------|--------------------------|
--------------------------|--------------------------|
--7--7--7--7--6--6--6--6--|--2--2--2--2--2--3--2--2--|


  E  E  E  E  E  E  E  E     E  E  E  E  E  E  E  E   
--------------------------|--------------------------|
--------------------------|--------------------------|
--------------------------|--------------------------|
--2--2--2--2--4--4--5--5--|--2--2--2--2--2--3--2--2--|


  E  E  E  E  E  E  E  E     E  E  E  E  E  E  E  E   
--------------------------|--------------------------|
--------------------------|--------------------------|
--------------------------|--------------------------|
--2--2--2--2--4--4--5--5--|--2--2--2--2--2--2--2--2--|


  E  E  E  E  E  E  E  E     E  E  E  E  E  E  E  E   
--------------------------|--------------------------|
--------------------------|--------------------------|
--------------------------|--------------------------|
--2--2--2--2--1--1--1--1--|--0--0--0--0--0--0--0--0--|


  E  E  E  E  E  E  E  E     E  E  E  E  E  E  E  E   
--------------------------|--------------------------|
--------------------------|--------------------------|
--------------------------|--------------------------|
--0--0--0--0--4--4--4--4--|--2--2--2--2--2--2--2--2--|


  E  E  E  E  E  E  E  E      E   E   E   E  E  E  E  E   
--------------------------|------------------------------|
--------------------------|------------------------------|
--------------------------|------------------------------|
--2--2--2--2--1--1--1--1--|--11--11--11--11--9--9--9--9--|


  E  E  E  E  E  E  E  E     E  E  E  E  E  E  E  E   
--------------------------|--------------------------|
--------------------------|--------------------------|
--------------------------|--------------------------|
--7--7--7--7--6--6--6--6--|--2--2--2--2--2--2--2--2--|


  E  E  E  E  E  E  E  E     E  E  E  E  E  E  E  E   
--------------------------|--------------------------|
--------------------------|--------------------------|
--------------------------|--------------------------|
--2--2--2--2--1--1--1--1--|--0--0--0--0--0--0--0--0--|


  E  E  E  E  E  E  E  E     E  E  E  E  E  E  E  E   
--------------------------|--------------------------|
--------------------------|--------------------------|
--------------------------|--------------------------|
--0--0--0--0--4--4--4--4--|--2--2--2--2--2--2--2--2--|


  E  E  E  E  E  E  E  E     W                         Q    E  E  S  S  Q     
--------------------------|-------------------|-----|------------------------|
--------------------------|-------------------|-----|------------------------|
--------------------------|--2----------------|-----|------------------------|
--2--2--2--2--1--1--1--1--|--2----------------|-----|--2----2--2--2h-3p-2----|


  Q    E  E  E   Q       Q    E  E  S  S  Q       Q    E  E  E   Q     
----------------------|------------------------|----------------------|
----------------------|------------------------|----------------------|
----------------------|------------------------|----------------------|
--2----2--2--4s--5----|--2----2--2--2h-3p-2----|--2----2--2--4s--5----|


  E  E  E  E  E  E  E  E     E  E  E  E  E   H         
--------------------------|---------------------------|
--------------------------|---------------------------|
--------------------------|---------------------------|
--2--2-----2--2--2-----2--|--2--2-----2--4s--5--------|


  E  E  E  E  E  E  E  E     E  E  E  E  E   H           Q    E  E  S  S  Q     
--------------------------|---------------------------|------------------------|
--------------------------|---------------------------|------------------------|
--------------------------|---------------------------|------------------------|
--2--2-----2--2--2-----2--|--2--2-----2--4s--5--------|--2----2--2--2h-3p-2----|


  Q    E  E  E   Q       Q    E  E  S  S  Q       Q    E  E  E   Q     
----------------------|------------------------|----------------------|
----------------------|------------------------|----------------------|
----------------------|------------------------|----------------------|
--2----2--2--4s--5----|--2----2--2--2h-3p-2----|--2----2--2--4s--5----|


  E  E  E  E  E  E  E  E     E  E  E  E  E   H         
--------------------------|---------------------------|
--------------------------|---------------------------|
--------------------------|---------------------------|
--2--2-----2--2--2-----2--|--2--2-----2--4s--5--------|


  E  E  E  E  E  E  E  E     E  E  E  E  E   H         
--------------------------|---------------------------|
--------------------------|---------------------------|
--------------------------|---------------------------|
--2--2-----2--2--2-----2--|--2--2-----2--4s--5--------|


  E  E  E  E  E  E  E  E     E  E  E  E  E  E  E  E   
--------------------------|--------------------------|
--------------------------|--------------------------|
--------------------------|--------------------------|
--8--8--8--8--8--8--8--8--|--5--5--5--5--5--5--5--5--|


  E  E  E  E  E  E  E  E     E  E  E  E  E  E  E  E   
--------------------------|--------------------------|
--------------------------|--------------------------|
--------------------------|--------------------------|
--3--3--3--3--3--3--3--3--|--0--0--0--0--1--1--1--1--|


  E  E  E  E  E  E  E  E     E  E  E  E  E  E  E  E   
--------------------------|--------------------------|
--------------------------|--------------------------|
--------------------------|--------------------------|
--8--8--8--8--8--8--8--8--|--5--5--5--5--5--5--5--5--|


  E  E  E  E  E  E  E  E     E  E  E  E  E  E  E  E   
--------------------------|--------------------------|
--------------------------|--------------------------|
--------------------------|--------------------------|
--3--3--3--3--3--3--3--3--|--0--0--0--0--1--1--1--1--|


  E  E  E  E  E  E  E  E     E  E  E  E  E  E  E  E   
--------------------------|--------------------------|
--------------------------|--------------------------|
--------------------------|--------------------------|
--8--8--8--8--8--8--8--8--|--5--5--5--5--5--5--5--5--|


  E  E  E  E  E  E  E  E     E  E  E  E  E  E  E  E   
--------------------------|--------------------------|
--------------------------|--------------------------|
--------------------------|--------------------------|
--3--3--3--3--3--3--3--3--|--0--0--0--0--1--1--1--1--|


  E  E  E  E  E  E  E  E     E  E  E  E  E  E  E  E   
--------------------------|--------------------------|
--------------------------|--------------------------|
--------------------------|--------------------------|
--8--8--8--8--8--8--8--8--|--5--5--5--5--5--5--5--5--|


  E  E  E  E  E  E  E  E     E  E  E  E  E  E  E  E   
--------------------------|--------------------------|
--------------------------|--------------------------|
--------------------------|--------------------------|
--3--3--3--3--3--3--3--3--|--0--0--0--0--1--1--1--1--|


  E  E  E  E  E  E  E  E     E  E  E  E  E  E  E  E   
--------------------------|--------------------------|
--------------------------|--------------------------|
--------------------------|--------------------------|
--2--2--2--2--2--2--2--2--|--2--2--2--2--1--1--1--1--|


  E  E  E  E  E  E  E  E     E  E  E  E  E  E  E  E   
--------------------------|--------------------------|
--------------------------|--------------------------|
--------------------------|--------------------------|
--0--0--0--0--0--0--0--0--|--0--0--0--0--4--4--4--4--|


  E  E  E  E  E  E  E  E     E  E  E  E  E  E  E  E   
--------------------------|--------------------------|
--------------------------|--------------------------|
--------------------------|--------------------------|
--2--2--2--2--2--2--2--2--|--2--2--2--2--1--1--1--1--|


   E   E   E   E  E  E  E  E     E  E  E  E  E  E  E  E   
------------------------------|--------------------------|
------------------------------|--------------------------|
------------------------------|--------------------------|
--11--11--11--11--9--9--9--9--|--7--7--7--7--6--6--6--6--|


  E  E  E  E  E  E  E  E     E  E  E  E  E  E  E  E   
--------------------------|--------------------------|
--------------------------|--------------------------|
--------------------------|--------------------------|
--2--2--2--2--2--2--2--2--|--2--2--2--2--1--1--1--1--|


  E  E  E  E  E  E  E  E     E  E  E  E  E  E  E  E   
--------------------------|--------------------------|
--------------------------|--------------------------|
--------------------------|--------------------------|
--0--0--0--0--0--0--0--0--|--0--0--0--0--4--4--4--4--|


  E  E  E  E  E  E  E  E     E  E  E  E  E  E  E  E   
--------------------------|--------------------------|
--------------------------|--------------------------|
--------------------------|--------------------------|
--2--2--2--2--2--2--2--2--|--2--2--2--2--1--1--1--1--|


  E  E  E  E  E  E  E  E     E  E  E  E  E  E  E  E   
--------------------------|--------------------------|
--------------------------|--------------------------|
--------------------------|--------------------------|
--5--5--7--5--5--5--4--5--|--5--5--7--5--5--5--4--5--|


  E  E  E  E  E  E  E  E     E  E  E  E  E  E  E  E    
--------------------------|--------------------------||
--------------------------|--------------------------||
--------------------------|--------------------------||
--5--5--7--5--5--5--4--5--|--5--5--7--5--5--5--4--5--||

==========My Life==========

     E  E  E  E  E  E  E  E     E  E  E  E  E  E  E  E   
F||--------------------------|--------------------------|
C||--------------------------|--------------------------|
G||--------------2--2--2--2--|--------------5--5--5--5--|
C||--0--0--0--0--------------|--0--0--0--0--------------|


  E  E  E  E  E  E  E  E     E  E  E  E  E  E  E  E   
--------------------------|--------------------------|
--------------------------|--------------------------|
--------------3--3--3--3--|--------------3--3--3--3--|
--0--0--0--0--------------|--0--0--0--0--------------|


  E  E  E  E  E  E  E  E     E  E  E  E  E  E  E  E   
--------------------------|--------------------------|
--------------------------|--------------------------|
--------------2--2--2--2--|--------------2--2--2--2--|
--0--0--0--0--------------|--0--0--0--0--------------|


  E  E  E  E  E  E  E  E     E  E  E  E  E  E  E  E   
--------------------------|--------------------------|
--------------------------|--------------------------|
--------------2--2--2--2--|--------------2--2--2--2--|
--0--0--0--0--------------|--0--0--0--0--------------|


  E  E  E  E  E  E  E  E     E  E  E  E  E  E  E  E   
--------------------------|--------------------------|
--------------------------|--------------------------|
--------------2--2--2--2--|--------------5--5--5--5--|
--0--0--0--0--------------|--0--0--0--0--------------|


  E  E  E  E  E  E  E  E     E  E  E  E  E  E  E  E   
--------------------------|--------------------------|
--------------------------|--------------------------|
--------------3--3--3--3--|--------------3--3--3--3--|
--0--0--0--0--------------|--0--0--0--0--------------|


  E  E  E  E  E  E  E  E     E  E  E  E  E  E  E  E   
--------------------------|--------------------------|
--------------------------|--------------------------|
--------------2--2--2--2--|--------------2--2--2--2--|
--0--0--0--0--------------|--0--0--0--0--------------|


  E  E  E  E  E  E  E  E     E  E  E  E  E  E  E  E   
--------------------------|--------------------------|
--------------------------|--------------------------|
--------------2--2--2--2--|--------------2--2--2--2--|
--0--0--0--0--------------|--0--0--0--0--------------|


  E  E  E  E  E  E  E  E     E  E  E  E  E  E  E  E   
--------------------------|--------------------------|
--------------------------|--------------------------|
--------------------------|--------------------------|
--2--2--0--2--7--7--7--7--|--7--7--7--7--7--7--7--7--|


  E  E  E  E  E  E  E  E     E  E  E  E  E  E  E  E   
--------------------------|--------------------------|
--------------------------|--------------------------|
--------------5--5--5--5--|--------------------------|
--5--5--5--5--------------|--5--5--5--5--4--4--4--4--|


  E  E  E  E  E  E  E  E     E  E  E  E  E  E  E  E   
--------------------------|--------------------------|
--------------------------|--------------------------|
--------------------------|--------------------------|
--3--3--3--3--3--3--3--3--|--3--3--3--3--2--2--2--2--|


  E  E  E  E  E  E  E  E     E  E  E  E  E  E  E  E   
--------------------------|--------------------------|
--------------------------|--------------------------|
--------------------------|--------------------------|
--0--0--0--0--1--1--0--0--|--0--0--0--0--1--1--0--0--|


  E  E  E  E  E  E  E  E     E  E  E  E  E  E  E  E   
--------------------------|--------------------------|
--------------------------|--------------------------|
--------------------------|--------------------------|
--2--2--0--2--7--7--7--7--|--7--7--7--7--7--7--7--7--|


  E  E  E  E  E  E  E  E     E  E  E  E  E  E  E  E   
--------------------------|--------------------------|
--------------------------|--------------------------|
--------------5--5--5--5--|--------------------------|
--5--5--5--5--------------|--5--5--5--5--4--4--4--4--|


  E  E  E  E  E  E  E  E     E  E  E  E  E  E  E  E   
--------------------------|--------------------------|
--------------------------|--------------------------|
--------------------------|--------------------------|
--3--3--3--3--3--3--3--3--|--3--3--3--3--2--2--2--2--|


  E  E  E  E  E  E  E  E     E  E  E  E  E  E  E  E   
--------------------------|--------------------------|
--------------------------|--------------------------|
--------------------------|--------------------------|
--0--0--0--0--1--1--0--0--|--0--0--0--0--1--1--0--0--|


  E  E  E  E  E  E  E  E     E  E  E  E  E  E  E  E   
--------------------------|--------------------------|
--------------------------|--------------------------|
--------------------------|--------------------------|
--0--0--0--0--1--1--0--0--|--0--0--0--0--1--1--0--0--|


  E  E  E  E  E  E  E  E     E  E  E  E  E  E  E  E   
--------------------------|--------------------------|
--------------------------|--------------------------|
--------------2--2--2--2--|--------------5--5--5--5--|
--0--0--0--0--------------|--0--0--0--0--------------|


  E  E  E  E  E  E  E  E     E  E  E  E  E  E  E  E   
--------------------------|--------------------------|
--------------------------|--------------------------|
--------------3--3--3--3--|--------------3--3--3--3--|
--0--0--0--0--------------|--0--0--0--0--------------|


  E  E  E  E  E  E  E  E     E  E  E  E  E  E  E  E   
--------------------------|--------------------------|
--------------------------|--------------------------|
--------------2--2--2--2--|--------------2--2--2--2--|
--0--0--0--0--------------|--0--0--0--0--------------|


  E  E  E  E  E  E  E  E     E  E  E  E  E  E  E  E   
--------------------------|--------------------------|
--------------------------|--------------------------|
--------------2--2--2--2--|--------------2--2--2--2--|
--0--0--0--0--------------|--0--0--0--0--------------|


  E  E  E  E  E  E  E  E     E  E  E  E  E  E  E  E   
--------------------------|--------------------------|
--------------------------|--------------------------|
--------------2--2--2--2--|--------------5--5--5--5--|
--0--0--0--0--------------|--0--0--0--0--------------|


  E  E  E  E  E  E  E  E     E  E  E  E  E  E  E  E   
--------------------------|--------------------------|
--------------------------|--------------------------|
--------------3--3--3--3--|--------------3--3--3--3--|
--0--0--0--0--------------|--0--0--0--0--------------|


  E  E  E  E  E  E  E  E     E  E  E  E  E  E  E  E   
--------------------------|--------------------------|
--------------------------|--------------------------|
--------------2--2--2--2--|--------------2--2--2--2--|
--0--0--0--0--------------|--0--0--0--0--------------|


  E  E  E  E  E  E  E  E     E  E  E  E  E  E  E  E   
--------------------------|--------------------------|
--------------------------|--------------------------|
--------------2--2--2--2--|--------------2--2--2--2--|
--0--0--0--0--------------|--0--0--0--0--------------|


  E  E  E  E  E  E  E  E     E  E  E  E  E  E  E  E   
--------------------------|--------------------------|
--------------------------|--------------------------|
--------------------------|--------------------------|
--2--2--0--2--7--7--7--7--|--7--7--7--7--7--7--7--7--|


  E  E  E  E  E  E  E  E     E  E  E  E  E  E  E  E   
--------------------------|--------------------------|
--------------------------|--------------------------|
--------------5--5--5--5--|--------------------------|
--5--5--5--5--------------|--5--5--5--5--4--4--4--4--|


  E  E  E  E  E  E  E  E     E  E  E  E  E  E  E  E   
--------------------------|--------------------------|
--------------------------|--------------------------|
--------------------------|--------------------------|
--3--3--3--3--3--3--3--3--|--3--3--3--3--2--2--2--2--|


  E  E  E  E  E  E  E  E     E  E  E  E  E  E  E  E   
--------------------------|--------------------------|
--------------------------|--------------------------|
--------------------------|--------------------------|
--0--0--0--0--1--1--0--0--|--0--0--0--0--1--1--0--0--|


  E  E  E  E  E  E  E  E     E  E  E  E  E  E  E  E   
--------------------------|--------------------------|
--------------------------|--------------------------|
--------------------------|--------------------------|
--2--2--0--2--7--7--7--7--|--7--7--7--7--7--7--7--7--|


  E  E  E  E  E  E  E  E     E  E  E  E  E  E  E  E   
--------------------------|--------------------------|
--------------------------|--------------------------|
--------------5--5--5--5--|--------------------------|
--5--5--5--5--------------|--5--5--5--5--4--4--4--4--|


  E  E  E  E  E  E  E  E     E  E  E  E  E  E  E  E   
--------------------------|--------------------------|
--------------------------|--------------------------|
--------------------------|--------------------------|
--3--3--3--3--3--3--3--3--|--3--3--3--3--2--2--2--2--|


  E  E  E  E  E  E  E  E     E  E  E  E  E  E  E  E   
--------------------------|--------------------------|
--------------------------|--------------------------|
--------------------------|--------------------------|
--0--0--0--0--1--1--0--0--|--0--0--0--0--1--1--0--0--|


  E  E  E  E  E  E  E  E     E  E  E  E  E  E  E  E   
--------------------------|--------------------------|
--------------------------|--------------------------|
--------------------------|--------------------------|
--0--0--0--0--1--1--0--0--|--0--0--0--0--1--1--0--0--|


  E  E  E  E  E  E  E  E     E  E  E  E  E  E  E  E   
--------------------------|--------------------------|
--------------------------|--------------------------|
--5--------5--5--5-----5--|--5--------5--5--5-----5--|
--------------------------|--------------------------|


  E  E  E  E  E  E  E  E     E  E  E  E  E  E  E  E   
--------------------------|--------------------------|
--------------------------|--------------------------|
--3--------3--3--3-----3--|--3--------3--3--3-----3--|
--------------------------|--------------------------|


  E  E  E  E  E  E  E  E     E  E  E  E  E  E  E  E   
--------------------------|--------------------------|
--------------------------|--------------------------|
--1--------1--1--1-----1--|--1--------1--1--1-----1--|
--------------------------|--------------------------|


  E  E  E  E  E  E  E  E     E  E  E  E  E  E  E  E   
--------------------------|--------------------------|
--------------------------|--------------------------|
--------------------------|--------------------------|
--1--------1--1--1-----1--|--3--------3--3--3-----3--|


  E  E  E  E  E  E  E  E     E  E  E  E  E  E  E  E   
--------------------------|--------------------------|
--------------------------|--------------------------|
--5--------5--5--5-----5--|--5--------5--5--5-----5--|
--------------------------|--------------------------|


  E  E  E  E  E  E  E  E     E  E  E  E  E  E  E  E   
--------------------------|--------------------------|
--------------------------|--------------------------|
--3--------3--3--3-----3--|--3--------3--3--3-----3--|
--------------------------|--------------------------|


  E  E  E  E  E  E  E  E     E  E  E  E  E  E  E  E   
--------------------------|--------------------------|
--------------------------|--------------------------|
--1--------1--1--1-----1--|--1--------1--1--1-----1--|
--------------------------|--------------------------|


  E  E  E  E  E  E  E  E     E  E  E  E  E  E  E  E   
--------------------------|--------------------------|
--------------------------|--------------------------|
--------------------------|--------------------------|
--1--------1--1--1-----1--|--3--------3--3--3-----3--|


  E  E  E  E  E  E  E  E     E  E  E  E  E  E  E  E   
--------------------------|--------------------------|
--------------------------|--------------------------|
--5--5--5--5--5--5--5--5--|--7--7--7--7--7--7--7--7--|
--------------------------|--------------------------|


  E  E  E  E  E  E  E  E     E  E  E  E  E  E  E  E   
--------------------------|--------------------------|
--------------------------|--------------------------|
--8--8--8--8--8--8--8--8--|--8--8--8--8--8--8--8--8--|
--------------------------|--------------------------|


   E   E   E   E   E   E   E   E      E   E   E   E   E   E   E   E   
----------------------------------|----------------------------------|
----------------------------------|----------------------------------|
--10--10--10--10--10--10--10--10--|--12--12--12--12--12--12--12--12--|
----------------------------------|----------------------------------|


   E   E   E   E   E   E   E   E      E   E   E   E   E   E   E   E   
----------------------------------|----------------------------------|
----------------------------------|----------------------------------|
--13--13--13--13--13--13--13--13--|--13--13--13--13--13--13--13--13--|
----------------------------------|----------------------------------|


  E  E  E  E  E  E  E  E     E  E  E  E  E  E  E  E   
--------------------------|--------------------------|
--------------------------|--------------------------|
--------------------------|--------------------------|
--2--2--0--2--7--7--7--7--|--7--7--7--7--7--7--7--7--|


  E  E  E  E  E  E  E  E     E  E  E  E  E  E  E  E   
--------------------------|--------------------------|
--------------------------|--------------------------|
--------------5--5--5--5--|--------------------------|
--5--5--5--5--------------|--5--5--5--5--4--4--4--4--|


  E  E  E  E  E  E  E  E     E  E  E  E  E  E  E  E   
--------------------------|--------------------------|
--------------------------|--------------------------|
--------------------------|--------------------------|
--3--3--3--3--3--3--3--3--|--3--3--3--3--2--2--2--2--|


  E  E  E  E  E  E  E  E     E  E  E  E  E  E  E  E   
--------------------------|--------------------------|
--------------------------|--------------------------|
--------------------------|--------------------------|
--0--0--0--0--1--1--0--0--|--0--0--0--0--1--1--0--0--|


  E  E  E  E  E  E  E  E     E  E  E  E  E  E  E  E   
--------------------------|--------------------------|
--------------------------|--------------------------|
--------------------------|--------------------------|
--2--2--0--2--7--7--7--7--|--7--7--7--7--7--7--7--7--|


  E  E  E  E  E  E  E  E     E  E  E  E  E  E  E  E   
--------------------------|--------------------------|
--------------------------|--------------------------|
--------------5--5--5--5--|--------------------------|
--5--5--5--5--------------|--5--5--5--5--4--4--4--4--|


  E  E  E  E  E  E  E  E     E  E  E  E  E  E  E  E   
--------------------------|--------------------------|
--------------------------|--------------------------|
--------------------------|--------------------------|
--3--3--3--3--3--3--3--3--|--3--3--3--3--2--2--2--2--|


  E  E  E  E  E  E  E  E     E  E  E  E  E  E  E  E   
--------------------------|--------------------------|
--------------------------|--------------------------|
--------------------------|--------------------------|
--0--0--0--0--1--1--0--0--|--0--0--0--0--1--1--0--0--|


  E  E  E  E  E  E  E  E     E  E  E  E  E  E  E  E   
--------------------------|--------------------------|
--------------------------|--------------------------|
--------------------------|--------------------------|
--0--0--0--0--1--1--0--0--|--0--0--0--0--1--1--0--0--|


  E  E  E  E  E  E  E  E     E  E  E  E  E  E  E  E   
--------------------------|--------------------------|
--------------------------|--------------------------|
--------------2--2--2--2--|--------------5--5--5--5--|
--0--0--0--0--------------|--0--0--0--0--------------|


  E  E  E  E  E  E  E  E     E  E  E  E  E  E  E  E   
--------------------------|--------------------------|
--------------------------|--------------------------|
--------------3--3--3--3--|--------------3--3--3--3--|
--0--0--0--0--------------|--0--0--0--0--------------|


  E  E  E  E  E  E  E  E     E  E  E  E  E  E  E  E   
--------------------------|--------------------------|
--------------------------|--------------------------|
--------------2--2--2--2--|--------------2--2--2--2--|
--0--0--0--0--------------|--0--0--0--0--------------|


  E  E  E  E  E  E  E  E     E  E  E  E  E  E  E  E   
--------------------------|--------------------------|
--------------------------|--------------------------|
--------------2--2--2--2--|--------------2--2--2--2--|
--0--0--0--0--------------|--0--0--0--0--------------|


  E  E  E  E  E  E  E  E     E  E  E  E  E  E  E  E   
--------------------------|--------------------------|
--------------------------|--------------------------|
--------------2--2--2--2--|--------------5--5--5--5--|
--0--0--0--0--------------|--0--0--0--0--------------|


  E  E  E  E  E  E  E  E     E  E  E  E  E  E  E  E   
--------------------------|--------------------------|
--------------------------|--------------------------|
--------------3--3--3--3--|--------------3--3--3--3--|
--0--0--0--0--------------|--0--0--0--0--------------|


  E  E  E  E  E  E  E  E     E  E  E  E  E  E  E  E   
--------------------------|--------------------------|
--------------------------|--------------------------|
--------------2--2--2--2--|--------------2--2--2--2--|
--0--0--0--0--------------|--0--0--0--0--------------|


  E  E  E  E  E  E  E  E     E  E  E  E  E  E  E  E    
--------------------------|--------------------------||
--------------------------|--------------------------||
--------------2--2--2--2--|--------------2--2--2--2--||
--0--0--0--0--------------|--0--0--0--0--------------||

==========Love Song==========

                                     S S S S S S S S S S S S S S S S  
F||-------|-------|-------|-------|----------------------------------|
C||-------|-------|-------|-------|----------------------------------|
G||-------|-------|-------|-------|----------------------------------|
C||-------|-------|-------|-------|--4-4-4-4-3-3-3-3-2-2-2-2-3-3-3-3-|


  S S S S S S S S S S S S S S S S    S S S S S S S S S S S S S S S S  
----------------------------------|----------------------------------|
----------------------------------|----------------------------------|
----------------------------------|----------------------------------|
--4-4-4-4-3-3-3-3-2-2-2-2-3-3-3-3-|--4-4-4-4-3-3-3-3-2-2-2-2-3-3-3-3-|


  S S S S S S S S S S S S S S S S    S S S S S S S S S S S S S S S S  
----------------------------------|----------------------------------|
----------------------------------|----------------------------------|
----------------------------------|----------------------------------|
--5-5-5-5-5-5-5-5-7-7-7-7-8-8-8-8-|--4-4-4-4-3-3-3-3-2-2-2-2-3-3-3-3-|


  S S S S S S S S S S S S S S S S    S S S S S S S S S S S S S S S S  
----------------------------------|----------------------------------|
----------------------------------|----------------------------------|
----------------------------------|----------------------------------|
--4-4-4-4-3-3-3-3-2-2-2-2-3-3-3-3-|--4-4-4-4-3-3-3-3-2-2-2-2-3-3-3-3-|


  S S S S S S S S S S S S S S S S    S S S S S S S S S S S S S S S S  
----------------------------------|----------------------------------|
----------------------------------|----------------------------------|
----------------------------------|----------------------------------|
--5-5-5-5-5-5-5-5-7-7-7-7-8-8-8-8-|--4-4-4-4-3-3-3-3-2-2-2-2-3-3-3-3-|


  S S S S S S S S S S S S S S S S    S S S S S S S S S S S S S S S S  
----------------------------------|----------------------------------|
----------------------------------|----------------------------------|
----------------------------------|----------------------------------|
--4-4-4-4-3-3-3-3-2-2-2-2-3-3-3-3-|--4-4-4-4-3-3-3-3-2-2-2-2-3-3-3-3-|


  S S S S S S S S S S S S S S S S    S S S S S S S S S S S S S S S S  
----------------------------------|----------------------------------|
----------------------------------|----------------------------------|
----------------------------------|----------------------------------|
--5-5-5-5-5-5-5-5-7-7-7-7-8-8-8-8-|--4-4-4-4-3-3-3-3-2-2-2-2-3-3-3-3-|


  S S S S S S S S S S S S S S S S    S S S S S S S S S S S S S S S S  
----------------------------------|----------------------------------|
----------------------------------|----------------------------------|
----------------------------------|----------------------------------|
--4-4-4-4-3-3-3-3-2-2-2-2-3-3-3-3-|--4-4-4-4-3-3-3-3-2-2-2-2-3-3-3-3-|


  S S S S S S S S S S S S S S S S    E  E  E  E  E  E  E  E   
----------------------------------|--------------------------|
----------------------------------|--------------------------|
----------------------------------|--------------------------|
--5-5-5-5-5-5-5-5-7-7-7-7-8-8-8-8-|--0--0-----0--0-----0--0--|


  E  E  E  E  E  E  E  E     E  E  E  E  E  E  E  E   
--------------------------|--------------------------|
--------------------------|--------------------------|
--------------------------|--------------------------|
-----0--0--0--1--1--1--1--|--0--0-----0--0-----0--0--|


  E  E  E  E  E  E  E  E     E  E  E  E  E  E  E  E   
--------------------------|--------------------------|
--------------------------|--------------------------|
--------------------------|--------------------------|
-----0--0--0--1--1--1--1--|--0--0-----0--0-----0--0--|


  E  E  E  E  E  E  E  E     E  E  E  E  E  E  E  E   
--------------------------|--------------------------|
--------------------------|--------------------------|
--------------------------|--------------------------|
-----0--0--0--1--1--1--1--|--0--0-----0--0-----0--0--|


  E  E  E  E  E  E  E  E     W                                               
--------------------------|-------------------|-----|-----|-----|-----|-----|
--------------------------|-------------------|-----|-----|-----|-----|-----|
--------------------------|-------------------|-----|-----|-----|-----|-----|
-----0--0--0--1--1--1--1--|--0----------------|-----|-----|-----|-----|-----|


  S S S S S S S S S S S S S S S S    S S S S S S S S S S S S S S S S  
----------------------------------|----------------------------------|
----------------------------------|----------------------------------|
----------------------------------|----------------------------------|
--4-4-4-4-3-3-3-3-2-2-2-2-3-3-3-3-|--4-4-4-4-3-3-3-3-2-2-2-2-3-3-3-3-|


  S S S S S S S S S S S S S S S S    S S S S S S S S S S S S S S S S  
----------------------------------|----------------------------------|
----------------------------------|----------------------------------|
----------------------------------|----------------------------------|
--4-4-4-4-3-3-3-3-2-2-2-2-3-3-3-3-|--5-5-5-5-5-5-5-5-7-7-7-7-8-8-8-8-|


  S S S S S S S S S S S S S S S S    S S S S S S S S S S S S S S S S  
----------------------------------|----------------------------------|
----------------------------------|----------------------------------|
----------------------------------|----------------------------------|
--4-4-4-4-3-3-3-3-2-2-2-2-3-3-3-3-|--4-4-4-4-3-3-3-3-2-2-2-2-3-3-3-3-|


  S S S S S S S S S S S S S S S S    S S S S S S S S S S S S S S S S  
----------------------------------|----------------------------------|
----------------------------------|----------------------------------|
----------------------------------|----------------------------------|
--4-4-4-4-3-3-3-3-2-2-2-2-3-3-3-3-|--5-5-5-5-5-5-5-5-7-7-7-7-8-8-8-8-|


  S S S S S S S S S S S S S S S S    S S S S S S S S S S S S S S S S  
----------------------------------|----------------------------------|
----------------------------------|----------------------------------|
----------------------------------|----------------------------------|
--4-4-4-4-3-3-3-3-2-2-2-2-3-3-3-3-|--4-4-4-4-3-3-3-3-2-2-2-2-3-3-3-3-|


  S S S S S S S S S S S S S S S S    S S S S S S S S S S S S S S S S  
----------------------------------|----------------------------------|
----------------------------------|----------------------------------|
----------------------------------|----------------------------------|
--4-4-4-4-3-3-3-3-2-2-2-2-3-3-3-3-|--5-5-5-5-5-5-5-5-7-7-7-7-8-8-8-8-|


  S S S S S S S S S S S S S S S S    S S S S S S S S S S S S S S S S  
----------------------------------|----------------------------------|
----------------------------------|----------------------------------|
----------------------------------|----------------------------------|
--4-4-4-4-3-3-3-3-2-2-2-2-3-3-3-3-|--4-4-4-4-3-3-3-3-2-2-2-2-3-3-3-3-|


  S S S S S S S S S S S S S S S S    S S S S S S S S S S S S S S S S  
----------------------------------|----------------------------------|
----------------------------------|----------------------------------|
----------------------------------|----------------------------------|
--4-4-4-4-3-3-3-3-2-2-2-2-3-3-3-3-|--5-5-5-5-5-5-5-5-7-7-7-7-8-8-8-8-|


  E  E  E  E  E  E  E  E     E  E  E  E  E  E  E  E   
--------------------------|--------------------------|
--------------------------|--------------------------|
--------------------------|--------------------------|
--0--0-----0--0-----0--0--|-----0--0--0--1--1--1--1--|


  E  E  E  E  E  E  E  E     E  E  E  E  E  E  E  E   
--------------------------|--------------------------|
--------------------------|--------------------------|
--------------------------|--------------------------|
--0--0-----0--0-----0--0--|-----0--0--0--1--1--1--1--|


  E  E  E  E  E  E  E  E     E  E  E  E  E  E  E  E   
--------------------------|--------------------------|
--------------------------|--------------------------|
--------------------------|--------------------------|
--0--0-----0--0-----0--0--|-----0--0--0--1--1--1--1--|


  E  E  E  E  E  E  E  E     E  E  E  E  E  E  E  E   
--------------------------|--------------------------|
--------------------------|--------------------------|
--------------------------|--------------------------|
--0--0-----0--0-----0--0--|-----0--0--0--1--1--1--1--|


  E  E  E  E  E  E  E  E     E  E  E  E  E  E  E  E   
--------------------------|--------------------------|
--------------------------|--------------------------|
--------------------------|--------------------------|
--0--0-----0--0-----0--0--|-----0--0--0--1--1--1--1--|


  E  E  E  E  E  E  E  E     E  E  E  E  E  E  E  E   
--------------------------|--------------------------|
--------------------------|--------------------------|
--------------------------|--------------------------|
--0--0-----0--0-----0--0--|-----0--0--0--1--1--1--1--|


  E  E  E  E  E  E  E  E     E  E  E  E  E  E  E  E   
--------------------------|--------------------------|
--------------------------|--------------------------|
--------------------------|--------------------------|
--0--0-----0--0-----0--0--|-----0--0--0--1--1--1--1--|


  E  E  E  E  E  E  E  E     E  E  E  E  E  E  E  E     W                 
--------------------------|--------------------------|-------------------|
--------------------------|--------------------------|-------------------|
--------------------------|--------------------------|-------------------|
--0--0-----0--0-----0--0--|-----0--0--0--1--1--1--1--|--0----------------|


-------------------|-------------------|-------------------|-------------------|
-------------------|-------------------|-------------------|-------------------|
-------------------|-------------------|-------------------|-------------------|
-------------------|-------------------|-------------------|-------------------|


-------------------|-------------------|-------------------|-------------------|
-------------------|-------------------|-------------------|-------------------|
-------------------|-------------------|-------------------|-------------------|
-------------------|-------------------|-------------------|-------------------|


                      E  E  E  E  E  E  E  E     E  E  E  E  E  E  E  E   
-------------------|--------------------------|--------------------------|
-------------------|--------------------------|--------------------------|
-------------------|--------------------------|--------------------------|
-------------------|--5--0--0--0--2--0--0--0--|--4--0--0--0--3--0--3--0--|


  E  E  E  E  E  E  E  E     E  E  E  E  E  E  E  E   
--------------------------|--------------------------|
--------------------------|--------------------------|
--------------------------|--------------------------|
--5--0--0--0--2--0--0--0--|--4--0--0--0--3--0--3--0--|


  E  E  E  E  E  E  E  E     E  E  E  E  E  E  E  E   
--------------------------|--------------------------|
--------------------------|--------------------------|
--------------------------|--------------------------|
--5--0--0--0--2--0--0--0--|--4--0--0--0--3--0--3--0--|


  E  E  E  E  E  E  E  E     E  E  E  E  E  E  E  E   
--------------------------|--------------------------|
--------------------------|--------------------------|
--------------------------|--------------------------|
--5--0--0--0--2--0--0--0--|--4--0--0--0--3--0--3--0--|


  E  E  E  E  E  E  E  E     E  E  E  E  E  E  E  E   
--------------------------|--------------------------|
--------------------------|--------------------------|
--------------------------|--------------------------|
--5--0--0--0--2--0--0--0--|--4--0--0--0--3--0--3--0--|


  E  E  E  E  E  E  E  E     E  E  E  E  E  E  E  E   
--------------------------|--------------------------|
--------------------------|--------------------------|
--------------------------|--------------------------|
--5--0--0--0--2--0--0--0--|--4--0--0--0--3--0--3--0--|


  E  E  E  E  E  E  E  E     E  E  E  E  E  E  E  E   
--------------------------|--------------------------|
--------------------------|--------------------------|
--------------------------|--------------------------|
--5--0--0--0--2--0--0--0--|--4--0--0--0--3--0--3--0--|


  E  E  E  E  E  E  E  E     E  E  E  E  E  E  E  E     W                       
--------------------------|--------------------------|--0----------------|-----|
--------------------------|--------------------------|--0----------------|-----|
--------------------------|--------------------------|--2----------------|-----|
--5--0--0--0--2--0--0--0--|--4--0--0--0--3--0--3--0--|--3----------------|-----|


  E  E  E  E  E  E  E  E     E  E  E  E  E  E  E  E   
--------------------------|--------------------------|
--------------------------|--------------------------|
--------------------------|--------------------------|
--0--0-----0--0-----0--0--|-----0--0--0--1--1--1--1--|


  E  E  E  E  E  E  E  E     E  E  E  E  E  E  E  E   
--------------------------|--------------------------|
--------------------------|--------------------------|
--------------------------|--------------------------|
--0--0-----0--0-----0--0--|-----0--0--0--1--1--1--1--|


  E  E  E  E  E  E  E  E     E  E  E  E  E  E  E  E   
--------------------------|--------------------------|
--------------------------|--------------------------|
--------------------------|--------------------------|
--0--0-----0--0-----0--0--|-----0--0--0--1--1--1--1--|


  E  E  E  E  E  E  E  E     E  E  E  E  E  E  E  E   
--------------------------|--------------------------|
--------------------------|--------------------------|
--------------------------|--------------------------|
--0--0-----0--0-----0--0--|-----0--0--0--1--1--1--1--|


  E  E  E  E  E  E  E  E     E  E  E  E  E  E  E  E   
--------------------------|--------------------------|
--------------------------|--------------------------|
--------------------------|--------------------------|
--0--0-----0--0-----0--0--|-----0--0--0--1--1--1--1--|


  E  E  E  E  E  E  E  E     E  E  E  E  E  E  E  E   
--------------------------|--------------------------|
--------------------------|--------------------------|
--------------------------|--------------------------|
--0--0-----0--0-----0--0--|-----0--0--0--1--1--1--1--|


  E  E  E  E  E  E  E  E     E  E  E  E  E  E  E  E   
--------------------------|--------------------------|
--------------------------|--------------------------|
--------------------------|--------------------------|
--0--0-----0--0-----0--0--|-----0--0--0--1--1--1--1--|


  E  E  E  E  E  E  E  E     E  E  E  E  E  E  E  E   
--------------------------|--------------------------|
--------------------------|--------------------------|
--------------------------|--------------------------|
--0--0-----0--0-----0--0--|-----0--0--0--1--1--1--1--|


  E  E  E  E  E  E  E  E     E  E  E  E  E  E  E  E   
--------------------------|--------------------------|
--------------------------|--------------------------|
--------------------------|--------------------------|
--5--0--0--0--2--0--0--0--|--4--0--0--0--3--0--3--0--|


  E  E  E  E  E  E  E  E     E  E  E  E  E  E  E  E   
--------------------------|--------------------------|
--------------------------|--------------------------|
--------------------------|--------------------------|
--5--0--0--0--2--0--0--0--|--4--0--0--0--3--0--3--0--|


  E  E  E  E  E  E  E  E     E  E  E  E  E  E  E  E   
--------------------------|--------------------------|
--------------------------|--------------------------|
--------------------------|--------------------------|
--5--0--0--0--2--0--0--0--|--4--0--0--0--3--0--3--0--|


  E  E  E  E  E  E  E  E     E  E  E  E  E  E  E  E   
--------------------------|--------------------------|
--------------------------|--------------------------|
--------------------------|--------------------------|
--5--0--0--0--2--0--0--0--|--4--0--0--0--3--0--3--0--|


  E  E  E  E  E  E  E  E     E  E  E  E  E  E  E  E   
--------------------------|--------------------------|
--------------------------|--------------------------|
--------------------------|--------------------------|
--5--0--0--0--2--0--0--0--|--4--0--0--0--3--0--3--0--|


  E  E  E  E  E  E  E  E     E  E  E  E  E  E  E  E   
--------------------------|--------------------------|
--------------------------|--------------------------|
--------------------------|--------------------------|
--5--0--0--0--2--0--0--0--|--4--0--0--0--3--0--3--0--|


  E  E  E  E  E  E  E  E     E  E  E  E  E  E  E  E   
--------------------------|--------------------------|
--------------------------|--------------------------|
--------------------------|--------------------------|
--5--0--0--0--2--0--0--0--|--4--0--0--0--3--0--3--0--|


  E  E  E  E  E  E  E  E     E  E  E  E  E  E  E  E     W                 
--------------------------|--------------------------|--0----------------|
--------------------------|--------------------------|--0----------------|
--------------------------|--------------------------|--2----------------|
--5--0--0--0--2--0--0--0--|--4--0--0--0--3--0--3--0--|--3----------------|


-----||
-----||
-----||
-----||

==========Communion==========

     E  E  E  E  E  E  E  E     E  E  E  E  E  E  E  E   
F||--------------------------|--------------------------|
C||--------------------------|--------------------------|
G||--------------------------|--------------------------|
C||--0--0--0--0--1--0--1--3--|--0--0--0--0--1--0--1--3--|


  E  E  E  E  E  E  E  E     E  E  E  E  E  E  E  E   
--------------------------|--------------------------|
--------------------------|--------------------------|
--------------------------|--3--3--3--3--------------|
--0--0--0--0--1--0--1--3--|--------------3--3--3--3--|


  E  E  E  E  E  E  E  E     E  E  E  E  E  E  E  E   
--------------------------|--------------------------|
--------------------------|--------------------------|
--------------------------|--------------------------|
--0--0--0--0--1--0--1--3--|--0--0--0--0--1--0--1--3--|


  E  E  E  E  E  E  E  E     E  E  E  E  E  E  E  E   
--------------------------|--------------------------|
--------------------------|--------------------------|
--------------------------|--3--3--3--3--------------|
--0--0--0--0--1--0--1--3--|--------------3--3--3--3--|


  E  E  E  E  E  E  E  E     E  E  E  E  E  E  E  E   
--------------------------|--------------------------|
--------------------------|--------------------------|
--------------------------|--------------------------|
--0--0--0--0--1--0--1--3--|--0--0--0--0--1--0--1--3--|


  E  E  E  E  E  E  E  E     E  E  E  E  E  E  E  E   
--------------------------|--------------------------|
--------------------------|--------------------------|
--------------------------|--3--3--3--3--------------|
--0--0--0--0--1--0--1--3--|--------------3--3--3--3--|


  E  E  E  E  E  E  E  E     E  E  E  E  E  E  E  E   
--------------------------|--------------------------|
--------------------------|--------------------------|
--------------------------|--------------------------|
--0--0--0--0--1--0--1--3--|--0--0--0--0--1--0--1--3--|


  E  E  E  E  E  E  E  E     E  E  E  E  E  E  E  E   
--------------------------|--------------------------|
--------------------------|--------------------------|
--------------------------|--3--3--3--3--------------|
--0--0--0--0--1--0--1--3--|--------------3--3--3--3--|


  E  E  E  E  E  E  E  E     E  E  E  E  E  E  E  E   
--------------------------|--------------------------|
--------------------------|--------------------------|
--------------------------|--------------------------|
--0--0--0--0--1--0--1--3--|--0--0--0--0--1--0--1--3--|


  E  E  E  E  E  E  E  E     E  E  E  E  E  E  E  E   
--------------------------|--------------------------|
--------------------------|--------------------------|
--------------------------|--3--3--3--3--------------|
--0--0--0--0--1--0--1--3--|--------------3--3--3--3--|


  E  E  E  E  E  E  E  E     E  E  E  E  E  E  E  E   
--------------------------|--------------------------|
--------------------------|--------------------------|
--------------------------|--------------------------|
--0--0--0--0--1--0--1--3--|--0--0--0--0--1--0--1--3--|


  E  E  E  E  E  E  E  E     E  E  E  E  E  E  E  E   
--------------------------|--------------------------|
--------------------------|--------------------------|
--------------------------|--3--3--3--3--------------|
--0--0--0--0--1--0--1--3--|--------------3--3--3--3--|


  E  E  E  E  E  E  E  E     E  E  E  E  E  E  E  E   
--------------------------|--------------------------|
--------------------------|--------------------------|
--------------------------|--------------------------|
--0--0--0--0--1--0--1--3--|--0--0--0--0--1--0--1--3--|


  E  E  E  E  E  E  E  E     E  E  E  E  E  E  E  E   
--------------------------|--------------------------|
--------------------------|--------------------------|
--------------------------|--3--3--3--3--------------|
--0--0--0--0--1--0--1--3--|--------------3--3--3--3--|


  E  E  E  E  E  E  E  E     E  E  E  E  E  E  E  E   
--------------------------|--------------------------|
--------------------------|--------------------------|
--------------------------|--------------------------|
--0--0--0--0--1--0--1--3--|--0--0--0--0--1--0--1--3--|


  E  E  E  E  E  E  E  E     E  E  E  E  E  E  E  E   
--------------------------|--------------------------|
--------------------------|--------------------------|
--------------------------|--3--3--3--3--------------|
--0--0--0--0--1--0--1--3--|--------------3--3--3--3--|


  E  E  E  E  E  E  E  E     E  E  E  E  E  E  E  E   
--------------------------|--------------------------|
--------------------------|--------------------------|
--7--7--7--7--7--7--7--7--|--5--5--5--5--5--5--5--5--|
--------------------------|--------------------------|


  E  E  E  E  E  E  E  E     E  E  E  E  E  E  E  E   
--------------------------|--------------------------|
--------------------------|--------------------------|
--------------------------|--------------------------|
--2--0--0--0--2--4--0--0--|--2--0--0--0--2--4--0--0--|


  E  E  E  E  E  E  E  E     E  E  E  E  E  E  E  E   
--------------------------|--------------------------|
--------------------------|--------------------------|
--7--7--7--7--7--7--7--7--|--5--5--5--5--5--5--5--5--|
--------------------------|--------------------------|


  E  E  E  E  E  E  E  E     E  E  E  E  E  E  E  E   
--------------------------|--------------------------|
--------------------------|--------------------------|
--------------------------|--------------------------|
--2--0--0--0--2--4--0--0--|--2--0--0--0--2--4--0--0--|


  E  E  E  E  E  E  E  E     E  E  E  E  E  E  E  E   
--------------------------|--------------------------|
--------------------------|--------------------------|
--7--7--7--7--7--7--7--7--|--5--5--5--5--5--5--5--5--|
--------------------------|--------------------------|


  E  E  E  E  E  E  E  E     E  E  E  E  E  E  E  E   
--------------------------|--------------------------|
--------------------------|--------------------------|
--2--2--2--2--2--2--2--2--|--2--2--2--2--2--2--2--2--|
--------------------------|--------------------------|


  E  E  E  E  E  E  E  E     E  E  E  E  E  E  E  E   
--------------------------|--------------------------|
--------------------------|--------------------------|
--7--7--7--7--7--7--7--7--|--5--5--5--5--5--5--5--5--|
--------------------------|--------------------------|


  E  E  E  E  E  E  E  E     E  E  E  E  E  E  E  E   
--------------------------|--------------------------|
--------------------------|--------------------------|
--------------------------|--------------------------|
--2--0--0--0--2--4--0--0--|--2--0--0--0--2--4--0--0--|


  E  E  E  E  E  E  E  E     E  E  E  E  E  E  E  E   
--------------------------|--------------------------|
--------------------------|--------------------------|
--------------------------|--------------------------|
--2--0--0--0--2--4--0--0--|--2--0--0--0--2--4--0--0--|


  E  E  E  E  E  E  E  E     E  E  E  E  E  E  E  E   
--------------------------|--------------------------|
--------------------------|--------------------------|
--------------------------|--------------------------|
--0--0--0--0--1--0--1--3--|--0--0--0--0--1--0--1--3--|


  E  E  E  E  E  E  E  E     E  E  E  E  E  E  E  E   
--------------------------|--------------------------|
--------------------------|--------------------------|
--------------------------|--3--3--3--3--------------|
--0--0--0--0--1--0--1--3--|--------------3--3--3--3--|


  E  E  E  E  E  E  E  E     E  E  E  E  E  E  E  E   
--------------------------|--------------------------|
--------------------------|--------------------------|
--------------------------|--------------------------|
--0--0--0--0--1--0--1--3--|--0--0--0--0--1--0--1--3--|


  E  E  E  E  E  E  E  E     E  E  E  E  E  E  E  E   
--------------------------|--------------------------|
--------------------------|--------------------------|
--------------------------|--3--3--3--3--------------|
--0--0--0--0--1--0--1--3--|--------------3--3--3--3--|


  E  E  E  E  E  E  E  E     E  E  E  E  E  E  E  E   
--------------------------|--------------------------|
--------------------------|--------------------------|
--------------------------|--------------------------|
--0--0--0--0--1--0--1--3--|--0--0--0--0--1--0--1--3--|


  E  E  E  E  E  E  E  E     E  E  E  E  E  E  E  E   
--------------------------|--------------------------|
--------------------------|--------------------------|
--------------------------|--3--3--3--3--------------|
--0--0--0--0--1--0--1--3--|--------------3--3--3--3--|


  E  E  E  E  E  E  E  E     E  E  E  E  E  E  E  E   
--------------------------|--------------------------|
--------------------------|--------------------------|
--------------------------|--------------------------|
--0--0--0--0--1--0--1--3--|--0--0--0--0--1--0--1--3--|


  E  E  E  E  E  E  E  E     E  E  E  E  E  E  E  E   
--------------------------|--------------------------|
--------------------------|--------------------------|
--------------------------|--3--3--3--3--------------|
--0--0--0--0--1--0--1--3--|--------------3--3--3--3--|


  E  E  E  E  E  E  E  E     E  E  E  E  E  E  E  E   
--------------------------|--------------------------|
--------------------------|--------------------------|
--------------------------|--------------------------|
--0--0--0--0--1--0--1--3--|--0--0--0--0--1--0--1--3--|


  E  E  E  E  E  E  E  E     E  E  E  E  E  E  E  E   
--------------------------|--------------------------|
--------------------------|--------------------------|
--------------------------|--3--3--3--3--------------|
--0--0--0--0--1--0--1--3--|--------------3--3--3--3--|


  E  E  E  E  E  E  E  E     E  E  E  E  E  E  E  E   
--------------------------|--------------------------|
--------------------------|--------------------------|
--------------------------|--------------------------|
--0--0--0--0--1--0--1--3--|--0--0--0--0--1--0--1--3--|


  E  E  E  E  E  E  E  E     E  E  E  E  E  E  E  E   
--------------------------|--------------------------|
--------------------------|--------------------------|
--------------------------|--3--3--3--3--------------|
--0--0--0--0--1--0--1--3--|--------------3--3--3--3--|


  E  E  E  E  E  E  E  E     E  E  E  E  E  E  E  E   
--------------------------|--------------------------|
--------------------------|--------------------------|
--7--7--7--7--7--7--7--7--|--5--5--5--5--5--5--5--5--|
--------------------------|--------------------------|


  E  E  E  E  E  E  E  E     E  E  E  E  E  E  E  E   
--------------------------|--------------------------|
--------------------------|--------------------------|
--------------------------|--------------------------|
--2--0--0--0--2--4--0--0--|--2--0--0--0--2--4--0--0--|


  E  E  E  E  E  E  E  E     E  E  E  E  E  E  E  E   
--------------------------|--------------------------|
--------------------------|--------------------------|
--7--7--7--7--7--7--7--7--|--5--5--5--5--5--5--5--5--|
--------------------------|--------------------------|


  E  E  E  E  E  E  E  E     E  E  E  E  E  E  E  E   
--------------------------|--------------------------|
--------------------------|--------------------------|
--------------------------|--------------------------|
--2--0--0--0--2--4--0--0--|--2--0--0--0--2--4--0--0--|


  E  E  E  E  E  E  E  E     E  E  E  E  E  E  E  E   
--------------------------|--------------------------|
--------------------------|--------------------------|
--7--7--7--7--7--7--7--7--|--5--5--5--5--5--5--5--5--|
--------------------------|--------------------------|


  E  E  E  E  E  E  E  E     E  E  E  E  E  E  E  E   
--------------------------|--------------------------|
--------------------------|--------------------------|
--2--2--2--2--2--2--2--2--|--2--2--2--2--2--2--2--2--|
--------------------------|--------------------------|


  E  E  E  E  E  E  E  E     E  E  E  E  E  E  E  E   
--------------------------|--------------------------|
--------------------------|--------------------------|
--7--7--7--7--7--7--7--7--|--5--5--5--5--5--5--5--5--|
--------------------------|--------------------------|


  E  E  E  E  E  E  E  E     E  E  E  E  E  E  E  E   
--------------------------|--------------------------|
--------------------------|--------------------------|
--------------------------|--------------------------|
--2--0--0--0--2--4--0--0--|--2--0--0--0--2--4--0--0--|


  E  E  E  E  E  E  E  E     E  E  E  E  E  E  E  E   
--------------------------|--------------------------|
--------------------------|--------------------------|
--------------------------|--------------------------|
--2--0--0--0--2--4--0--0--|--2--0--0--0--2--4--0--0--|


  E  E  E  E  E  E  E  E     E  E  E  E  E  E  E  E   
--------------------------|--------------------------|
--------------------------|--------------------------|
--------------------------|--------------------------|
--5--5--5--5--5--5--5--5--|--7--7--7--7--7--7--7--7--|


  E  E  E  E  E  E  E  E     E  E  E  E  E  E  E  E   
--------------------------|--------------------------|
--------------------------|--------------------------|
--------------------------|--------------------------|
--3--3--3--3--3--3--3--3--|--1--1--1--1--0--0--0--0--|


  E  E  E  E  E  E  E  E     E  E  E  E  E  E  E  E   
--------------------------|--------------------------|
--------------------------|--------------------------|
--------------------------|--------------------------|
--2--0--0--0--2--4--0--0--|--2--0--0--0--2--4--0--0--|


  E  E  E  E  E  E  E  E     E  E  E  E  E  E  E  E   
--------------------------|--------------------------|
--------------------------|--------------------------|
--------------------------|--------------------------|
--2--0--0--0--2--4--0--0--|--2--0--0--0--2--4--0--0--|


  E  E  E  E  E  E  E  E     E  E  E  E  E  E  E  E   
--------------------------|--------------------------|
--------------------------|--------------------------|
--------------------------|--------------------------|
--5--5--5--5--5--5--5--5--|--7--7--7--7--7--7--7--7--|


  E  E  E  E  E  E  E  E     E  E  E  E  E  E  E  E   
--------------------------|--------------------------|
--------------------------|--------------------------|
--------------------------|--------------------------|
--3--3--3--3--3--3--3--3--|--1--1--1--1--0--0--0--0--|


  E  E  E  E  E  E  E  E     E  E  E  E  E  E  E  E   
--------------------------|--------------------------|
--------------------------|--------------------------|
--------------------------|--------------------------|
--2--0--0--0--2--4--0--0--|--2--0--0--0--2--4--0--0--|


  E  E  E  E  E  E  E  E     E  E  E  E  E  E  E  E   
--------------------------|--------------------------|
--------------------------|--------------------------|
--------------------------|--------------------------|
--2--0--0--0--2--4--0--0--|--2--0--0--0--2--4--0--0--|


  E  E  E  E  E  E  E  E     E  E  E  E  E  E  E  E   
--------------------------|--------------------------|
--------------------------|--------------------------|
--------------------------|--------------------------|
--5--5--5--5--5--5--5--5--|--7--7--7--7--7--7--7--7--|


  E  E  E  E  E  E  E  E     E  E  E  E  E  E  E  E   
--------------------------|--------------------------|
--------------------------|--------------------------|
--------------------------|--------------------------|
--3--3--3--3--3--3--3--3--|--1--1--1--1--0--0--0--0--|


  E  E  E  E  E  E  E  E     E  E  E  E  E  E  E  E   
--------------------------|--------------------------|
--------------------------|--------------------------|
--------------------------|--------------------------|
--2--0--0--0--2--4--0--0--|--2--0--0--0--2--4--0--0--|


  E  E  E  E  E  E  E  E     E  E  E  E  E  E  E  E   
--------------------------|--------------------------|
--------------------------|--------------------------|
--------------------------|--------------------------|
--2--0--0--0--2--4--0--0--|--2--0--0--0--2--4--0--0--|


  E  E  E  E  E  E  E  E     E  E  E  E  E  E  E  E   
--------------------------|--------------------------|
--------------------------|--------------------------|
--------------------------|--------------------------|
--5--5--5--5--5--5--5--5--|--7--7--7--7--7--7--7--7--|


  E  E  E  E  E  E  E  E     E  E  E  E  E  E  E  E   
--------------------------|--------------------------|
--------------------------|--------------------------|
--------------------------|--------------------------|
--3--3--3--3--3--3--3--3--|--1--1--1--1--0--0--0--0--|


  E  E  E  E  E  E  E  E     E  E  E  E  E  E  E  E   
--------------------------|--------------------------|
--------------------------|--------------------------|
--------------------------|--------------------------|
--2--0--0--0--2--4--0--0--|--2--0--0--0--2--4--0--0--|


  E  E  E  E  E  E  E  E     E  E  E  E  E  E  E  E   
--------------------------|--------------------------|
--------------------------|--------------------------|
--------------------------|--------------------------|
--2--0--0--0--2--4--0--0--|--2--0--0--0--2--4--0--0--|


  E  E  E  E  E  E  E  E     E  E  E  E  E  E  E  E   
--------------------------|--------------------------|
--------------------------|--------------------------|
--7--7--7--7--7--7--7--7--|--5--5--5--5--5--5--5--5--|
--------------------------|--------------------------|


  E  E  E  E  E  E  E  E     E  E  E  E  E  E  E  E   
--------------------------|--------------------------|
--------------------------|--------------------------|
--------------------------|--------------------------|
--2--0--0--0--2--4--0--0--|--2--0--0--0--2--4--0--0--|


  E  E  E  E  E  E  E  E     E  E  E  E  E  E  E  E   
--------------------------|--------------------------|
--------------------------|--------------------------|
--7--7--7--7--7--7--7--7--|--5--5--5--5--5--5--5--5--|
--------------------------|--------------------------|


  E  E  E  E  E  E  E  E     E  E  E  E  E  E  E  E   
--------------------------|--------------------------|
--------------------------|--------------------------|
--------------------------|--------------------------|
--2--0--0--0--2--4--0--0--|--2--0--0--0--2--4--0--0--|


  E  E  E  E  E  E  E  E     E  E  E  E  E  E  E  E   
--------------------------|--------------------------|
--------------------------|--------------------------|
--7--7--7--7--7--7--7--7--|--5--5--5--5--5--5--5--5--|
--------------------------|--------------------------|


  E  E  E  E  E  E  E  E     E  E  E  E  E  E  E  E   
--------------------------|--------------------------|
--------------------------|--------------------------|
--2--2--2--2--2--2--2--2--|--2--2--2--2--2--2--2--2--|
--------------------------|--------------------------|


  E  E  E  E  E  E  E  E     E  E  E  E  E  E  E  E   
--------------------------|--------------------------|
--------------------------|--------------------------|
--7--7--7--7--7--7--7--7--|--5--5--5--5--5--5--5--5--|
--------------------------|--------------------------|


  E  E  E  E  E  E  E  E     E  E  E  E  E  E  E  E   
--------------------------|--------------------------|
--------------------------|--------------------------|
--------------------------|--------------------------|
--2--0--0--0--2--4--0--0--|--2--0--0--0--2--4--0--0--|


  E  E  E  E  E  E  E  E     E  E  E  E  E  E  E  E    
--------------------------|--------------------------||
--------------------------|--------------------------||
--------------------------|--------------------------||
--2--0--0--0--2--4--0--0--|--2--0--0--0--2--4--0--0--||

==========Far Cry==========

F||-------|-------|-------|-------|-------|-------|-------|-------|
C||-------|-------|-------|-------|-------|-------|-------|-------|
G||-------|-------|-------|-------|-------|-------|-------|-------|
C||-------|-------|-------|-------|-------|-------|-------|-------|


  E  E  E  E  E  E  E  E     E  E  E  E  E  E  E  E   
--------------------------|--------------------------|
--------------------------|--------------------------|
--------------------------|--------------------------|
--5--5--5--5--5--5--2--2--|--2--2--2--2--2--2--2--2--|


  E  E  E  E  E  E  E  E     E  E  E  E  E  E  E  E   
--------------------------|--------------------------|
--------------------------|--------------------------|
--------------------------|--------------------------|
--4--4--4--4--4--4--1--1--|--1--1--1--1--1--1--1--1--|


  E  E  E  E  E  E  E  E     E  E  E  E  E  E  E  E   
--------------------------|--------------------------|
--------------------------|--------------------------|
--------------------------|--------------------------|
--5--5--5--5--5--5--2--2--|--2--2--2--2--2--2--2--2--|


  E  E  E  E  E  E  E  E     E  E  E  E  E  E  E  E   
--------------------------|--------------------------|
--------------------------|--------------------------|
--------------------------|--------------------------|
--4--4--4--4--4--4--1--1--|--1--1--1--1--1--1--1--1--|


  E  E  E  E  E  E  E  E     E  E  E  E  E  E  E  E   
--------------------------|--------------------------|
--------------------------|--------------------------|
--------------------------|--------------------------|
--5--5--5--5--5--5--2--2--|--2--2--2--2--2--2--2--2--|


  E  E  E  E  E  E  E  E     E  E  E  E  E  E  E  E   
--------------------------|--------------------------|
--------------------------|--------------------------|
--------------------------|--------------------------|
--4--4--4--4--4--4--1--1--|--1--1--1--1--1--1--1--1--|


  E  E  E  E  E  E  E  E     E  E  E  E  E  E  E  E   
--------------------------|--------------------------|
--------------------------|--------------------------|
--------------------------|--------------------------|
--5--5--5--5--5--5--2--2--|--2--2--2--2--2--2--2--2--|


  E  E  E  E  E  E  E  E     E  E  E  E  E  E  E  E   
--------------------------|--------------------------|
--------------------------|--------------------------|
--------------------------|--------------------------|
--4--4--4--4--4--4--1--1--|--1--1--1--1--1--1--1--1--|


  E  E  E  E  E  E  E  E     E  E  E  E  E  E  E  E   
--------------------------|--------------------------|
--------------------------|--------------------------|
--------------------------|--------------------------|
--5--5--5--5--5--5--2--2--|--2--2--2--2--2--2--2--2--|


  E  E  E  E  E  E  E  E     E  E  E  E  E  E  E  E   
--------------------------|--------------------------|
--------------------------|--------------------------|
--------------------------|--------------------------|
--4--4--4--4--4--4--1--1--|--1--1--1--1--1--1--1--1--|


  E  E  E  E  E  E  E  E     E  E  E  E  E  E  E  E   
--------------------------|--------------------------|
--------------------------|--------------------------|
--------------------------|--------------------------|
--5--5--5--5--5--5--2--2--|--2--2--2--2--2--2--2--2--|


  E  E  E  E  E  E  E  E     E  E  E  E  E  E  E  E   
--------------------------|--------------------------|
--------------------------|--------------------------|
--------------------------|--------------------------|
--4--4--4--4--4--4--1--1--|--1--1--1--1--1--1--1--1--|


  E  E  E  E  E  E  E  E     E  E  E  E  E  E  E  E   
--------------------------|--------------------------|
--------------------------|--------------------------|
--------------------------|--------------------------|
--5--5--5--5--5--5--2--2--|--2--2--2--2--2--2--2--2--|


  E  E  E  E  E  E  E  E     E  E  E  E  E  E  E  E   
--------------------------|--------------------------|
--------------------------|--------------------------|
--------------------------|--------------------------|
--4--4--4--4--4--4--1--1--|--1--1--1--1--1--1--1--1--|


  E  E  E  E  E  E  E  E     E  E  E  E  E  E  E  E   
--------------------------|--------------------------|
--------------------------|--------------------------|
--------------------------|--------------------------|
--5--5--5--5--5--5--2--2--|--2--2--2--2--2--2--2--2--|


  E  E  E  E  E  E  E  E     W                                               
--------------------------|-------------------|-----|-----|-----|-----|-----|
--------------------------|-------------------|-----|-----|-----|-----|-----|
--------------------------|-------------------|-----|-----|-----|-----|-----|
--4--4--4--4--4--4--1--1--|--1----------------|-----|-----|-----|-----|-----|


                    E  E  E  E  E  E  E  E     E  E  E  E  E  E  E  E   
-----|-----|-----|--------------------------|--------------------------|
-----|-----|-----|--------------------------|--------------------------|
-----|-----|-----|--------------------------|--------------------------|
-----|-----|-----|--5--5--5--5--5--5--2--2--|--2--2--2--2--2--2--2--2--|


  E  E  E  E  E  E  E  E     E  E  E  E  E  E  E  E   
--------------------------|--------------------------|
--------------------------|--------------------------|
--------------------------|--------------------------|
--4--4--4--4--4--4--1--1--|--1--1--1--1--1--1--1--1--|


  E  E  E  E  E  E  E  E     E  E  E  E  E  E  E  E   
--------------------------|--------------------------|
--------------------------|--------------------------|
--------------------------|--------------------------|
--5--5--5--5--5--5--2--2--|--2--2--2--2--2--2--2--2--|


  E  E  E  E  E  E  E  E     E  E  E  E  E  E  E  E   
--------------------------|--------------------------|
--------------------------|--------------------------|
--------------------------|--------------------------|
--4--4--4--4--4--4--1--1--|--1--1--1--1--1--1--1--1--|


  E  E  E  E  E  E  E  E     E  E  E  E  E  E  E  E   
--------------------------|--------------------------|
--------------------------|--------------------------|
--------------------------|--------------------------|
--5--5--5--5--5--5--2--2--|--2--2--2--2--2--2--2--2--|


  E  E  E  E  E  E  E  E     E  E  E  E  E  E  E  E   
--------------------------|--------------------------|
--------------------------|--------------------------|
--------------------------|--------------------------|
--4--4--4--4--4--4--1--1--|--1--1--1--1--1--1--1--1--|


  E  E  E  E  E  E  E  E     E  E  E  E  E  E  E  E   
--------------------------|--------------------------|
--------------------------|--------------------------|
--------------------------|--------------------------|
--5--5--5--5--5--5--2--2--|--2--2--2--2--2--2--2--2--|


  E  E  E  E  E  E  E  E     E  E  E  E  E  E  E  E   
--------------------------|--------------------------|
--------------------------|--------------------------|
--------------------------|--------------------------|
--4--4--4--4--4--4--1--1--|--1--1--1--1--1--1--1--1--|


  E  E  E  E  E  E  E  E     E  E  E  E  E  E  E  E   
--------------------------|--------------------------|
--------------------------|--------------------------|
--------------------------|--------------------------|
--5--5--5--5--5--5--2--2--|--2--2--2--2--2--2--2--2--|


  E  E  E  E  E  E  E  E     E  E  E  E  E  E  E  E   
--------------------------|--------------------------|
--------------------------|--------------------------|
--------------------------|--------------------------|
--4--4--4--4--4--4--1--1--|--1--1--1--1--1--1--1--1--|


  E  E  E  E  E  E  E  E     E  E  E  E  E  E  E  E   
--------------------------|--------------------------|
--------------------------|--------------------------|
--------------------------|--------------------------|
--5--5--5--5--5--5--2--2--|--2--2--2--2--2--2--2--2--|


  E  E  E  E  E  E  E  E     E  E  E  E  E  E  E  E   
--------------------------|--------------------------|
--------------------------|--------------------------|
--------------------------|--------------------------|
--4--4--4--4--4--4--1--1--|--1--1--1--1--1--1--1--1--|


  E  E  E  E  E  E  E  E     E  E  E  E  E  E  E  E   
--------------------------|--------------------------|
--------------------------|--------------------------|
--------------------------|--------------------------|
--5--5--5--5--5--5--2--2--|--2--2--2--2--2--2--2--2--|


  E  E  E  E  E  E  E  E     E  E  E  E  E  E  E  E   
--------------------------|--------------------------|
--------------------------|--------------------------|
--------------------------|--------------------------|
--4--4--4--4--4--4--1--1--|--1--1--1--1--1--1--1--1--|


  E  E  E  E  E  E  E  E     E  E  E  E  E  E  E  E   
--------------------------|--------------------------|
--------------------------|--------------------------|
--------------------------|--------------------------|
--5--5--5--5--5--5--2--2--|--2--2--2--2--2--2--2--2--|


  E  E  E  E  E  E  E  E     W                                               
--------------------------|-------------------|-----|-----|-----|-----|-----|
--------------------------|-------------------|-----|-----|-----|-----|-----|
--------------------------|-------------------|-----|-----|-----|-----|-----|
--4--4--4--4--4--4--1--1--|--1----------------|-----|-----|-----|-----|-----|


                    E  E  E  E  E  E  E  E     E  E  E  E  E  E  E  E   
-----|-----|-----|--------------------------|--------------------------|
-----|-----|-----|--------------------------|--------------------------|
-----|-----|-----|--------------------------|--------------------------|
-----|-----|-----|--5--5--5--5--5--5--2--2--|--2--2--2--2--2--2--2--2--|


  E  E  E  E  E  E  E  E     E  E  E  E  E  E  E  E   
--------------------------|--------------------------|
--------------------------|--------------------------|
--------------------------|--------------------------|
--4--4--4--4--4--4--1--1--|--1--1--1--1--1--1--1--1--|


  E  E  E  E  E  E  E  E     E  E  E  E  E  E  E  E   
--------------------------|--------------------------|
--------------------------|--------------------------|
--------------------------|--------------------------|
--5--5--5--5--5--5--2--2--|--2--2--2--2--2--2--2--2--|


  E  E  E  E  E  E  E  E     E  E  E  E  E  E  E  E   
--------------------------|--------------------------|
--------------------------|--------------------------|
--------------------------|--------------------------|
--4--4--4--4--4--4--1--1--|--1--1--1--1--1--1--1--1--|


  E  E  E  E  E  E  E  E     E  E  E  E  E  E  E  E   
--------------------------|--------------------------|
--------------------------|--------------------------|
--------------------------|--------------------------|
--5--5--5--5--5--5--2--2--|--2--2--2--2--2--2--2--2--|


  E  E  E  E  E  E  E  E     E  E  E  E  E  E  E  E   
--------------------------|--------------------------|
--------------------------|--------------------------|
--------------------------|--------------------------|
--4--4--4--4--4--4--1--1--|--1--1--1--1--1--1--1--1--|


  E  E  E  E  E  E  E  E     E  E  E  E  E  E  E  E   
--------------------------|--------------------------|
--------------------------|--------------------------|
--------------------------|--------------------------|
--5--5--5--5--5--5--2--2--|--2--2--2--2--2--2--2--2--|


  E  E  E  E  E  E  E  E     E  E  E  E  E  E  E  E   
--------------------------|--------------------------|
--------------------------|--------------------------|
--------------------------|--------------------------|
--4--4--4--4--4--4--1--1--|--1--1--1--1--1--1--1--1--|


  E  E  E  E  E  E  E  E     E  E  E  E  E  E  E  E   
--------------------------|--------------------------|
--------------------------|--------------------------|
--------------------------|--------------------------|
--2--2--2--2--2--2--2--2--|--2--2--2--2--2--2--2--0--|


  E  E  E  E  E  E  E  E     E  E  E  E  E  E  E  E   
--------------------------|--------------------------|
--------------------------|--------------------------|
--------------------------|--------------------------|
--2--2--2--2--2--2--2--2--|--2--2--2--2--2--2--2--0--|


  E  E  E  E  E  E  E  E     E  E  E  E  E  E  E  E   
--------------------------|--------------------------|
--------------------------|--------------------------|
--------------------------|--------------------------|
--2--2--2--2--2--2--2--2--|--2--2--2--2--2--2--2--0--|


  E  E  E  E  E  E  E  E     E  E  E  E  E  E  E  E   
--------------------------|--------------------------|
--------------------------|--------------------------|
--------------------------|--------------------------|
--2--2--2--2--2--2--2--2--|--2--2--2--2--2--2--2--0--|


  E  E  E  E  E  E  E  E     E  E  E  E  E  E  E  E   
--------------------------|--------------------------|
--------------------------|--------------------------|
--------------------------|--------------------------|
--2--2--2--2--2--2--2--2--|--2--2--2--2--2--2--2--0--|


  E  E  E  E  E  E  E  E     E  E  E  E  E  E  E  E   
--------------------------|--------------------------|
--------------------------|--------------------------|
--------------------------|--------------------------|
--2--2--2--2--2--2--2--2--|--2--2--2--2--2--2--2--0--|


  E  E  E  E  E  E  E  E     E  E  E  E  E  E  E  E   
--------------------------|--------------------------|
--------------------------|--------------------------|
--------------------------|--------------------------|
--2--2--2--2--2--2--2--2--|--2--2--2--2--2--2--2--0--|


  E  E  E  E  E  E  E  E     E  E  E  E  E  E  E  E   
--------------------------|--------------------------|
--------------------------|--------------------------|
--------------------------|--------------------------|
--2--2--2--2--2--2--2--2--|--2--2--2--2--2--2--2--0--|


  E  E  E  E  E  E  E  E     E  E  E  E  E  E  E  E   
--------------------------|--------------------------|
--------------------------|--------------------------|
--------------------------|--------------------------|
--2--2--2--2--2--2--2--2--|--2--2--2--2--2--2--2--0--|


  E  E  E  E  E  E  E  E     E  E  E  E  E  E  E  E   
--------------------------|--------------------------|
--------------------------|--------------------------|
--------------------------|--------------------------|
--2--2--2--2--2--2--2--2--|--2--2--2--2--2--2--2--0--|


  E  E  E  E  E  E  E  E     E  E  E  E  E  E  E  E   
--------------------------|--------------------------|
--------------------------|--------------------------|
--------------------------|--------------------------|
--2--2--2--2--2--2--2--2--|--2--2--2--2--2--2--2--0--|


  E  E  E  E  E  E  E  E     E  E  E  E  E  E  E  E   
--------------------------|--------------------------|
--------------------------|--------------------------|
--------------------------|--------------------------|
--2--2--2--2--2--2--2--2--|--2--2--2--2--2--2--2--0--|


  E  E  E  E  E  E  E  E     E  E  E  E  E  E  E  E   
--------------------------|--------------------------|
--------------------------|--------------------------|
--------------------------|--------------------------|
--2--2--2--2--2--2--2--2--|--2--2--2--2--2--2--2--0--|


  E  E  E  E  E  E  E  E     E  E  E  E  E  E  E  E   
--------------------------|--------------------------|
--------------------------|--------------------------|
--------------------------|--------------------------|
--2--2--2--2--2--2--2--2--|--2--2--2--2--2--2--2--0--|


  E  E  E  E  E  E  E  E     E  E  E  E  E  E  E  E   
--------------------------|--------------------------|
--------------------------|--------------------------|
--------------------------|--------------------------|
--2--2--2--2--2--2--2--2--|--2--2--2--2--2--2--2--0--|


  E  E  E  E  E  E  E  E     E  E  E  E  E  E  E  E   
--------------------------|--------------------------|
--------------------------|--------------------------|
--------------------------|--------------------------|
--2--2--2--2--2--2--2--2--|--2--2--2--2--2--2--2--0--|


  E  E  E  E  E  E  E  E     E  E  E  E  E  E  E  E   
--------------------------|--------------------------|
--------------------------|--------------------------|
--------------------------|--------------------------|
--2--2--2--2--2--2--2--2--|--2--2--2--2--2--2--2--0--|


  E  E  E  E  E  E  E  E     E  E  E  E  E  E  E  E   
--------------------------|--------------------------|
--------------------------|--------------------------|
--------------------------|--------------------------|
--2--2--2--2--2--2--2--2--|--2--2--2--2--2--2--2--0--|


  E  E  E  E  E  E  E  E     E  E  E  E  E  E  E  E   
--------------------------|--------------------------|
--------------------------|--------------------------|
--------------------------|--------------------------|
--2--2--2--2--2--2--2--2--|--2--2--2--2--2--2--2--0--|


  E  E  E  E  E  E  E  E     E  E  E  E  E  E  E  E   
--------------------------|--------------------------|
--------------------------|--------------------------|
--------------------------|--------------------------|
--2--2--2--2--2--2--2--2--|--2--2--2--2--2--2--2--0--|


  E  E  E  E  E  E  E  E     E  E  E  E  E  E  E  E   
--------------------------|--------------------------|
--------------------------|--------------------------|
--------------------------|--------------------------|
--2--2--2--2--2--2--2--2--|--2--2--2--2--2--2--2--0--|


  E  E  E  E  E  E  E  E     E  E  E  E  E  E  E  E   
--------------------------|--------------------------|
--------------------------|--------------------------|
--------------------------|--------------------------|
--2--2--2--2--2--2--2--2--|--2--2--2--2--2--2--2--0--|


  E  E  E  E  E  E  E  E     E  E  E  E  E  E  E  E   
--------------------------|--------------------------|
--------------------------|--------------------------|
--------------------------|--------------------------|
--2--2--2--2--2--2--2--2--|--2--2--2--2--2--2--2--0--|


  E  E  E  E  E  E  E  E     E  E  E  E  E  E  E  E    
--------------------------|--------------------------||
--------------------------|--------------------------||
--------------------------|--------------------------||
--2--2--2--2--2--2--2--2--|--2--2--2--2--2--2--2--0--||

==========The Maelstrom Of Life==========

     W                   W                   W                 
F||-------------------|-------------------|-------------------|
C||-------------------|-------------------|-------------------|
G||-------------------|-------------------|-------------------|
C||--0----------------|--3----------------|--5----------------|


  H        Q    Q       W                   W                 
---------------------|-------------------|-------------------|
---------------------|-------------------|-------------------|
-----------7----5----|-------------------|-------------------|
--7------------------|--0----------------|--3----------------|


  W                   H        Q    Q       W                     Q      
-------------------|---------------------|--------------------|---------|
-------------------|---------------------|--------------------|---------|
-------------------|-----------7----5----|--5s----------------|--(5)----|
--5----------------|--7------------------|--5s----------------|--(5)----|


  S E  S Q    S E  S Q       S E  S Q    Q    Q       S E  S Q    S E  S Q     
--------------------------|------------------------|--------------------------|
--------------------------|------------------------|--------------------------|
--------------------------|------------------------|--------------------------|
--0-0--0-1----0-0--0-1----|--0-0--0-1----3----2----|--0-0--0-1----0-0--0-1----|


  S E  S Q    Q    Q       S E  S Q    S E  S Q       S E  S Q    Q    Q     
------------------------|--------------------------|------------------------|
------------------------|--------------------------|------------------------|
------------------------|--------------------------|------------------------|
--0-0--0-1----3----2----|--0-0--0-1----0-0--0-1----|--0-0--0-1----3----2----|


  S E  S Q    S E  S Q       S E  S Q    Q    Q       E  E  E  E  Q    E   E   
--------------------------|------------------------|--------------------------|
--------------------------|------------------------|--------------------------|
--------------------------|------------------------|--5--2--2--4--2----3p--2--|
--0-0--0-1----0-0--0-1----|--0-0--0-1----3----2----|--------------------------|


  E  E  E  E  Q    E   E     E  E  E  E  Q    E   E   
--------------------------|--------------------------|
--------------------------|--------------------------|
--5--2--2--4--2----3p--2--|--5--2--2--4--2----3p--2--|
--------------------------|--------------------------|


  E  E  E  E  Q    E   E     E  E  E  E  Q    E   E   
--------------------------|--------------------------|
--------------------------|--------------------------|
--5--2--2--4--2----3p--2--|--5--2--2--4--2----3p--2--|
--------------------------|--------------------------|


  E  E  E  E  Q    E   E     E  E  E  E  Q    E   E   
--------------------------|--------------------------|
--------------------------|--------------------------|
--5--2--2--4--2----3p--2--|--5--2--2--4--2----3p--2--|
--------------------------|--------------------------|


  E  E  E  E  Q    E   E     E  E  E  E  Q    E   E   
--------------------------|--------------------------|
--------------------------|--------------------------|
--5--2--2--4--2----3p--2--|--5--2--2--4--2----3p--2--|
--------------------------|--------------------------|


  E  E  E  E  Q    E   E     E  E  E  E  Q    E   E   
--------------------------|--------------------------|
--------------------------|--------------------------|
--5--2--2--4--2----3p--2--|--5--2--2--4--2----3p--2--|
--------------------------|--------------------------|


  E  E  E  E  Q    E   E     E  E  E  E  Q    E   E   
--------------------------|--------------------------|
--------------------------|--------------------------|
--5--2--2--4--2----3p--2--|--5--2--2--4--2----3p--2--|
--------------------------|--------------------------|


  E  E  E  E  Q    E   E     E  E  E  E  Q    E   E   
--------------------------|--------------------------|
--------------------------|--------------------------|
--5--2--2--4--2----3p--2--|--5--2--2--4--2----3p--2--|
--------------------------|--------------------------|


  E  E  E  E  Q    E   E     E  E  E  E  E  E  E  E   
--------------------------|--------------------------|
--------------------------|--------------------------|
--5--2--2--4--2----3p--2--|--------------------------|
--------------------------|--5--5--5--5--0--0--0--0--|


  E  E  E  E  E  E  E  E     E  E  E  E  E  E  E  E   
--------------------------|--------------------------|
--------------------------|--------------------------|
--------------------------|--------------------------|
--5--5--5--5--0--0--0--0--|--5--5--5--5--0--0--0--0--|


  E  E  E  E  E  E  E  E     E  E  E  E  E  E  E  E   
--------------------------|--------------------------|
--------------------------|--------------------------|
--------------------------|--------------------------|
--5--5--5--5--0--0--0--0--|--5--5--5--5--0--0--0--0--|


  E  E  E  E  E  E  E  E     E  E  E  E  E  E  E  E   
--------------------------|--------------------------|
--------------------------|--------------------------|
--------------------------|--------------------------|
--5--5--5--5--0--0--0--0--|--5--5--5--5--0--0--0--0--|


  E  E  E  E  E  E  E  E     W                     W                  
--------------------------|--------------------|---------------------|
--------------------------|--------------------|---------------------|
--------------------------|--3s----------------|--(3)----------------|
--5--5--5--5--0--0--0--0--|--3s----------------|--(3)----------------|


  W                     W                    W                  
--------------------|---------------------|--------------------|
--------------------|---------------------|--------------------|
--1s----------------|--(1)----------------|--5s----------------|
--1s----------------|--(1)----------------|--5s----------------|


   W                    W                     W                  
---------------------|--------------------|---------------------|
---------------------|--------------------|---------------------|
--(5)----------------|--2s----------------|--(2)----------------|
--(5)----------------|--2s----------------|--(2)----------------|


  S E  S Q    S E  S Q       S E  S Q    Q    Q       S E  S Q    S E  S Q     
--------------------------|------------------------|--------------------------|
--------------------------|------------------------|--------------------------|
--------------------------|------------------------|--------------------------|
--0-0--0-1----0-0--0-1----|--0-0--0-1----3----2----|--0-0--0-1----0-0--0-1----|


  S E  S Q    Q    Q       S E  S Q    S E  S Q       S E  S Q    Q    Q     
------------------------|--------------------------|------------------------|
------------------------|--------------------------|------------------------|
------------------------|--------------------------|------------------------|
--0-0--0-1----3----2----|--0-0--0-1----0-0--0-1----|--0-0--0-1----3----2----|


  S E  S Q    S E  S Q       S E  S Q    Q    Q       E  E  E  E  Q    E   E   
--------------------------|------------------------|--------------------------|
--------------------------|------------------------|--------------------------|
--------------------------|------------------------|--5--2--2--4--2----3p--2--|
--0-0--0-1----0-0--0-1----|--0-0--0-1----3----2----|--------------------------|


  E  E  E  E  Q    E   E     E  E  E  E  Q    E   E   
--------------------------|--------------------------|
--------------------------|--------------------------|
--5--2--2--4--2----3p--2--|--5--2--2--4--2----3p--2--|
--------------------------|--------------------------|


  E  E  E  E  Q    E   E     E  E  E  E  Q    E   E   
--------------------------|--------------------------|
--------------------------|--------------------------|
--5--2--2--4--2----3p--2--|--5--2--2--4--2----3p--2--|
--------------------------|--------------------------|


  E  E  E  E  Q    E   E     E  E  E  E  Q    E   E   
--------------------------|--------------------------|
--------------------------|--------------------------|
--5--2--2--4--2----3p--2--|--5--2--2--4--2----3p--2--|
--------------------------|--------------------------|


  E  E  E  E  Q    E   E     E  E  E  E  Q    E   E   
--------------------------|--------------------------|
--------------------------|--------------------------|
--5--2--2--4--2----3p--2--|--5--2--2--4--2----3p--2--|
--------------------------|--------------------------|


  E  E  E  E  Q    E   E     E  E  E  E  Q    E   E   
--------------------------|--------------------------|
--------------------------|--------------------------|
--5--2--2--4--2----3p--2--|--5--2--2--4--2----3p--2--|
--------------------------|--------------------------|


  E  E  E  E  Q    E   E     E  E  E  E  Q    E   E   
--------------------------|--------------------------|
--------------------------|--------------------------|
--5--2--2--4--2----3p--2--|--5--2--2--4--2----3p--2--|
--------------------------|--------------------------|


  E  E  E  E  Q    E   E     E  E  E  E  Q    E   E   
--------------------------|--------------------------|
--------------------------|--------------------------|
--5--2--2--4--2----3p--2--|--5--2--2--4--2----3p--2--|
--------------------------|--------------------------|


  E  E  E  E  Q    E   E     E  E  E  E  E  E  E  E   
--------------------------|--------------------------|
--------------------------|--------------------------|
--5--2--2--4--2----3p--2--|--------------------------|
--------------------------|--5--5--5--5--0--0--0--0--|


  E  E  E  E  E  E  E  E     E  E  E  E  E  E  E  E   
--------------------------|--------------------------|
--------------------------|--------------------------|
--------------------------|--------------------------|
--5--5--5--5--0--0--0--0--|--5--5--5--5--0--0--0--0--|


  E  E  E  E  E  E  E  E     E  E  E  E  E  E  E  E   
--------------------------|--------------------------|
--------------------------|--------------------------|
--------------------------|--------------------------|
--5--5--5--5--0--0--0--0--|--5--5--5--5--0--0--0--0--|


  E  E  E  E  E  E  E  E     E  E  E  E  E  E  E  E   
--------------------------|--------------------------|
--------------------------|--------------------------|
--------------------------|--------------------------|
--5--5--5--5--0--0--0--0--|--5--5--5--5--0--0--0--0--|


  E  E  E  E  E  E  E  E     W                     W                  
--------------------------|--------------------|---------------------|
--------------------------|--------------------|---------------------|
--------------------------|--3s----------------|--(3)----------------|
--5--5--5--5--0--0--0--0--|--3s----------------|--(3)----------------|


  W                     W                    W                  
--------------------|---------------------|--------------------|
--------------------|---------------------|--------------------|
--1s----------------|--(1)----------------|--5s----------------|
--1s----------------|--(1)----------------|--5s----------------|


   W                    W                     W                  
---------------------|--------------------|---------------------|
---------------------|--------------------|---------------------|
--(5)----------------|--2s----------------|--(2)----------------|
--(5)----------------|--2s----------------|--(2)----------------|


  E  E  E  E  E  E  E  E     E  E  E  E  E  E  E  E   
--------------------------|--------------------------|
--------------------------|--------------------------|
--------------------------|--------------------------|
--2--2--2--2--7--7--7--7--|--5--5--5--5--5--5--5--5--|


  E  E  E  E  E  E  E  E     E  E  E  E  E  E  E  E   
--------------------------|--------------------------|
--------------------------|--------------------------|
--------------------------|--------------------------|
--2--2--2--2--7--7--7--7--|--5--5--5--5--5--5--5--5--|


  E  E  E  E  E  E  E  E     E  E  E  E  E  E  E  E   
--------------------------|--------------------------|
--------------------------|--------------------------|
--------------------------|--------------------------|
--2--2--2--2--7--7--7--7--|--5--5--5--5--5--5--5--5--|


  E  E  E  E  E  E  E  E     E  E  E  E  E  E  E  E   
--------------------------|--------------------------|
--------------------------|--------------------------|
--------------------------|--------------------------|
--2--2--2--2--7--7--7--7--|--5--5--5--5--9--9--9--9--|


  E  E  E  E  E  E  E  E     E  E  E  E  E  E  E  E   
--------------------------|--------------------------|
--------------------------|--------------------------|
--------------------------|--------------------------|
--5--5--5--5--3--3--3--3--|--2--2--2--2--0--0--0--0--|


  E  E  E  E  E  E  E  E     E  E  E  E  E  E  E  E   
--------------------------|--------------------------|
--------------------------|--------------------------|
--------------------------|--------------------------|
--5--5--5--5--3--3--3--3--|--2--2--2--2--0--0--0--0--|


  E  E  E  E  E  E  E  E     E  E  E  E  E  E  E  E   
--------------------------|--------------------------|
--------------------------|--------------------------|
--------------------------|--------------------------|
--5--5--5--5--3--3--3--3--|--2--2--2--2--0--0--0--0--|


  E  E  E  E  E  E  E  E     E  E  E  E  E  E  E  E   
--------------------------|--------------------------|
--------------------------|--------------------------|
--------------------------|--------------------------|
--7--7--7--7--5--5--5--5--|--4--4--4--4--9--9--9--9--|


  S E  S Q    S E  S Q       S E  S Q    Q    Q       S E  S Q    S E  S Q     
--------------------------|------------------------|--------------------------|
--------------------------|------------------------|--------------------------|
--------------------------|------------------------|--------------------------|
--0-0--0-1----0-0--0-1----|--0-0--0-1----3----2----|--0-0--0-1----0-0--0-1----|


  S E  S Q    Q    Q       S E  S Q    S E  S Q       S E  S Q    Q    Q     
------------------------|--------------------------|------------------------|
------------------------|--------------------------|------------------------|
------------------------|--------------------------|------------------------|
--0-0--0-1----3----2----|--0-0--0-1----0-0--0-1----|--0-0--0-1----3----2----|


  S E  S Q    S E  S Q       S E  S Q    Q    Q      
--------------------------|------------------------||
--------------------------|------------------------||
--------------------------|------------------------||
--0-0--0-1----0-0--0-1----|--0-0--0-1----3----2----||

==========Unknown==========

F||-------|-------|-------|-------|-------|-------|-------|-------|-------|
C||-------|-------|-------|-------|-------|-------|-------|-------|-------|
G||-------|-------|-------|-------|-------|-------|-------|-------|-------|
C||-------|-------|-------|-------|-------|-------|-------|-------|-------|


                                                          Q    Q     
-------|-------|-------|-------|-------|-------|-------|------------|
-------|-------|-------|-------|-------|-------|-------|------------|
-------|-------|-------|-------|-------|-------|-------|------------|
-------|-------|-------|-------|-------|-------|-------|--0----0----|


  Q    Q       Q    Q       Q    Q       Q    Q       Q    Q       Q    Q     
------------|------------|------------|------------|------------|------------|
------------|------------|------------|------------|------------|------------|
------------|------------|------------|------------|------------|------------|
--0----0----|--0----0----|--0----0----|--0----0----|--0----0----|--0----0----|


  Q    Q       Q    Q       Q    Q       Q    Q       Q    Q       Q    Q     
------------|------------|------------|------------|------------|------------|
------------|------------|------------|------------|------------|------------|
------------|------------|------------|------------|------------|------------|
--0----0----|--0----0----|--0----0----|--0----0----|--0----0----|--0----0----|


  Q    Q       Q    Q       Q    Q       Q    Q       Q    Q       Q    Q     
------------|------------|------------|------------|------------|------------|
------------|------------|------------|------------|------------|------------|
------------|------------|------------|------------|------------|------------|
--0----0----|--0----0----|--0----0----|--0----0----|--0----0----|--0----0----|


  Q    Q       E  E  E  E     E  E  E  E     E  E  E  E     E  E  E  E   
------------|--------------|--------------|--------------|--------------|
------------|--------------|--------------|--------------|--------------|
------------|--------------|--------------|--------------|--------------|
--0----0----|--0--0--0--0--|--0--0--0--0--|--0--0--0--0--|--0--0--0--0--|


  E  E  E  E     E  E  E  E     E  E  E  E     E  E  E  E   
--------------|--------------|--------------|--------------|
--------------|--------------|--------------|--------------|
--------------|--------------|--------------|--------------|
--0--0--0--0--|--0--0--0--0--|--0--0--0--0--|--0--0--0--0--|


  E  E  E  E  E  E  E  E     E  E  E  E  E  E  E  E   
--------------------------|--------------------------|
--------------------------|--------------------------|
--------------------------|--------------------------|
--0--0--0--0--4--4--4--4--|--0--0--0--0--2--2--2--2--|


  E  E  E  E  E  E  E  E     E  E  E  E  E  E  E  E   
--------------------------|--------------------------|
--------------------------|--------------------------|
--------------------------|--------------------------|
--0--0--0--0--0--0--0--0--|--0--0--0--0--2--2--2--2--|


  E  E  E  E  E  E  E  E     E  E  E  E  E  E  E  E   
--------------------------|--------------------------|
--------------------------|--------------------------|
--------------------------|--------------------------|
--0--0--0--0--4--4--4--4--|--0--0--0--0--2--2--2--2--|


  E  E  E  E  E  E  E  E     E  E  E  E  E  E  E  E     Q    Q       Q    Q     
--------------------------|--------------------------|------------|------------|
--------------------------|--------------------------|------------|------------|
--------------------------|--------------------------|------------|------------|
--0--0--0--0--0--0--0--0--|--0--0--0--0--2--2--2--2--|--0----0----|--0----0----|


  Q    Q       Q    Q       Q    Q       Q    Q       Q    Q       Q    Q     
------------|------------|------------|------------|------------|------------|
------------|------------|------------|------------|------------|------------|
------------|------------|------------|------------|------------|------------|
--0----0----|--0----0----|--0----0----|--0----0----|--0----0----|--0----0----|


  Q    Q       Q    Q       Q    Q       Q    Q       Q    Q       Q    Q     
------------|------------|------------|------------|------------|------------|
------------|------------|------------|------------|------------|------------|
------------|------------|------------|------------|------------|------------|
--0----0----|--0----0----|--0----0----|--0----0----|--0----0----|--0----0----|


  Q    Q       Q    Q       Q    Q       Q    Q       Q    Q       Q    Q     
------------|------------|------------|------------|------------|------------|
------------|------------|------------|------------|------------|------------|
------------|------------|------------|------------|------------|------------|
--0----0----|--0----0----|--0----0----|--0----0----|--0----0----|--0----0----|


  E  E  E  E     E  E  E  E     E  E  E  E     E  E  E  E     E  E  E  E   
--------------|--------------|--------------|--------------|--------------|
--------------|--------------|--------------|--------------|--------------|
--------------|--------------|--------------|--------------|--------------|
--0--0--0--0--|--0--0--0--0--|--0--0--0--0--|--0--0--0--0--|--0--0--0--0--|


  E  E  E  E     E  E  E  E     E  E  E  E     E  E  E  E  E  E  E  E   
--------------|--------------|--------------|--------------------------|
--------------|--------------|--------------|--------------------------|
--------------|--------------|--------------|--------------------------|
--0--0--0--0--|--0--0--0--0--|--0--0--0--0--|--0--0--0--0--4--4--4--4--|


  E  E  E  E  E  E  E  E     E  E  E  E  E  E  E  E   
--------------------------|--------------------------|
--------------------------|--------------------------|
--------------------------|--------------------------|
--0--0--0--0--2--2--2--2--|--0--0--0--0--0--0--0--0--|


  E  E  E  E  E  E  E  E     E  E  E  E  E  E  E  E   
--------------------------|--------------------------|
--------------------------|--------------------------|
--------------------------|--------------------------|
--0--0--0--0--2--2--2--2--|--0--0--0--0--4--4--4--4--|


  E  E  E  E  E  E  E  E     E  E  E  E  E  E  E  E   
--------------------------|--------------------------|
--------------------------|--------------------------|
--------------------------|--------------------------|
--0--0--0--0--2--2--2--2--|--0--0--0--0--0--0--0--0--|


  E  E  E  E  E  E  E  E     E  E  E  E  E  E  E  E   
--------------------------|--------------------------|
--------------------------|--------------------------|
--------------------------|--9--9--9--9--9--9--9--9--|
--0--0--0--0--2--2--2--2--|--------------------------|


  E  E  E  E  E  E  E  E     E  E  E  E  E  E  E  E   
--------------------------|--------------------------|
--------------------------|--------------------------|
--6--6--6--6--6--6--6--6--|--4--4--4--4--4--4--4--4--|
--------------------------|--------------------------|


  E  E  E  E  E  E  E  E     E  E  E  E  E  E  E  E   
--------------------------|--------------------------|
--------------------------|--------------------------|
--2--2--2--2--2--2--2--2--|--9--9--9--9--9--9--9--9--|
--------------------------|--------------------------|


  E  E  E  E  E  E  E  E     E  E  E  E  E  E  E  E   
--------------------------|--------------------------|
--------------------------|--------------------------|
--6--6--6--6--6--6--6--6--|--4--4--4--4--4--4--4--4--|
--------------------------|--------------------------|


  E  E  E  E  E  E  E  E     E  E  E  E  E  E  E  E   
--------------------------|--------------------------|
--------------------------|--------------------------|
--2--2--2--2--2--2--2--2--|--9--9--9--9--9--9--9--9--|
--------------------------|--------------------------|


  E  E  E  E  E  E  E  E     E  E  E  E  E  E  E  E   
--------------------------|--------------------------|
--------------------------|--------------------------|
--6--6--6--6--6--6--6--6--|--4--4--4--4--4--4--4--4--|
--------------------------|--------------------------|


  E  E  E  E  E  E  E  E     E  E  E  E  E  E  E  E   
--------------------------|--------------------------|
--------------------------|--------------------------|
--2--2--2--2--2--2--2--2--|--9--9--9--9--9--9--9--9--|
--------------------------|--------------------------|


  E  E  E  E  E  E  E  E     E  E  E  E  E  E  E  E   
--------------------------|--------------------------|
--------------------------|--------------------------|
--6--6--6--6--6--6--6--6--|--4--4--4--4--4--4--4--4--|
--------------------------|--------------------------|


  E  E  E  E  E  E  E  E     E  E  E  E  E  E  E  E   
--------------------------|--------------------------|
--------------------------|--------------------------|
--2--2--2--2--2--2--2--2--|--9--9--9--9--9--9--9--9--|
--------------------------|--------------------------|


  E  E  E  E  E  E  E  E     E  E  E  E  E  E  E  E   
--------------------------|--------------------------|
--------------------------|--------------------------|
--6--6--6--6--6--6--6--6--|--4--4--4--4--4--4--4--4--|
--------------------------|--------------------------|


  E  E  E  E  E  E  E  E     E  E  E  E  E  E  E  E   
--------------------------|--------------------------|
--------------------------|--------------------------|
--2--2--2--2--2--2--2--2--|--9--9--9--9--9--9--9--9--|
--------------------------|--------------------------|


  E  E  E  E  E  E  E  E     E  E  E  E  E  E  E  E   
--------------------------|--------------------------|
--------------------------|--------------------------|
--6--6--6--6--6--6--6--6--|--4--4--4--4--4--4--4--4--|
--------------------------|--------------------------|


  E  E  E  E  E  E  E  E     E  E  E  E  E  E  E  E   
--------------------------|--------------------------|
--------------------------|--------------------------|
--2--2--2--2--2--3--3--3--|--9--9--9--9--9--9--9--9--|
--------------------------|--------------------------|


  E  E  E  E  E  E  E  E     E  E  E  E  E  E  E  E   
--------------------------|--------------------------|
--------------------------|--------------------------|
--6--6--6--6--6--6--6--6--|--4--4--4--4--4--4--4--4--|
--------------------------|--------------------------|


  E  E  E  E  E  E  E  E     E  E  E  E  E  E  E  E   
--------------------------|--------------------------|
--------------------------|--------------------------|
--2--2--2--2--2--2--2--2--|--9--9--9--9--9--9--9--9--|
--------------------------|--------------------------|


  E  E  E  E  E  E  E  E     E  E  E  E  E  E  E  E   
--------------------------|--------------------------|
--------------------------|--------------------------|
--6--6--6--6--6--6--6--6--|--4--4--4--4--4--4--4--4--|
--------------------------|--------------------------|


  E  E  E  E  E  E  E  E     E  E  E  E  E  E  E  E   
--------------------------|--------------------------|
--------------------------|--------------------------|
--2--2--2--2--2--3--3--3--|--------------------------|
--------------------------|--0--0--0--0--4--4--4--4--|


  E  E  E  E  E  E  E  E     E  E  E  E  E  E  E  E   
--------------------------|--------------------------|
--------------------------|--------------------------|
--------------------------|--------------------------|
--0--0--0--0--2--2--2--2--|--0--0--0--0--0--0--0--0--|


  E  E  E  E  E  E  E  E     E  E  E  E  E  E  E  E   
--------------------------|--------------------------|
--------------------------|--------------------------|
--------------------------|--------------------------|
--0--0--0--0--2--2--2--2--|--0--0--0--0--4--4--4--4--|


  E  E  E  E  E  E  E  E     E  E  E  E  E  E  E  E   
--------------------------|--------------------------|
--------------------------|--------------------------|
--------------------------|--------------------------|
--0--0--0--0--2--2--2--2--|--0--0--0--0--0--0--0--0--|


  E  E  E  E  E  E  E  E     E  E  E  E  E  E  E  E   
--------------------------|--------------------------|
--------------------------|--------------------------|
--------------------------|--------------------------|
--0--0--0--0--2--2--2--2--|--0--0--0--0--4--4--4--4--|


  E  E  E  E  E  E  E  E     E  E  E  E  E  E  E  E   
--------------------------|--------------------------|
--------------------------|--------------------------|
--------------------------|--------------------------|
--0--0--0--0--2--2--2--2--|--0--0--0--0--0--0--0--0--|


  E  E  E  E  E  E  E  E     E  E  E  E  E  E  E  E   
--------------------------|--------------------------|
--------------------------|--------------------------|
--------------------------|--------------------------|
--0--0--0--0--2--2--2--2--|--0--0--0--0--4--4--4--4--|


  E  E  E  E  E  E  E  E     E  E  E  E  E  E  E  E   
--------------------------|--------------------------|
--------------------------|--------------------------|
--------------------------|--------------------------|
--0--0--0--0--2--2--2--2--|--0--0--0--0--0--0--0--0--|


  E  E  E  E  E  E  E  E    
--------------------------||
--------------------------||
--------------------------||
--0--0--0--0--2--2--2--2--||

==========Birth Of A Demi-God==========

     E  E  E  E  E  E  E  E     E  E  E  E  E  E  E  E   
F||--------------------------|--------------------------|
C||--------------------------|--------------------------|
G||--------------------------|--------------------------|
C||--1--1--0--1--1--1--0--3--|--1--1--0--1--1--1--0--3--|


  E  E  E  E  E  E  E  E     E  E  E  E  E  E  E  E   
--------------------------|--------------------------|
--------------------------|--------------------------|
--------------------------|--------------------------|
--1--1--0--1--1--1--0--3--|--1--1--0--1--1--1--0--3--|


  E  E  E  E  E  E  E  E     E  E  E  E  E  E  E  E   
--------------------------|--------------------------|
--------------------------|--------------------------|
--------------------------|--------------------------|
--1--1--0--1--1--1--0--3--|--1--1--0--1--1--1--0--3--|


  E  E  E  E  E  E  E  E     E  E  E  E  E  E  E  E   
--------------------------|--------------------------|
--------------------------|--------------------------|
--------------------------|--------------------------|
--1--1--0--1--1--1--0--3--|--1--1--0--1--1--1--0--3--|


  E  E  E  E  E  E  E  E     E  E  E  E  E  E  E  E   
--------------------------|--------------------------|
--------------------------|--------------------------|
--------------------------|--------------------------|
--1--1--0--1--1--1--0--3--|--1--1--0--1--1--1--0--3--|


  E  E  E  E  E  E  E  E     E  E  E  E  E  E  E  E   
--------------------------|--------------------------|
--------------------------|--------------------------|
--------------------------|--------------------------|
--1--1--0--1--1--1--0--3--|--1--1--0--1--1--1--0--3--|


  E  E  E  E  E  E  E  E     E  E  E  E  E  E  E  E   
--------------------------|--------------------------|
--------------------------|--------------------------|
--------------------------|--------------------------|
--1--1--0--1--1--1--0--3--|--1--1--0--1--1--1--0--3--|


  E  E  E  E  E  E  E  E     E  E  E  E  E  E  E  E   
--------------------------|--------------------------|
--------------------------|--------------------------|
--------------------------|--------------------------|
--1--1--0--1--1--1--0--3--|--1--1--0--1--1--1--0--3--|


  E  E  E  E  E  E  E  E     E  E  E  E  E  E  E  E   
--------------------------|--------------------------|
--------------------------|--------------------------|
--------------------------|--------------------------|
--2--2--0--2--3--3--4--4--|--2--2--0--2--3--3--4--4--|


  E  E  E  E  E  E  E  E     E  E  E  E     E  E  E  E  E  E  E  E   
--------------------------|--------------|--------------------------|
--------------------------|--------------|--------------------------|
--------------------------|--------------|--------------------------|
--2--2--0--2--3--3--4--4--|--2--2--0--2--|--2--2--0--2--3--3--4--4--|


  E  E  E  E  E  E  E  E     E  E  E  E  E  E  E  E     E  E  E  E   
--------------------------|--------------------------|--------------|
--------------------------|--------------------------|--------------|
--------------------------|--------------------------|--------------|
--2--2--0--2--3--3--4--4--|--2--2--0--2--3--3--4--4--|--2--2--0--2--|


  E  E  E  E  E  E  E  E     E  E  E  E  E  E  E  E   
--------------------------|--------------------------|
--------------------------|--------------------------|
--------------------------|--------------------------|
--2--2--0--2--3--3--4--4--|--2--2--0--2--3--3--4--4--|


  E  E  E  E  E  E  E  E     E  E  E  E     E  E  E  E  E  E  E  E   
--------------------------|--------------|--------------------------|
--------------------------|--------------|--------------------------|
--------------------------|--------------|--------------------------|
--2--2--0--2--3--3--4--4--|--2--2--0--2--|--2--2--0--2--3--3--4--4--|


  E  E  E  E  E  E  E  E     E  E  E  E  E  E  E  E     E  E  E  E   
--------------------------|--------------------------|--------------|
--------------------------|--------------------------|--------------|
--------------------------|--------------------------|--------------|
--2--2--0--2--3--3--4--4--|--2--2--0--2--3--3--4--4--|--2--2--0--2--|


  E  E  E  E  E  E  E  E     E  E  E  E  E  E  E  E   
--------------------------|--------------------------|
--------------------------|--------------------------|
--------------------------|--------------------------|
--2--2--0--2--3--3--4--4--|--2--2--0--2--3--3--4--4--|


  E  E  E  E  E  E  E  E     E  E  E  E  E  E  E  E   
--------------------------|--------------------------|
--------------------------|--------------------------|
--------------------------|--------------------------|
--2--2--0--2--3--3--4--4--|--2--2--0--2--3--3--4--4--|


  E  E  E  E  E  E  E  E     E  E  E  E  E  E  E  E   
--------------------------|--------------------------|
--------------------------|--------------------------|
--------------------------|--------------------------|
--2--2--0--2--3--3--4--4--|--2--2--0--2--3--3--4--4--|


  E  E  E  E  E  E  E  E     E  E  E  E  E  E  E  E   
--------------------------|--------------------------|
--------------------------|--------------------------|
--------------------------|--------------------------|
--2--2--0--2--3--3--4--4--|--2--2--0--2--3--3--4--4--|


  E  E  E  E  E  E  E  E     E  E  E  E  E  E  E  E   
--------------------------|--------------------------|
--------------------------|--------------------------|
--------------------------|--------------------------|
--2--2--0--2--3--3--4--4--|--2--2--0--2--3--3--4--4--|


  E  E  E  E  E  E  E  E     E  E  E  E  E  E  E  E   
--------------------------|--------------------------|
--------------------------|--------------------------|
--------------------------|--------------------------|
--2--2--0--2--3--3--4--4--|--2--2--0--2--3--3--4--4--|


  E  E  E  E  E  E  E  E     E  E  E  E  E  E  E  E   
--------------------------|--------------------------|
--------------------------|--------------------------|
--------------------------|--------------------------|
--2--2--0--2--3--3--4--4--|--2--2--0--2--3--3--4--4--|


  E  E  E  E  E  E  E  E     E  E  E  E  E  E  E  E   
--------------------------|--------------------------|
--------------------------|--------------------------|
--------------------------|--------------------------|
--2--2--0--2--3--3--4--4--|--2--2--0--2--3--3--4--4--|


  E  E  E  E  E  E  E  E     E  E  E  E  E  E  E  E   
--------------------------|--------------------------|
--------------------------|--------------------------|
--------------------------|--------------------------|
--2--2--0--2--3--3--4--4--|--2--2--0--2--3--3--4--4--|


  E  E  E  E  E  E  E  E     E  E  E  E  E  E  E  E   
--------------------------|--------------------------|
--------------------------|--------------------------|
--------------------------|--------------------------|
--2--2--0--2--3--3--4--4--|--2--2--0--2--3--3--4--4--|


  E  E  E  E  E  E  E  E     E  E  E  E  E  E  E  E   
--------------------------|--------------------------|
--------------------------|--------------------------|
--------------------------|--------------------------|
--2--2--0--2--3--3--4--4--|--2--2--0--2--3--3--4--4--|


  E  E  E  E  E  E  E  E     E  E  E  E  E  E  E  E   
--------------------------|--------------------------|
--------------------------|--------------------------|
--------------------------|--------------------------|
--2--2--0--2--3--3--4--4--|--2--2--0--2--3--3--4--4--|


  E  E  E  E  E  E  E  E     E  E  E  E  E  E  E  E   
--------------------------|--------------------------|
--------------------------|--------------------------|
--------------------------|--------------------------|
--2--2--0--2--3--3--4--4--|--2--2--0--2--3--3--4--4--|


  E  E  E  E  E  E  E  E     E  E  E  E     E  E  E  E  E  E  E  E   
--------------------------|--------------|--------------------------|
--------------------------|--------------|--------------------------|
--------------------------|--------------|--------------------------|
--2--2--0--2--3--3--4--4--|--2--2--0--2--|--2--2--0--2--3--3--4--4--|


  E  E  E  E  E  E  E  E     E  E  E  E  E  E  E  E     E  E  E  E   
--------------------------|--------------------------|--------------|
--------------------------|--------------------------|--------------|
--------------------------|--------------------------|--------------|
--2--2--0--2--3--3--4--4--|--2--2--0--2--3--3--4--4--|--2--2--0--2--|


  E  E  E  E  E  E  E  E     E  E  E  E  E  E  E  E   
--------------------------|--------------------------|
--------------------------|--------------------------|
--------------------------|--------------------------|
--2--2--0--2--3--3--4--4--|--2--2--0--2--3--3--4--4--|


  E  E  E  E  E  E  E  E     E  E  E  E  E  E  E  E   
--------------------------|--------------------------|
--------------------------|--------------------------|
--------------------------|--------------------------|
--2--2--0--2--3--3--4--4--|--2--2--0--2--3--3--4--4--|


  E  E  E  E  E  E  E  E     E  E  E  E  E  E  E  E   
--------------------------|--------------------------|
--------------------------|--------------------------|
--------------------------|--------------------------|
--2--2--0--2--3--3--4--4--|--2--2--0--2--3--3--4--4--|


  E  E  E  E  E  E  E  E     E  E  E  E  E  E  E  E   
--------------------------|--------------------------|
--------------------------|--------------------------|
--------------------------|--------------------------|
--2--2--0--2--3--3--4--4--|--2--2--0--2--3--3--4--4--|


  E  E  E  E  E  E  E  E     E  E  E  E  E  E  E  E   
--------------------------|--------------------------|
--------------------------|--------------------------|
--------------------------|--------------------------|
--2--2--0--2--3--3--4--4--|--2--2--0--2--3--3--4--4--|


  E  E  E  E  E  E  E  E     E  E  E  E     E  E  E  E  E  E  E  E   
--------------------------|--------------|--------------------------|
--------------------------|--------------|--------------------------|
--------------------------|--------------|--------------------------|
--2--2--0--2--3--3--4--4--|--2--2--0--2--|--2--2--0--2--3--3--4--4--|


  E  E  E  E  E  E  E  E     E  E  E  E  E  E  E  E     E  E  E  E   
--------------------------|--------------------------|--------------|
--------------------------|--------------------------|--------------|
--------------------------|--------------------------|--------------|
--2--2--0--2--3--3--4--4--|--2--2--0--2--3--3--4--4--|--2--2--0--2--|


  E  E  E  E  E  E  E  E     E  E  E  E  E  E  E  E   
--------------------------|--------------------------|
--------------------------|--------------------------|
--------------3--3--3--3--|--------------3--3--3--3--|
--0--0--0--0--------------|--0--0--0--0--------------|


  E  E  E  E  E  E  E  E     E  E  E  E  E  E  E  E   
--------------------------|--------------------------|
--------------------------|--------------------------|
--------------3--3--3--3--|--1--1--1--1--0--0--0--0--|
--0--0--0--0--------------|--------------------------|


  E  E  E  E  E  E  E  E     E  E  E  E  E  E  E  E   
--------------------------|--------------------------|
--------------------------|--------------------------|
--------------3--3--3--3--|--------------3--3--3--3--|
--0--0--0--0--------------|--0--0--0--0--------------|


  E  E  E  E  E  E  E  E     E  E  E  E  E  E  E  E   
--------------------------|--------------------------|
--------------------------|--------------------------|
--------------3--3--3--3--|--------------------------|
--0--0--0--0--------------|--5--5--5--5--3--3--2--2--|


  E  E  E  E  E  E  E  E     E  E  E  E  E  E  E  E   
--------------------------|--------------------------|
--------------------------|--------------------------|
--------------------------|--------------------------|
--2--2--0--2--3--3--4--4--|--2--2--0--2--3--3--4--4--|


  E  E  E  E  E  E  E  E     E  E  E  E     E  E  E  E  E  E  E  E   
--------------------------|--------------|--------------------------|
--------------------------|--------------|--------------------------|
--------------------------|--------------|--------------------------|
--2--2--0--2--3--3--4--4--|--2--2--0--2--|--2--2--0--2--3--3--4--4--|


  E  E  E  E  E  E  E  E     E  E  E  E  E  E  E  E     E  E  E  E   
--------------------------|--------------------------|--------------|
--------------------------|--------------------------|--------------|
--------------------------|--------------------------|--------------|
--2--2--0--2--3--3--4--4--|--2--2--0--2--3--3--4--4--|--2--2--0--2--|


  E  E  E  E  E  E  E  E     E  E  E  E  E  E  E  E   
--------------------------|--------------------------|
--------------------------|--------------------------|
--------------------------|--------------------------|
--2--2--0--2--3--3--4--4--|--2--2--0--2--3--3--4--4--|


  E  E  E  E  E  E  E  E     E  E  E  E     E  E  E  E  E  E  E  E   
--------------------------|--------------|--------------------------|
--------------------------|--------------|--------------------------|
--------------------------|--------------|--------------------------|
--2--2--0--2--3--3--4--4--|--2--2--0--2--|--2--2--0--2--3--3--4--4--|


  E  E  E  E  E  E  E  E     E  E  E  E  E  E  E  E     E  E  E  E   
--------------------------|--------------------------|--------------|
--------------------------|--------------------------|--------------|
--------------------------|--------------------------|--------------|
--2--2--0--2--3--3--4--4--|--2--2--0--2--3--3--4--4--|--2--2--0--2--|


  E  E  E  E  E  E  E  E     E  E  E  E  E  E  E  E   
--------------------------|--------------------------|
--------------------------|--------------------------|
--------------------------|--------------------------|
--2--2--0--2--3--3--4--4--|--2--2--0--2--3--3--4--4--|


  E  E  E  E  E  E  E  E     E  E  E  E  E  E  E  E   
--------------------------|--------------------------|
--------------------------|--------------------------|
--------------------------|--------------------------|
--2--2--0--2--3--3--4--4--|--2--2--0--2--3--3--4--4--|


  E  E  E  E  E  E  E  E     E  E  E  E  E  E  E  E   
--------------------------|--------------------------|
--------------------------|--------------------------|
--------------------------|--------------------------|
--2--2--0--2--3--3--4--4--|--2--2--0--2--3--3--4--4--|


  E  E  E  E  E  E  E  E     E  E  E  E  E  E  E  E   
--------------------------|--------------------------|
--------------------------|--------------------------|
--------------------------|--------------------------|
--2--2--0--2--3--3--4--4--|--2--2--0--2--3--3--4--4--|


  E  E  E  E  E  E  E  E     E  E  E  E  E  E  E  E   
--------------------------|--------------------------|
--------------------------|--------------------------|
--------------------------|--------------------------|
--2--2--0--2--3--3--4--4--|--2--2--0--2--3--3--4--4--|


  E  E  E  E  E  E  E  E     E  E  E  E  E  E  E  E   
--------------------------|--------------------------|
--------------------------|--------------------------|
--------------------------|--------------------------|
--2--2--0--2--3--3--4--4--|--2--2--0--2--3--3--4--4--|


  E  E  E  E  E  E  E  E     E  E  E  E  E  E  E  E   
--------------------------|--------------------------|
--------------------------|--------------------------|
--------------------------|--------------------------|
--2--2--0--2--3--3--4--4--|--2--2--0--2--3--3--4--4--|


  E  E  E  E  E  E  E  E     E  E  E  E  E  E  E  E   
--------------------------|--------------------------|
--------------------------|--------------------------|
--------------------------|--------------------------|
--2--2--0--2--3--3--4--4--|--2--2--0--2--3--3--4--4--|


  E  E  E  E  E  E  E  E     E  E  E  E  E  E  E  E   
--------------------------|--------------------------|
--------------------------|--------------------------|
--------------------------|--------------------------|
--2--2--0--2--3--3--4--4--|--2--2--0--2--3--3--4--4--|


  E  E  E  E  E  E  E  E     E  E  E  E  E  E  E  E   
--------------------------|--------------------------|
--------------------------|--------------------------|
--------------------------|--------------------------|
--2--2--0--2--3--3--4--4--|--2--2--0--2--3--3--4--4--|


  E  E  E  E  E  E  E  E     E  E  E  E  E  E  E  E   
--------------------------|--------------------------|
--------------------------|--------------------------|
--------------------------|--------------------------|
--2--2--0--2--3--3--4--4--|--2--2--0--2--3--3--4--4--|


  E  E  E  E  E  E  E  E     E  E  E  E  E  E  E  E   
--------------------------|--------------------------|
--------------------------|--------------------------|
--------------------------|--------------------------|
--2--2--0--2--3--3--4--4--|--2--2--0--2--3--3--4--4--|


  E  E  E  E  E  E  E  E     E  E  E  E  E  E  E  E   
--------------------------|--------------------------|
--------------------------|--------------------------|
--------------------------|--------------------------|
--2--2--0--2--3--3--4--4--|--2--2--0--2--3--3--4--4--|


  E  E  E  E  E  E  E  E     E  E  E  E     E  E  E  E  E  E  E  E   
--------------------------|--------------|--------------------------|
--------------------------|--------------|--------------------------|
--------------------------|--------------|--------------------------|
--2--2--0--2--3--3--4--4--|--2--2--0--2--|--2--2--0--2--3--3--4--4--|


  E  E  E  E  E  E  E  E     E  E  E  E  E  E  E  E     E  E  E  E   
--------------------------|--------------------------|--------------|
--------------------------|--------------------------|--------------|
--------------------------|--------------------------|--------------|
--2--2--0--2--3--3--4--4--|--2--2--0--2--3--3--4--4--|--2--2--0--2--|


  E  E  E  E  E  E  E  E     E  E  E  E  E  E  E  E   
--------------------------|--------------------------|
--------------------------|--------------------------|
--------------------------|--------------------------|
--2--2--0--2--3--3--4--4--|--2--2--0--2--3--3--4--4--|


  E  E  E  E  E  E  E  E     E  E  E  E  E  E  E  E   
--------------------------|--------------------------|
--------------------------|--------------------------|
--------------------------|--------------------------|
--2--2--0--2--3--3--4--4--|--2--2--0--2--3--3--4--4--|


  E  E  E  E  E  E  E  E     E  E  E  E  E  E  E  E   
--------------------------|--------------------------|
--------------------------|--------------------------|
--------------------------|--------------------------|
--2--2--0--2--3--3--4--4--|--2--2--0--2--3--3--4--4--|


  E  E  E  E  E  E  E  E     E  E  E  E  E  E  E  E   
--------------------------|--------------------------|
--------------------------|--------------------------|
--------------------------|--------------------------|
--2--2--0--2--3--3--4--4--|--2--2--0--2--3--3--4--4--|


  E  E  E  E  E  E  E  E     E  E  E  E  E  E  E  E   
--------------------------|--------------------------|
--------------------------|--------------------------|
--------------------------|--------------------------|
--2--2--0--2--3--3--4--4--|--2--2--0--2--3--3--4--4--|


  E  E  E  E  E  E  E  E     E  E  E  E     E  E  E  E  E  E  E  E   
--------------------------|--------------|--------------------------|
--------------------------|--------------|--------------------------|
--------------------------|--------------|--------------------------|
--2--2--0--2--3--3--4--4--|--2--2--0--2--|--2--2--0--2--3--3--4--4--|


  E  E  E  E  E  E  E  E     E  E  E  E  E  E  E  E     E  E  E  E   
--------------------------|--------------------------|--------------|
--------------------------|--------------------------|--------------|
--------------------------|--------------------------|--------------|
--2--2--0--2--3--3--4--4--|--2--2--0--2--3--3--4--4--|--2--2--0--2--|


  E  E  E  E  E  E  E  E     E  E  E  E  E  E  E  E   
--------------------------|--------------------------|
--------------------------|--------------------------|
--------------3--3--3--3--|--------------3--3--3--3--|
--0--0--0--0--------------|--0--0--0--0--------------|


  E  E  E  E  E  E  E  E     E  E  E  E  E  E  E  E   
--------------------------|--------------------------|
--------------------------|--------------------------|
--------------3--3--3--3--|--1--1--1--1--0--0--0--0--|
--0--0--0--0--------------|--------------------------|


  E  E  E  E  E  E  E  E     E  E  E  E  E  E  E  E   
--------------------------|--------------------------|
--------------------------|--------------------------|
--------------3--3--3--3--|--------------3--3--3--3--|
--0--0--0--0--------------|--0--0--0--0--------------|


  E  E  E  E  E  E  E  E     E  E  E  E  E  E  E  E   
--------------------------|--------------------------|
--------------------------|--------------------------|
--------------3--3--3--3--|--------------------------|
--0--0--0--0--------------|--5--5--5--5--3--3--2--2--|


  E  E  E  E  E  E  E  E     E  E  E  E  E  E  E  E   
--------------------------|--------------------------|
--------------------------|--------------------------|
--------------------------|--------------------------|
--0--0--------0--3--2--3--|--0--0--------0--3--2--3--|


  E  E  E  E  E  E  E  E     E  E  E  E  E  E  E  E   
--------------------------|--------------------------|
--------------------------|--------------------------|
--------------------------|--------------------------|
--0--0--------0--3--2--3--|--0--0--------0--3--2--3--|


  E  E  E  E  E  E  E  E     E  E  E  E  E  E  E  E   
--------------------------|--------------------------|
--------------------------|--------------------------|
--------------------------|--------------------------|
--0--0--------0--3--2--3--|--0--0--------0--3--2--3--|


  E  E  E  E  E  E  E  E     E  E  E  E  E  E  E  E   
--------------------------|--------------------------|
--------------------------|--------------------------|
--------------------------|--------------------------|
--0--0--------0--3--2--3--|--0--0--------0--3--2--3--|


  E  E  E  E  E  E  E  E     E  E  E  E  E  E  E  E   
--------------------------|--------------------------|
--------------------------|--------------------------|
--------------------------|--------------------------|
--0--0--------0--3--2--3--|--0--0--------0--3--2--3--|


  E  E  E  E  E  E  E  E     E  E  E  E  E  E  E  E   
--------------------------|--------------------------|
--------------------------|--------------------------|
--------------------------|--------------------------|
--0--0--------0--3--2--3--|--0--0--------0--3--2--3--|


  E  E  E  E  E  E  E  E     E  E  E  E  E  E  E  E   
--------------------------|--------------------------|
--------------------------|--------------------------|
--------------------------|--------------------------|
--0--0--------0--3--2--3--|--0--0--------0--3--2--3--|


  E  E  E  E  E  E  E  E     E  E  E  E  E  E  E  E   
--------------------------|--------------------------|
--------------------------|--------------------------|
--------------------------|--------------------------|
--0--0--------0--3--2--3--|--0--0--------0--3--2--3--|


  E  E  E  E  E  E  E  E     E  E  E  E  E  E  E  E   
--------------------------|--------------------------|
--------------------------|--------------------------|
--------------------------|--------------------------|
--0--0--------0--3--2--3--|--0--0--------0--3--2--3--|


  E  E  E  E  E  E  E  E     E  E  E  E  E  E  E  E   
--------------------------|--------------------------|
--------------------------|--------------------------|
--------------------------|--------------------------|
--0--0--------0--3--2--3--|--0--0--------0--3--2--3--|


  E  E  E  E  E  E  E  E     E  E  E  E  E  E  E  E   
--------------------------|--------------------------|
--------------------------|--------------------------|
--------------------------|--------------------------|
--0--0--------0--3--2--3--|--0--0--------0--3--2--3--|


  E  E  E  E  E  E  E  E     E  E  E  E  E  E  E  E   
--------------------------|--------------------------|
--------------------------|--------------------------|
--------------------------|--------------------------|
--0--0--------0--3--2--3--|--0--0--------0--3--2--3--|


  E  E  E  E  E  E  E  E     E  E  E  E  E  E  E  E   
--------------------------|--------------------------|
--------------------------|--------------------------|
--------------------------|--------------------------|
--0--0--------0--3--2--3--|--0--0--------0--3--2--3--|


  E  E  E  E  E  E  E  E     E  E  E  E  E  E  E  E   
--------------------------|--------------------------|
--------------------------|--------------------------|
--------------------------|--------------------------|
--0--0--------0--3--2--3--|--0--0--------0--3--2--3--|


  E  E  E  E  E  E  E  E     E  E  E  E  E  E  E  E   
--------------------------|--------------------------|
--------------------------|--------------------------|
--------------------------|--------------------------|
--0--0--------0--3--2--3--|--0--0--------0--3--2--3--|


  E  E  E  E  E  E  E  E     E  E  E  E  E  E  E  E   
--------------------------|--------------------------|
--------------------------|--------------------------|
--------------------------|--------------------------|
--0--0--------0--3--2--3--|--0--0--------0--3--2--3--|


  E  E  E  E  E  E  E  E     E  E  E  E  E  E  E  E   
--------------------------|--------------------------|
--------------------------|--------------------------|
--------------------------|--------------------------|
--0--0--------0--3--2--3--|--0--0--------0--3--2--3--|


  E  E  E  E  E  E  E  E     E  E  E  E  E  E  E  E    
--------------------------|--------------------------||
--------------------------|--------------------------||
--------------------------|--------------------------||
--0--0--------0--3--2--3--|--0--0--------0--3--2--3--||
comments
We did not receive enough feedback on this tab! Please rate:
1 2 3 4 5
I want to post or [tab]
guest
You may want to rate the tab now too:
select rating
Please do not post tabs as comments. Select "correction" instead!