Oops, an error
Loading. Please wait.

420 Proof - Heres Your Proof Part 1 Tab

2,109 views 15 this week
no commentswrite comment
1 2 3 4 5
excellent!
x 4
add to favorites launch autoscroll
font size
0
reset
Autoscroll
+/-
esc
set tempo
stop
Contributor
WARNING: You are trying to view
                                    content from Ultimate-Guitar.com
                                    in an unauthorized application,
                                    which is prohibited.

                                    Please use an official Ultimate
                                    Guitar Tabs application for iPhone,
                                    iPad or Android to access legitimate
                                    chords, guitar, bass, and drum tabs
                                    from Ultimate-Guitar.com database.

                                    Type "ultimate guitar tabs" in Apple
                                    App Store's or Android Market's
                                    search to find the application.
==========Black Xmas==========

Lead Guitar

                   PM PM PM PM PM PM                  PM PM PM PM PM PM  
             E  E  E  E  E  E  E  E             E  E  E  E  E  E  E  E   
D||-------|--------------------------|-------|--------------------------|
A||-------|--------------------------|-------|--------------------------|
F||-------|--------------------------|-------|--------------------------|
C||-------|--------------------------|-------|--------------------------|
G||-------|--------2--2--2--2--2--2--|-------|--------2--2--2--2--2--2--|
C||-------|--------2--2--2--2--2--2--|-------|--------2--2--2--2--2--2--|

                PM PM PM PM PM PM                  PM PM PM PM PM PM          
          E  E  E  E  E  E  E  E             E  E  E  E  E  E  E  E           
-------|--------------------------|-------|--------------------------|-------|
-------|--------------------------|-------|--------------------------|-------|
-------|--------------------------|-------|--------------------------|-------|
-------|--------------------------|-------|--------------------------|-------|
-------|--------2--2--2--2--2--2--|-------|--------2--2--2--2--2--2--|-------|
-------|--------2--2--2--2--2--2--|-------|--------2--2--2--2--2--2--|-------|

        PM PM PM PM PM PM                  PM PM PM PM PM PM          
  E  E  E  E  E  E  E  E             E  E  E  E  E  E  E  E           
--------------------------|-------|--------------------------|-------|
--------------------------|-------|--------------------------|-------|
--------------------------|-------|--------------------------|-------|
--------------------------|-------|--------------------------|-------|
--------2--2--2--2--2--2--|-------|--------2--2--2--2--2--2--|-------|
--------2--2--2--2--2--2--|-------|--------2--2--2--2--2--2--|-------|

        PM PM PM PM PM PM                  PM PM PM PM PM PM  
  E  E  E  E  E  E  E  E             E  E  E  E  E  E  E  E   
--------------------------|-------|--------------------------|
--------------------------|-------|--------------------------|
--------------------------|-------|--------------------------|
--------------------------|-------|--------------------------|
--------2--2--2--2--2--2--|-------|--------2--2--2--2--2--2--|
--------2--2--2--2--2--2--|-------|--------2--2--2--2--2--2--|

  ^    ^  v  ^    ^  v                 ^  v  ^  v  ^  v   
  Q    E  E  Q    E  H           E  E  E  E  E  E  E  E   
------------------------------|--------------------------|
------------------------------|--------------------------|
------------------------------|--------------------------|
------------------------------|--------------------------|
--3----3--5--7----5--0--------|--------2--2--2--2--2--2--|
--3----3--5--7----5--0--------|--------2--2--2--2--2--2--|

  ^    ^  v  ^    ^  v                 ^  v  ^  v  ^  v   
  Q    E  E  Q    E  H           E  E  E  E  E  E  E  E   
------------------------------|--------------------------|
------------------------------|--------------------------|
------------------------------|--------------------------|
------------------------------|--------------------------|
--3----3--5--7----5--0--------|--------2--2--2--2--2--2--|
--3----3--5--7----5--0--------|--------2--2--2--2--2--2--|

  ^    ^  v  ^    ^  v                 ^  v  ^  v  ^  v   
  Q    E  E  Q    E  H           E  E  E  E  E  E  E  E   
------------------------------|--------------------------|
------------------------------|--------------------------|
------------------------------|--------------------------|
------------------------------|--------------------------|
--3----3--5--7----5--0--------|--------2--2--2--2--2--2--|
--3----3--5--7----5--0--------|--------2--2--2--2--2--2--|

  ^    ^  v  ^    ^  v                 ^  v  ^  v  ^  v   
  Q    E  E  Q    E  H           E  E  E  E  E  E  E  E   
------------------------------|--------------------------|
------------------------------|--------------------------|
------------------------------|--------------------------|
------------------------------|--------------------------|
--3----3--5--7----5--0--------|--------2--2--2--2--2--2--|
--3----3--5--7----5--0--------|--------2--2--2--2--2--2--|

  ^    ^  v  ^    ^  v                 ^  v  ^  v  ^  v   
  Q    E  E  Q    E  H           E  E  E  E  E  E  E  E   
------------------------------|--------------------------|
------------------------------|--------------------------|
------------------------------|--------------------------|
------------------------------|--------------------------|
--3----3--5--7----5--0--------|--------2--2--2--2--2--2--|
--3----3--5--7----5--0--------|--------2--2--2--2--2--2--|

  ^    ^  v  ^    ^  v                 ^  v  ^  v  ^  v   
  Q    E  E  Q    E  H           E  E  E  E  E  E  E  E   
------------------------------|--------------------------|
------------------------------|--------------------------|
------------------------------|--------------------------|
------------------------------|--------------------------|
--3----3--5--7----5--0--------|--------2--2--2--2--2--2--|
--3----3--5--7----5--0--------|--------2--2--2--2--2--2--|

  ^    ^  v  ^    ^  v                 ^  v  ^  v  ^  v   
  Q    E  E  Q    E  H           E  E  E  E  E  E  E  E   
------------------------------|--------------------------|
------------------------------|--------------------------|
------------------------------|--------------------------|
------------------------------|--------------------------|
--3----3--5--7----5--0--------|--------2--2--2--2--2--2--|
--3----3--5--7----5--0--------|--------2--2--2--2--2--2--|

  ^    ^  v  ^    ^  v                   ^    v    ^    v    ^    v   
  Q    E  E  Q    E  H           E  E    E    E    E    E    E    E   
------------------------------|--------------------------------------|
------------------------------|--------------------------------------|
------------------------------|--------------------------------------|
------------------------------|--------------------------------------|
--3----3--5--7----5--0--------|----------7----7----7----7----7----7--|
--3----3--5--7----5--0--------|--------<>7--<>7--<>7--<>7--<>7--<>7--|

   ^   v   ^   v   ^   v   ^   v      ^   v   ^   v   ^   v   ^   v   
   E   E   E   E   E   E   E   E      E   E   E   E   E   E   E   E   
----------------------------------|----------------------------------|
----------------------------------|----------------------------------|
--11--11--11--11--11--11--11--11--|--11--11--11--11--11--11--11--11--|
---x---x---x---x---x---x---x---x--|---x---x---x---x---x---x---x---x--|
---9---9---9---9---9---9---9---9--|---9---9---9---9---9---9---9---9--|
---0---0---0---0---0---0---0---0--|---0---0---0---0---0---0---0---0--|

   ^   v   ^   v   ^   v   ^   v      ^   v   ^   v   ^   v   ^   v   
   E   E   E   E   E   E   E   E      E   E   E   E   E   E   E   E   
----------------------------------|----------------------------------|
----------------------------------|----------------------------------|
--11--11--11--11--11--11--11--11--|--11--11--11--11--11--11--11--11--|
---x---x---x---x---x---x---x---x--|---x---x---x---x---x---x---x---x--|
---9---9---9---9---9---9---9---9--|---9---9---9---9---9---9---9---9--|
---0---0---0---0---0---0---0---0--|---0---0---0---0---0---0---0---0--|

   ^   v   ^   v   ^   v   ^   v      ^   v   ^   v   ^   v   ^   v   
   E   E   E   E   E   E   E   E      E   E   E   E   E   E   E   E   
----------------------------------|----------------------------------|
----------------------------------|----------------------------------|
--11--11--11--11--11--11--11--11--|--11--11--11--11--11--11--11--11--|
---x---x---x---x---x---x---x---x--|---x---x---x---x---x---x---x---x--|
---9---9---9---9---9---9---9---9--|---9---9---9---9---9---9---9---9--|
---0---0---0---0---0---0---0---0--|---0---0---0---0---0---0---0---0--|

   ^   v   ^   v   ^   v   ^   v      ^   v   ^   v   ^   v   ^   v   
   E   E   E   E   E   E   E   E      E   E   E   E   E   E   E   E   
----------------------------------|----------------------------------|
----------------------------------|----------------------------------|
--11--11--11--11--11--11--11--11--|--11--11--11--11--11--11--11--11--|
---x---x---x---x---x---x---x---x--|---x---x---x---x---x---x---x---x--|
---9---9---9---9---9---9---9---9--|---9---9---9---9---9---9---9---9--|
---0---0---0---0---0---0---0---0--|---0---0---0---0---0---0---0---0--|

  ^    ^  v  ^    ^  v                                
  Q    E  E  Q    E  Q       E  E  E  E  E  E  E  E   
--------------------------|--------------------------|
--------------------------|--------------------------|
--------------------------|--------------------------|
--------------------------|--------------------------|
--3----3--5--7----5--0----|--------x--x--x--x--x--x--|
--3----3--5--7----5--0----|--------x--x--x--x--x--x--|

  ^    ^  v  ^    ^  v                                
  Q    E  E  Q    E  Q       E  E  E  E  E  E  E  E   
--------------------------|--------------------------|
--------------------------|--------------------------|
--------------------------|--------------------------|
--------------------------|--------------------------|
--3----3--5--7----5--0----|--------x--x--x--x--x--x--|
--3----3--5--7----5--0----|--------x--x--x--x--x--x--|

  ^    ^  v  ^    ^  v                                
  Q    E  E  Q    E  Q       E  E  E  E  E  E  E  E   
--------------------------|--------------------------|
--------------------------|--------------------------|
--------------------------|--------------------------|
--------------------------|--------------------------|
--3----3--5--7----5--0----|--------x--x--x--x--x--x--|
--3----3--5--7----5--0----|--------x--x--x--x--x--x--|

  ^    ^  v  ^    ^  v                                
  Q    E  E  Q    E  Q       E  E  E  E  E  E  E  E   
--------------------------|--------------------------|
--------------------------|--------------------------|
--------------------------|--------------------------|
--------------------------|--------------------------|
--3----3--5--7----5--0----|--------x--x--x--x--x--x--|
--3----3--5--7----5--0----|--------x--x--x--x--x--x--|

  ^    ^  v  ^    ^  v                 ^  v  ^  v  ^  v   
  Q    E  E  Q    E  H           E  E  E  E  E  E  E  E   
------------------------------|--------------------------|
------------------------------|--------------------------|
------------------------------|--------------------------|
------------------------------|--------------------------|
--3----3--5--7----5--0--------|--------2--2--2--2--2--2--|
--3----3--5--7----5--0--------|--------2--2--2--2--2--2--|

  ^    ^  v  ^    ^  v                 ^  v  ^  v  ^  v   
  Q    E  E  Q    E  H           E  E  E  E  E  E  E  E   
------------------------------|--------------------------|
------------------------------|--------------------------|
------------------------------|--------------------------|
------------------------------|--------------------------|
--3----3--5--7----5--0--------|--------2--2--2--2--2--2--|
--3----3--5--7----5--0--------|--------2--2--2--2--2--2--|

  ^    ^  v  ^    ^  v                 ^  v  ^  v  ^  v   
  Q    E  E  Q    E  H           E  E  E  E  E  E  E  E   
------------------------------|--------------------------|
------------------------------|--------------------------|
------------------------------|--------------------------|
------------------------------|--------------------------|
--3----3--5--7----5--0--------|--------2--2--2--2--2--2--|
--3----3--5--7----5--0--------|--------2--2--2--2--2--2--|

  ^    ^  v  ^    ^  v                 ^  v  ^  v  ^  v   
  Q    E  E  Q    E  H           E  E  E  E  E  E  E  E   
------------------------------|--------------------------|
------------------------------|--------------------------|
------------------------------|--------------------------|
------------------------------|--------------------------|
--3----3--5--7----5--0--------|--------2--2--2--2--2--2--|
--3----3--5--7----5--0--------|--------2--2--2--2--2--2--|

  ^    ^  v  ^    ^  v                 ^  v  ^  v  ^  v   
  Q    E  E  Q    E  H           E  E  E  E  E  E  E  E   
------------------------------|--------------------------|
------------------------------|--------------------------|
------------------------------|--------------------------|
------------------------------|--------------------------|
--3----3--5--7----5--0--------|--------2--2--2--2--2--2--|
--3----3--5--7----5--0--------|--------2--2--2--2--2--2--|

  ^    ^  v  ^    ^  v                 ^  v  ^  v  ^  v   
  Q    E  E  Q    E  H           E  E  E  E  E  E  E  E   
------------------------------|--------------------------|
------------------------------|--------------------------|
------------------------------|--------------------------|
------------------------------|--------------------------|
--3----3--5--7----5--0--------|--------2--2--2--2--2--2--|
--3----3--5--7----5--0--------|--------2--2--2--2--2--2--|

  ^    ^  v  ^    ^  v                 ^  v  ^  v  ^  v   
  Q    E  E  Q    E  H           E  E  E  E  E  E  E  E   
------------------------------|--------------------------|
------------------------------|--------------------------|
------------------------------|--------------------------|
------------------------------|--------------------------|
--3----3--5--7----5--0--------|--------2--2--2--2--2--2--|
--3----3--5--7----5--0--------|--------2--2--2--2--2--2--|

  ^    ^  v  ^    ^  v                   ^    v    ^    v    ^    v         
  Q    E  E  Q    E  H           E  E    E    E    E    E    E    E         
------------------------------|--------------------------------------|-----|
------------------------------|--------------------------------------|-----|
------------------------------|--------------------------------------|-----|
------------------------------|--------------------------------------|-----|
--3----3--5--7----5--0--------|----------7----7----7----7----7----7--|-----|
--3----3--5--7----5--0--------|--------<>7--<>7--<>7--<>7--<>7--<>7--|-----|

-----|-----|-----|-----|-----|-----|-----|-----|-----|-----|-----|-----|-----|
-----|-----|-----|-----|-----|-----|-----|-----|-----|-----|-----|-----|-----|
-----|-----|-----|-----|-----|-----|-----|-----|-----|-----|-----|-----|-----|
-----|-----|-----|-----|-----|-----|-----|-----|-----|-----|-----|-----|-----|
-----|-----|-----|-----|-----|-----|-----|-----|-----|-----|-----|-----|-----|
-----|-----|-----|-----|-----|-----|-----|-----|-----|-----|-----|-----|-----|

              PM PM PM PM              PM PM PM PM            
              E  E  E  E  Q    Q       E  E  E  E  Q    Q     
-----|-----|------------------------|------------------------|
-----|-----|------------------------|------------------------|
-----|-----|--------------4----4----|--------------4----6----|
-----|-----|--------------4----4----|--------------4----6----|
-----|-----|--1--0--1--0------------|--1--0--1--0------------|
-----|-----|--1--0--1--0------------|--1--0--1--0------------|

  PM PM PM PM              PM PM PM PM              PM PM PM PM            
  E  E  E  E  Q    Q       E  E  E  E  Q    Q       E  E  E  E  Q    Q     
------------------------|------------------------|------------------------|
------------------------|------------------------|------------------------|
--------------4----4----|--------------3----2----|--------------4----4----|
--------------4----4----|--------------3----2----|--------------4----4----|
--1--0--1--0------------|--1--0--1--0------------|--1--0--1--0------------|
--1--0--1--0------------|--1--0--1--0------------|--1--0--1--0------------|

  PM PM PM PM              PM PM PM PM              PM PM PM PM            
  E  E  E  E  Q    Q       E  E  E  E  Q    Q       E  E  E  E  Q    Q     
------------------------|------------------------|------------------------|
------------------------|------------------------|------------------------|
--------------4----6----|--------------4----4----|--------------3----2----|
--------------4----6----|--------------4----4----|--------------3----2----|
--1--0--1--0------------|--1--0--1--0------------|--1--0--1--0------------|
--1--0--1--0------------|--1--0--1--0------------|--1--0--1--0------------|

  PM PM PM PM              PM PM PM PM              PM PM PM PM            
  E  E  E  E  Q    Q       E  E  E  E  Q    Q       E  E  E  E  Q    Q     
------------------------|------------------------|------------------------|
------------------------|------------------------|------------------------|
--------------4----4----|--------------4----6----|--------------4----4----|
--------------4----4----|--------------4----6----|--------------4----4----|
--1--0--1--0------------|--1--0--1--0------------|--1--0--1--0------------|
--1--0--1--0------------|--1--0--1--0------------|--1--0--1--0------------|

  PM PM PM PM              PM PM PM PM              PM PM PM PM            
  E  E  E  E  Q    Q       E  E  E  E  Q    Q       E  E  E  E  Q    Q     
------------------------|------------------------|------------------------|
------------------------|------------------------|------------------------|
--------------3----2----|--------------4----4----|--------------4----6----|
--------------3----2----|--------------4----4----|--------------4----6----|
--1--0--1--0------------|--1--0--1--0------------|--1--0--1--0------------|
--1--0--1--0------------|--1--0--1--0------------|--1--0--1--0------------|

  PM PM PM PM              PM PM PM PM                                   
  E  E  E  E  Q    Q       E  E  E  E  Q    Q       Q    E  E  H         
------------------------|------------------------|----------------------|
------------------------|------------------------|----------------------|
--------------4----4----|--------------3----2----|----------------------|
--------------4----4----|--------------3----2----|--0-------------------|
--1--0--1--0------------|--1--0--1--0------------|--0----5--6--7--------|
--1--0--1--0------------|--1--0--1--0------------|--0-------------------|

  Q    E  E  H           Q    E  E  H           Q    E  E  H         
----------------------|----------------------|----------------------|
----------------------|----------------------|----------------------|
----------------------|----------------------|----------------------|
--2-------------------|--0-------------------|--2-------------------|
--2----4--3--2--------|--0----5--6--7--------|--2----4--3--2--------|
--2-------------------|--0-------------------|--2-------------------|

  Q    E  E  H           Q    E  E  H           Q    E  E  H         
----------------------|----------------------|----------------------|
----------------------|----------------------|----------------------|
----------------------|----------------------|----------------------|
--0-------------------|--2-------------------|--0-------------------|
--0----5--6--7--------|--2----4--3--2--------|--0----5--6--7--------|
--0-------------------|--2-------------------|--0-------------------|

                         ^    ^  v  ^    ^  v         
  Q    E  E  H           Q    E  E  Q    E  H         
----------------------|------------------------------|
----------------------|------------------------------|
----------------------|------------------------------|
--2-------------------|------------------------------|
--2----4--3--2--------|--3----3--5--7----5--0--------|
--2-------------------|--3----3--5--7----5--0--------|

        ^  v  ^  v  ^  v     ^    ^  v  ^    ^  v         
  E  E  E  E  E  E  E  E     Q    E  E  Q    E  H         
--------------------------|------------------------------|
--------------------------|------------------------------|
--------------------------|------------------------------|
--------------------------|------------------------------|
--------2--2--2--2--2--2--|--3----3--5--7----5--0--------|
--------2--2--2--2--2--2--|--3----3--5--7----5--0--------|

        ^  v  ^  v  ^  v     ^    ^  v  ^    ^  v         
  E  E  E  E  E  E  E  E     Q    E  E  Q    E  H         
--------------------------|------------------------------|
--------------------------|------------------------------|
--------------------------|------------------------------|
--------------------------|------------------------------|
--------2--2--2--2--2--2--|--3----3--5--7----5--0--------|
--------2--2--2--2--2--2--|--3----3--5--7----5--0--------|

        ^  v  ^  v  ^  v     ^    ^  v  ^    ^  v         
  E  E  E  E  E  E  E  E     Q    E  E  Q    E  H         
--------------------------|------------------------------|
--------------------------|------------------------------|
--------------------------|------------------------------|
--------------------------|------------------------------|
--------2--2--2--2--2--2--|--3----3--5--7----5--0--------|
--------2--2--2--2--2--2--|--3----3--5--7----5--0--------|

        ^  v  ^  v  ^  v     ^    ^  v  ^    ^  v         
  E  E  E  E  E  E  E  E     Q    E  E  Q    E  H         
--------------------------|------------------------------|
--------------------------|------------------------------|
--------------------------|------------------------------|
--------------------------|------------------------------|
--------2--2--2--2--2--2--|--3----3--5--7----5--0--------|
--------2--2--2--2--2--2--|--3----3--5--7----5--0--------|

        ^  v  ^  v  ^  v     ^    ^  v  ^    ^  v         
  E  E  E  E  E  E  E  E     Q    E  E  Q    E  H         
--------------------------|------------------------------|
--------------------------|------------------------------|
--------------------------|------------------------------|
--------------------------|------------------------------|
--------2--2--2--2--2--2--|--3----3--5--7----5--0--------|
--------2--2--2--2--2--2--|--3----3--5--7----5--0--------|

        ^  v  ^  v  ^  v     ^    ^  v  ^    ^  v         
  E  E  E  E  E  E  E  E     Q    E  E  Q    E  H         
--------------------------|------------------------------|
--------------------------|------------------------------|
--------------------------|------------------------------|
--------------------------|------------------------------|
--------2--2--2--2--2--2--|--3----3--5--7----5--0--------|
--------2--2--2--2--2--2--|--3----3--5--7----5--0--------|

        ^  v  ^  v  ^  v     ^    ^  v  ^    ^  v         
  E  E  E  E  E  E  E  E     Q    E  E  Q    E  H         
--------------------------|------------------------------|
--------------------------|------------------------------|
--------------------------|------------------------------|
--------------------------|------------------------------|
--------2--2--2--2--2--2--|--3----3--5--7----5--0--------|
--------2--2--2--2--2--2--|--3----3--5--7----5--0--------|

          ^    v    ^    v    ^    v             ^    v    ^    v    ^    v   
  E  E    E    E    E    E    E    E     E  E    E    E    E    E    E    E   
--------------------------------------|--------------------------------------|
--------------------------------------|--------------------------------------|
--------------------------------------|--------------------------------------|
--------------------------------------|--------------------------------------|
----------7----7----7----7----7----7--|----------7----7----7----7----7----7--|
--------<>7--<>7--<>7--<>7--<>7--<>7--|--------<>7--<>7--<>7--<>7--<>7--<>7--|

  W                  
-------------------||
-------------------||
-------------------||
-------------------||
--0----------------||
--0----------------||

Rhythm Guitar

     ^    ^  v  ^    ^  v                                   
     Q    E  E  Q    E  W                   E  E  E  E  E   
D||--------------------------------------|-----------------|
A||--------------------------------------|-----------------|
F||--------------------------------------|-----------------|
C||--------------------------------------|-----------------|
G||--3----3--5--7----5--0----------------|-----------------|
C||--3----3--5--7----5--0----------------|-----------------|

  ^    ^  v  ^    ^  v                                   
  Q    E  E  Q    E  W                   E  E  E  E  E   
--------------------------------------|-----------------|
--------------------------------------|-----------------|
--------------------------------------|-----------------|
--------------------------------------|-----------------|
--3----3--5--7----5--0----------------|-----------------|
--3----3--5--7----5--0----------------|-----------------|

  ^    ^  v  ^    ^  v                                   
  Q    E  E  Q    E  W                   E  E  E  E  E   
--------------------------------------|-----------------|
--------------------------------------|-----------------|
--------------------------------------|-----------------|
--------------------------------------|-----------------|
--3----3--5--7----5--0----------------|-----------------|
--3----3--5--7----5--0----------------|-----------------|

  ^    ^  v  ^    ^  v                                   
  Q    E  E  Q    E  W                   E  E  E  E  E   
--------------------------------------|-----------------|
--------------------------------------|-----------------|
--------------------------------------|-----------------|
--------------------------------------|-----------------|
--3----3--5--7----5--0----------------|-----------------|
--3----3--5--7----5--0----------------|-----------------|

  ^    ^  v  ^    ^  v                                   
  Q    E  E  Q    E  W                   E  E  E  E  E   
--------------------------------------|-----------------|
--------------------------------------|-----------------|
--------------------------------------|-----------------|
--------------------------------------|-----------------|
--3----3--5--7----5--0----------------|-----------------|
--3----3--5--7----5--0----------------|-----------------|

  ^    ^  v  ^    ^  v                                   
  Q    E  E  Q    E  W                   E  E  E  E  E   
--------------------------------------|-----------------|
--------------------------------------|-----------------|
--------------------------------------|-----------------|
--------------------------------------|-----------------|
--3----3--5--7----5--0----------------|-----------------|
--3----3--5--7----5--0----------------|-----------------|

  ^    ^  v  ^    ^  v                                   
  Q    E  E  Q    E  W                   E  E  E  E  E   
--------------------------------------|-----------------|
--------------------------------------|-----------------|
--------------------------------------|-----------------|
--------------------------------------|-----------------|
--3----3--5--7----5--0----------------|-----------------|
--3----3--5--7----5--0----------------|-----------------|

  ^    ^  v  ^    ^  v                                   
  Q    E  E  Q    E  W                   E  E  E  E  E   
--------------------------------------|-----------------|
--------------------------------------|-----------------|
--------------------------------------|-----------------|
--------------------------------------|-----------------|
--3----3--5--7----5--0----------------|-----------------|
--3----3--5--7----5--0----------------|-----------------|

  ^    ^  v  ^    ^  v                                   
  Q    E  E  Q    E  W                   E  E  E  E  E   
--------------------------------------|-----------------|
--------------------------------------|-----------------|
--------------------------------------|-----------------|
--------------------------------------|-----------------|
--3----3--5--7----5--0----------------|-----------------|
--3----3--5--7----5--0----------------|-----------------|

  ^    ^  v  ^    ^  v                                   
  Q    E  E  Q    E  W                   E  E  E  E  E   
--------------------------------------|-----------------|
--------------------------------------|-----------------|
--------------------------------------|-----------------|
--------------------------------------|-----------------|
--3----3--5--7----5--0----------------|-----------------|
--3----3--5--7----5--0----------------|-----------------|

  ^    ^  v  ^    ^  v                                   
  Q    E  E  Q    E  W                   E  E  E  E  E   
--------------------------------------|-----------------|
--------------------------------------|-----------------|
--------------------------------------|-----------------|
--------------------------------------|-----------------|
--3----3--5--7----5--0----------------|-----------------|
--3----3--5--7----5--0----------------|-----------------|

  ^    ^  v  ^    ^  v                                   
  Q    E  E  Q    E  W                   E  E  E  E  E   
--------------------------------------|-----------------|
--------------------------------------|-----------------|
--------------------------------------|-----------------|
--------------------------------------|-----------------|
--3----3--5--7----5--0----------------|-----------------|
--3----3--5--7----5--0----------------|-----------------|

  ^    ^  v  ^    ^  v                                   
  Q    E  E  Q    E  W                   E  E  E  E  E   
--------------------------------------|-----------------|
--------------------------------------|-----------------|
--------------------------------------|-----------------|
--------------------------------------|-----------------|
--3----3--5--7----5--0----------------|-----------------|
--3----3--5--7----5--0----------------|-----------------|

  ^    ^  v  ^    ^  v                                   
  Q    E  E  Q    E  W                   E  E  E  E  E   
--------------------------------------|-----------------|
--------------------------------------|-----------------|
--------------------------------------|-----------------|
--------------------------------------|-----------------|
--3----3--5--7----5--0----------------|-----------------|
--3----3--5--7----5--0----------------|-----------------|

  ^    ^  v  ^    ^  v                                   
  Q    E  E  Q    E  W                   E  E  E  E  E   
--------------------------------------|-----------------|
--------------------------------------|-----------------|
--------------------------------------|-----------------|
--------------------------------------|-----------------|
--3----3--5--7----5--0----------------|-----------------|
--3----3--5--7----5--0----------------|-----------------|

  ^    ^  v  ^    ^  v                   ^    v    ^    v    ^    v   
  Q    E  E  Q    E  H           E  E    E    E    E    E    E    E   
------------------------------|--------------------------------------|
------------------------------|--------------------------------------|
------------------------------|--------------------------------------|
------------------------------|--------------------------------------|
--3----3--5--7----5--0--------|----------7----7----7----7----7----7--|
--3----3--5--7----5--0--------|--------<>7--<>7--<>7--<>7--<>7--<>7--|

  ^  v  ^  v  ^  v  ^  v     ^  v  ^  v  ^  v  ^  v   
  E  E  E  E  E  E  E  E     E  E  E  E  E  E  E  E   
--------------------------|--------------------------|
--------------------------|--------------------------|
--------------------------|--------------------------|
--8--8--8--8--8--8--8--8--|--8--8--8--8--8--8--8--8--|
--6--6--6--6--6--6--6--6--|--6--6--6--6--6--6--6--6--|
--------------------------|--------------------------|

  ^  v  ^  v  ^  v  ^  v     ^  v  ^  v  ^  v  ^  v   
  E  E  E  E  E  E  E  E     E  E  E  E  E  E  E  E   
--------------------------|--------------------------|
--------------------------|--------------------------|
--------------------------|--------------------------|
--8--8--8--8--8--8--8--8--|--8--8--8--8--8--8--8--8--|
--6--6--6--6--6--6--6--6--|--6--6--6--6--6--6--6--6--|
--------------------------|--------------------------|

  ^  v  ^  v  ^  v  ^  v     ^  v  ^  v  ^  v  ^  v   
  E  E  E  E  E  E  E  E     E  E  E  E  E  E  E  E   
--------------------------|--------------------------|
--------------------------|--------------------------|
--------------------------|--------------------------|
--8--8--8--8--8--8--8--8--|--8--8--8--8--8--8--8--8--|
--6--6--6--6--6--6--6--6--|--6--6--6--6--6--6--6--6--|
--------------------------|--------------------------|

  ^  v  ^  v  ^  v  ^  v     ^  v  ^  v  ^  v  ^  v   
  E  E  E  E  E  E  E  E     E  E  E  E  E  E  E  E   
--------------------------|--------------------------|
--------------------------|--------------------------|
--------------------------|--------------------------|
--8--8--8--8--8--8--8--8--|--8--8--8--8--8--8--8--8--|
--6--6--6--6--6--6--6--6--|--6--6--6--6--6--6--6--6--|
--------------------------|--------------------------|

  ^    ^  v  ^    ^  v                                
  Q    E  E  Q    E  Q       E  E  E  E  E  E  E  E   
--------------------------|--------------------------|
--------------------------|--------------------------|
--------------------------|--------------------------|
--------------------------|--------------------------|
--3----3--5--7----5--0----|--------x--x--x--x--x--x--|
--3----3--5--7----5--0----|--------x--x--x--x--x--x--|

  ^    ^  v  ^    ^  v                                
  Q    E  E  Q    E  Q       E  E  E  E  E  E  E  E   
--------------------------|--------------------------|
--------------------------|--------------------------|
--------------------------|--------------------------|
--------------------------|--------------------------|
--3----3--5--7----5--0----|--------x--x--x--x--x--x--|
--3----3--5--7----5--0----|--------x--x--x--x--x--x--|

  ^    ^  v  ^    ^  v                                
  Q    E  E  Q    E  Q       E  E  E  E  E  E  E  E   
--------------------------|--------------------------|
--------------------------|--------------------------|
--------------------------|--------------------------|
--------------------------|--------------------------|
--3----3--5--7----5--0----|--------x--x--x--x--x--x--|
--3----3--5--7----5--0----|--------x--x--x--x--x--x--|

  ^    ^  v  ^    ^  v                                
  Q    E  E  Q    E  Q       E  E  E  E  E  E  E  E   
--------------------------|--------------------------|
--------------------------|--------------------------|
--------------------------|--------------------------|
--------------------------|--------------------------|
--3----3--5--7----5--0----|--------x--x--x--x--x--x--|
--3----3--5--7----5--0----|--------x--x--x--x--x--x--|

  ^    ^  v  ^    ^  v                                   
  Q    E  E  Q    E  W                   E  E  E  E  E   
--------------------------------------|-----------------|
--------------------------------------|-----------------|
--------------------------------------|-----------------|
--------------------------------------|-----------------|
--3----3--5--7----5--0----------------|-----------------|
--3----3--5--7----5--0----------------|-----------------|

  ^    ^  v  ^    ^  v                                   
  Q    E  E  Q    E  W                   E  E  E  E  E   
--------------------------------------|-----------------|
--------------------------------------|-----------------|
--------------------------------------|-----------------|
--------------------------------------|-----------------|
--3----3--5--7----5--0----------------|-----------------|
--3----3--5--7----5--0----------------|-----------------|

  ^    ^  v  ^    ^  v                                   
  Q    E  E  Q    E  W                   E  E  E  E  E   
--------------------------------------|-----------------|
--------------------------------------|-----------------|
--------------------------------------|-----------------|
--------------------------------------|-----------------|
--3----3--5--7----5--0----------------|-----------------|
--3----3--5--7----5--0----------------|-----------------|

  ^    ^  v  ^    ^  v                                   
  Q    E  E  Q    E  W                   E  E  E  E  E   
--------------------------------------|-----------------|
--------------------------------------|-----------------|
--------------------------------------|-----------------|
--------------------------------------|-----------------|
--3----3--5--7----5--0----------------|-----------------|
--3----3--5--7----5--0----------------|-----------------|

  ^    ^  v  ^    ^  v                                   
  Q    E  E  Q    E  W                   E  E  E  E  E   
--------------------------------------|-----------------|
--------------------------------------|-----------------|
--------------------------------------|-----------------|
--------------------------------------|-----------------|
--3----3--5--7----5--0----------------|-----------------|
--3----3--5--7----5--0----------------|-----------------|

  ^    ^  v  ^    ^  v                                   
  Q    E  E  Q    E  W                   E  E  E  E  E   
--------------------------------------|-----------------|
--------------------------------------|-----------------|
--------------------------------------|-----------------|
--------------------------------------|-----------------|
--3----3--5--7----5--0----------------|-----------------|
--3----3--5--7----5--0----------------|-----------------|

  ^    ^  v  ^    ^  v                                   
  Q    E  E  Q    E  W                   E  E  E  E  E   
--------------------------------------|-----------------|
--------------------------------------|-----------------|
--------------------------------------|-----------------|
--------------------------------------|-----------------|
--3----3--5--7----5--0----------------|-----------------|
--3----3--5--7----5--0----------------|-----------------|

  ^    ^  v  ^    ^  v                   ^    v    ^    v    ^    v           
  Q    E  E  Q    E  H           E  E    E    E    E    E    E    E           
------------------------------|--------------------------------------|-------|
------------------------------|--------------------------------------|-------|
------------------------------|--------------------------------------|-------|
------------------------------|--------------------------------------|-------|
--3----3--5--7----5--0--------|----------7----7----7----7----7----7--|-------|
--3----3--5--7----5--0--------|--------<>7--<>7--<>7--<>7--<>7--<>7--|-------|

-------|-------|-------|-------|-------|-------|-------|-------|-------|-------|
-------|-------|-------|-------|-------|-------|-------|-------|-------|-------|
-------|-------|-------|-------|-------|-------|-------|-------|-------|-------|
-------|-------|-------|-------|-------|-------|-------|-------|-------|-------|
-------|-------|-------|-------|-------|-------|-------|-------|-------|-------|
-------|-------|-------|-------|-------|-------|-------|-------|-------|-------|

                                          PM PM PM PM            
                                          E  E  E  E  Q    Q     
-------|-------|-------|-------|-------|------------------------|
-------|-------|-------|-------|-------|------------------------|
-------|-------|-------|-------|-------|--------------4----4----|
-------|-------|-------|-------|-------|--------------4----4----|
-------|-------|-------|-------|-------|--1--0--1--0------------|
-------|-------|-------|-------|-------|--1--0--1--0------------|

  PM PM PM PM              PM PM PM PM              PM PM PM PM            
  E  E  E  E  Q    Q       E  E  E  E  Q    Q       E  E  E  E  Q    Q     
------------------------|------------------------|------------------------|
------------------------|------------------------|------------------------|
--------------4----6----|--------------4----4----|--------------3----2----|
--------------4----6----|--------------4----4----|--------------3----2----|
--1--0--1--0------------|--1--0--1--0------------|--1--0--1--0------------|
--1--0--1--0------------|--1--0--1--0------------|--1--0--1--0------------|

  PM PM PM PM              PM PM PM PM              PM PM PM PM            
  E  E  E  E  Q    Q       E  E  E  E  Q    Q       E  E  E  E  Q    Q     
------------------------|------------------------|------------------------|
------------------------|------------------------|------------------------|
--------------4----4----|--------------4----6----|--------------4----4----|
--------------4----4----|--------------4----6----|--------------4----4----|
--1--0--1--0------------|--1--0--1--0------------|--1--0--1--0------------|
--1--0--1--0------------|--1--0--1--0------------|--1--0--1--0------------|

  PM PM PM PM              PM PM PM PM              PM PM PM PM            
  E  E  E  E  Q    Q       E  E  E  E  Q    Q       E  E  E  E  Q    Q     
------------------------|------------------------|------------------------|
------------------------|------------------------|------------------------|
--------------3----2----|--------------4----4----|--------------4----6----|
--------------3----2----|--------------4----4----|--------------4----6----|
--1--0--1--0------------|--1--0--1--0------------|--1--0--1--0------------|
--1--0--1--0------------|--1--0--1--0------------|--1--0--1--0------------|

  PM PM PM PM              PM PM PM PM              PM PM PM PM            
  E  E  E  E  Q    Q       E  E  E  E  Q    Q       E  E  E  E  Q    Q     
------------------------|------------------------|------------------------|
------------------------|------------------------|------------------------|
--------------4----4----|--------------3----2----|--------------4----4----|
--------------4----4----|--------------3----2----|--------------4----4----|
--1--0--1--0------------|--1--0--1--0------------|--1--0--1--0------------|
--1--0--1--0------------|--1--0--1--0------------|--1--0--1--0------------|

  PM PM PM PM              PM PM PM PM              PM PM PM PM            
  E  E  E  E  Q    Q       E  E  E  E  Q    Q       E  E  E  E  Q    Q     
------------------------|------------------------|------------------------|
------------------------|------------------------|------------------------|
--------------4----6----|--------------4----4----|--------------3----2----|
--------------4----6----|--------------4----4----|--------------3----2----|
--1--0--1--0------------|--1--0--1--0------------|--1--0--1--0------------|
--1--0--1--0------------|--1--0--1--0------------|--1--0--1--0------------|

  W                   W                   W                   W                 
-------------------|-------------------|-------------------|-------------------|
-------------------|-------------------|-------------------|-------------------|
-------------------|-------------------|-------------------|-------------------|
--0----------------|--2----------------|--0----------------|--2----------------|
--0----------------|--2----------------|--0----------------|--2----------------|
--0----------------|--2----------------|--0----------------|--2----------------|

  W                   W                   W                   W                 
-------------------|-------------------|-------------------|-------------------|
-------------------|-------------------|-------------------|-------------------|
-------------------|-------------------|-------------------|-------------------|
--0----------------|--2----------------|--0----------------|--2----------------|
--0----------------|--2----------------|--0----------------|--2----------------|
--0----------------|--2----------------|--0----------------|--2----------------|

  ^    ^  v  ^    ^  v                                   
  Q    E  E  Q    E  W                   E  E  E  E  E   
--------------------------------------|-----------------|
--------------------------------------|-----------------|
--------------------------------------|-----------------|
--------------------------------------|-----------------|
--3----3--5--7----5--0----------------|-----------------|
--3----3--5--7----5--0----------------|-----------------|

  ^    ^  v  ^    ^  v                                   
  Q    E  E  Q    E  W                   E  E  E  E  E   
--------------------------------------|-----------------|
--------------------------------------|-----------------|
--------------------------------------|-----------------|
--------------------------------------|-----------------|
--3----3--5--7----5--0----------------|-----------------|
--3----3--5--7----5--0----------------|-----------------|

  ^    ^  v  ^    ^  v                                   
  Q    E  E  Q    E  W                   E  E  E  E  E   
--------------------------------------|-----------------|
--------------------------------------|-----------------|
--------------------------------------|-----------------|
--------------------------------------|-----------------|
--3----3--5--7----5--0----------------|-----------------|
--3----3--5--7----5--0----------------|-----------------|

  ^    ^  v  ^    ^  v                                   
  Q    E  E  Q    E  W                   E  E  E  E  E   
--------------------------------------|-----------------|
--------------------------------------|-----------------|
--------------------------------------|-----------------|
--------------------------------------|-----------------|
--3----3--5--7----5--0----------------|-----------------|
--3----3--5--7----5--0----------------|-----------------|

  ^    ^  v  ^    ^  v                                   
  Q    E  E  Q    E  W                   E  E  E  E  E   
--------------------------------------|-----------------|
--------------------------------------|-----------------|
--------------------------------------|-----------------|
--------------------------------------|-----------------|
--3----3--5--7----5--0----------------|-----------------|
--3----3--5--7----5--0----------------|-----------------|

  ^    ^  v  ^    ^  v                                   
  Q    E  E  Q    E  W                   E  E  E  E  E   
--------------------------------------|-----------------|
--------------------------------------|-----------------|
--------------------------------------|-----------------|
--------------------------------------|-----------------|
--3----3--5--7----5--0----------------|-----------------|
--3----3--5--7----5--0----------------|-----------------|

  ^    ^  v  ^    ^  v                                   
  Q    E  E  Q    E  W                   E  E  E  E  E   
--------------------------------------|-----------------|
--------------------------------------|-----------------|
--------------------------------------|-----------------|
--------------------------------------|-----------------|
--3----3--5--7----5--0----------------|-----------------|
--3----3--5--7----5--0----------------|-----------------|

  ^    ^  v  ^    ^  v                   ^    v    ^    v    ^    v   
  Q    E  E  Q    E  H           E  E    E    E    E    E    E    E   
------------------------------|--------------------------------------|
------------------------------|--------------------------------------|
------------------------------|--------------------------------------|
------------------------------|--------------------------------------|
--3----3--5--7----5--0--------|----------7----7----7----7----7----7--|
--3----3--5--7----5--0--------|--------<>7--<>7--<>7--<>7--<>7--<>7--|

          ^    v    ^    v    ^    v                        
  E  E    E    E    E    E    E    E     W                  
--------------------------------------|-------------------||
--------------------------------------|-------------------||
--------------------------------------|-------------------||
--------------------------------------|-------------------||
----------7----7----7----7----7----7--|--0----------------||
--------<>7--<>7--<>7--<>7--<>7--<>7--|--0----------------||

==========Who Am I?==========

Lead Guitar

     Q    E  E  Q    E  Q       E  E  E  E  Q    Q     
D||--------------------------|------------------------|
A||--------------------------|------------------------|
F||--------------------------|------------------------|
C||--0----3--5--6----0--3----|-----0--3--5--8----8----|
G||--0----3--5--6----0--3----|-----0--3--5--8----8----|
C||--0----3--5--6----0--3----|-----0--3--5--8----8----|

  Q    E  E  Q    E  Q       E  E  E  E  Q    Q       Q    E  E  Q    E  Q     
--------------------------|------------------------|--------------------------|
--------------------------|------------------------|--------------------------|
--------------------------|------------------------|--------------------------|
--0----3--5--6----0--3----|-----0--3--5--8----8----|--0----3--5--6----0--3----|
--0----3--5--6----0--3----|-----0--3--5--8----8----|--0----3--5--6----0--3----|
--0----3--5--6----0--3----|-----0--3--5--8----8----|--0----3--5--6----0--3----|

  E  E  E  E  Q    Q       Q    E  E  Q    E  Q       E  E  E  E  Q    Q     
------------------------|--------------------------|------------------------|
------------------------|--------------------------|------------------------|
------------------------|--------------------------|------------------------|
-----0--3--5--8----8----|--0----3--5--6----0--3----|-----0--3--5--5----5----|
-----0--3--5--8----8----|--0----3--5--6----0--3----|-----0--3--5--5----5----|
-----0--3--5--8----8----|--0----3--5--6----0--3----|-----0--3--5--5----5----|

  Q    E  E  Q    E  Q       E  E  E  E  Q    Q       Q    E  E  Q    E  Q     
--------------------------|------------------------|--------------------------|
--------------------------|------------------------|--------------------------|
--------------------------|------------------------|--------------------------|
--0----3--5--6----0--3----|-----0--3--5--8----8----|--0----3--5--6----0--3----|
--0----3--5--6----0--3----|-----0--3--5--8----8----|--0----3--5--6----0--3----|
--0----3--5--6----0--3----|-----0--3--5--8----8----|--0----3--5--6----0--3----|

  E  E  E  E  Q    Q       Q    E  E  Q    E  Q       E  E  E  E  Q    Q     
------------------------|--------------------------|------------------------|
------------------------|--------------------------|------------------------|
------------------------|--------------------------|------------------------|
-----0--3--5--8----8----|--0----3--5--6----0--3----|-----0--3--5--8----8----|
-----0--3--5--8----8----|--0----3--5--6----0--3----|-----0--3--5--8----8----|
-----0--3--5--8----8----|--0----3--5--6----0--3----|-----0--3--5--8----8----|

                                                      PM PM PM PM PM PM PM PM  
  Q    E  E  Q    E  Q       E  E  E  E  Q    Q       E  E  E  E  E  E  E  E   
--------------------------|------------------------|--------------------------|
--------------------------|------------------------|--------------------------|
--------------------------|------------------------|--------------------------|
--0----3--5--6----0--3----|-----0--3--5--5----5----|--2--2--5--5--2--2--5--5--|
--0----3--5--6----0--3----|-----0--3--5--5----5----|--2--2--5--5--2--2--5--5--|
--0----3--5--6----0--3----|-----0--3--5--5----5----|--0--0--0--0--0--0--0--0--|

  PM PM PM PM PM PM PM PM    PM PM PM PM PM PM PM PM  
  E  E  E  E  E  E  E  E     E  E  E  E  E  E  E  E   
--------------------------|--------------------------|
--------------------------|--------------------------|
--------------------------|--------------------------|
--2--2--5--5--2--2--5--5--|--5--5--5--5--5--5--5--5--|
--2--2--5--5--2--2--5--5--|--5--5--5--5--5--5--5--5--|
--0--0--0--0--0--0--0--0--|--3--3--3--3--3--3--3--3--|

  PM PM PM PM PM PM PM PM    PM PM PM PM PM PM PM PM  
  E  E  E  E  E  E  E  E     E  E  E  E  E  E  E  E   
--------------------------|--------------------------|
--------------------------|--------------------------|
--------------------------|--------------------------|
--5--5--5--5--5--5--5--5--|--2--2--5--5--2--2--5--5--|
--5--5--5--5--5--5--5--5--|--2--2--5--5--2--2--5--5--|
--3--3--3--3--3--3--3--3--|--0--0--0--0--0--0--0--0--|

  PM PM PM PM PM PM PM PM    PM PM PM PM PM PM PM PM  
  E  E  E  E  E  E  E  E     E  E  E  E  E  E  E  E   
--------------------------|--------------------------|
--------------------------|--------------------------|
--------------------------|--------------------------|
--2--2--5--5--2--2--5--5--|--5--5--5--5--5--5--5--5--|
--2--2--5--5--2--2--5--5--|--5--5--5--5--5--5--5--5--|
--0--0--0--0--0--0--0--0--|--3--3--3--3--3--3--3--3--|

  PM PM PM PM PM PM PM PM    PM PM PM PM PM PM PM PM  
  E  E  E  E  E  E  E  E     E  E  E  E  E  E  E  E   
--------------------------|--------------------------|
--------------------------|--------------------------|
--------------------------|--------------------------|
--5--5--5--5--5--5--5--5--|--2--2--5--5--2--2--5--5--|
--5--5--5--5--5--5--5--5--|--2--2--5--5--2--2--5--5--|
--3--3--3--3--3--3--3--3--|--0--0--0--0--0--0--0--0--|

  PM PM PM PM PM PM PM PM    PM PM PM PM PM PM PM PM  
  E  E  E  E  E  E  E  E     E  E  E  E  E  E  E  E   
--------------------------|--------------------------|
--------------------------|--------------------------|
--------------------------|--------------------------|
--2--2--5--5--2--2--5--5--|--5--5--5--5--5--5--5--5--|
--2--2--5--5--2--2--5--5--|--5--5--5--5--5--5--5--5--|
--0--0--0--0--0--0--0--0--|--3--3--3--3--3--3--3--3--|

  PM PM PM PM PM PM PM PM    PM PM PM PM PM PM PM PM  
  E  E  E  E  E  E  E  E     E  E  E  E  E  E  E  E   
--------------------------|--------------------------|
--------------------------|--------------------------|
--------------------------|--------------------------|
--5--5--5--5--5--5--5--5--|--2--2--5--5--2--2--5--5--|
--5--5--5--5--5--5--5--5--|--2--2--5--5--2--2--5--5--|
--3--3--3--3--3--3--3--3--|--0--0--0--0--0--0--0--0--|

  PM PM PM PM PM PM PM PM    PM PM PM PM PM PM PM PM  
  E  E  E  E  E  E  E  E     E  E  E  E  E  E  E  E   
--------------------------|--------------------------|
--------------------------|--------------------------|
--------------------------|--------------------------|
--2--2--5--5--2--2--5--5--|--5--5--5--5--5--5--5--5--|
--2--2--5--5--2--2--5--5--|--5--5--5--5--5--5--5--5--|
--0--0--0--0--0--0--0--0--|--3--3--3--3--3--3--3--3--|

  PM PM PM PM PM PM PM PM    PM PM PM PM PM PM PM PM  
  E  E  E  E  E  E  E  E     E  E  E  E  E  E  E  E   
--------------------------|--------------------------|
--------------------------|--------------------------|
--------------------------|--------------------------|
--5--5--5--5--5--5--5--5--|--2--2--5--5--2--2--5--5--|
--5--5--5--5--5--5--5--5--|--2--2--5--5--2--2--5--5--|
--3--3--3--3--3--3--3--3--|--0--0--0--0--0--0--0--0--|

  PM PM PM PM PM PM PM PM    PM PM PM PM PM PM PM PM  
  E  E  E  E  E  E  E  E     E  E  E  E  E  E  E  E   
--------------------------|--------------------------|
--------------------------|--------------------------|
--------------------------|--------------------------|
--2--2--5--5--2--2--5--5--|--5--5--5--5--5--5--5--5--|
--2--2--5--5--2--2--5--5--|--5--5--5--5--5--5--5--5--|
--0--0--0--0--0--0--0--0--|--3--3--3--3--3--3--3--3--|

  PM PM PM PM PM PM PM PM    PM PM PM PM PM PM PM PM  
  E  E  E  E  E  E  E  E     E  E  E  E  E  E  E  E   
--------------------------|--------------------------|
--------------------------|--------------------------|
--------------------------|--------------------------|
--5--5--5--5--5--5--5--5--|--2--2--5--5--2--2--5--5--|
--5--5--5--5--5--5--5--5--|--2--2--5--5--2--2--5--5--|
--3--3--3--3--3--3--3--3--|--0--0--0--0--0--0--0--0--|

  PM PM PM PM PM PM PM PM    PM PM PM PM PM PM PM PM  
  E  E  E  E  E  E  E  E     E  E  E  E  E  E  E  E   
--------------------------|--------------------------|
--------------------------|--------------------------|
--------------------------|--------------------------|
--2--2--5--5--2--2--5--5--|--5--5--5--5--5--5--5--5--|
--2--2--5--5--2--2--5--5--|--5--5--5--5--5--5--5--5--|
--0--0--0--0--0--0--0--0--|--3--3--3--3--3--3--3--3--|

  PM PM PM PM PM PM PM PM                             
  E  E  E  E  E  E  E  E     E  E  E  E  E  E  E  E   
--------------------------|--------------------------|
--------------------------|--------------------------|
--------------------------|--------------------------|
--5--5--5--5--5--5--5--5--|--------------------------|
--5--5--5--5--5--5--5--5--|--2--2--2--2--2--2--2--2--|
--3--3--3--3--3--3--3--3--|--------------------------|

  E  E  E  E  E  E  E  E     E  E  E  E  E  E  E  E   
--------------------------|--------------------------|
--------------------------|--------------------------|
--------------------------|--------------------------|
--------------------------|--------------------------|
--5--5--5--5--5--5--5--5--|--7--7--7--7--7--7--7--7--|
--------------------------|--------------------------|

  E  E  E  E  E  E  E  E                       E  E  E  E   E   
--------------------------|-----|-----|-----|------------------|
--------------------------|-----|-----|-----|------------------|
--------------------------|-----|-----|-----|------------------|
--------------------------|-----|-----|-----|--------------17--|
--9--9--9--9--9--9--9--9--|-----|-----|-----|--------------15--|
--------------------------|-----|-----|-----|------------------|

  E  E  E  E  E  E  E  E     E  E  E  E  E  E  E  E   
--------------------------|--------------------------|
--------------------------|--------------------------|
--2--2--2--2--2--2--2--2--|--------------------------|
--2--2--2--2--2--2--2--2--|--5--5--5--5--2--5--2--0--|
--0--0--0--0--0--0--0--0--|--5--5--5--5--2--5--2--0--|
--------------------------|--3--3--3--3--2--5--2--0--|

  E  E  E  E  E  E  E  E     E  E  E  E  E  E  E  E   
--------------------------|--------------------------|
--------------------------|--------------------------|
--------------------------|--------------------------|
--9--9--9--9--9--9--9--9--|--7--7--7--7--7--7--7--7--|
--9--9--9--9--9--9--9--9--|--7--7--7--7--7--7--7--7--|
--7--7--7--7--7--7--7--7--|--5--5--5--5--5--5--5--5--|

  E  E  E  E  E  E  E  E     E  E  E  E  E  E  E  E   
--------------------------|--------------------------|
--------------------------|--------------------------|
--2--2--2--2--2--2--2--2--|--------------------------|
--2--2--2--2--2--2--2--2--|--5--5--5--5--2--5--2--0--|
--0--0--0--0--0--0--0--0--|--5--5--5--5--2--5--2--0--|
--------------------------|--3--3--3--3--2--5--2--0--|

  E  E  E  E  E  E  E  E     E  E  E  E  E  E  E  E   
--------------------------|--------------------------|
--------------------------|--------------------------|
--------------------------|--------------------------|
--9--9--9--9--9--9--9--9--|--7--7--7--7--7--7--7--7--|
--9--9--9--9--9--9--9--9--|--7--7--7--7--7--7--7--7--|
--7--7--7--7--7--7--7--7--|--5--5--5--5--5--5--5--5--|

  E  E  E  E  E  E  E  E     E  E  E  E  E  E  E  E   
--------------------------|--------------------------|
--------------------------|--------------------------|
--2--2--2--2--2--2--2--2--|--------------------------|
--2--2--2--2--2--2--2--2--|--5--5--5--5--2--5--2--0--|
--0--0--0--0--0--0--0--0--|--5--5--5--5--2--5--2--0--|
--------------------------|--3--3--3--3--2--5--2--0--|

  E  E  E  E  E  E  E  E     E  E  E  E  E  E  E  E   
--------------------------|--------------------------|
--------------------------|--------------------------|
--------------------------|--------------------------|
--9--9--9--9--9--9--9--9--|--7--7--7--7--7--7--7--7--|
--9--9--9--9--9--9--9--9--|--7--7--7--7--7--7--7--7--|
--7--7--7--7--7--7--7--7--|--5--5--5--5--5--5--5--5--|

  E  E  E  E  E  E  E  E     E  E  E  E  E  E  E  E   
--------------------------|--------------------------|
--------------------------|--------------------------|
--2--2--2--2--2--2--2--2--|--------------------------|
--2--2--2--2--2--2--2--2--|--5--5--5--5--2--5--2--0--|
--0--0--0--0--0--0--0--0--|--5--5--5--5--2--5--2--0--|
--------------------------|--3--3--3--3--2--5--2--0--|

  E  E  E  E  E  E  E  E     E  E  E  E  E  E  E  E   
--------------------------|--------------------------|
--------------------------|--------------------------|
--------------------------|--------------------------|
--9--9--9--9--9--9--9--9--|--7--7--7--7--7--7--7--7--|
--9--9--9--9--9--9--9--9--|--7--7--7--7--7--7--7--7--|
--7--7--7--7--7--7--7--7--|--5--5--5--5--5--5--5--5--|

  Q    E  E  Q    E  Q       E  E  E  E  Q    Q       Q    E  E  Q    E  Q     
--------------------------|------------------------|--------------------------|
--------------------------|------------------------|--------------------------|
--------------------------|------------------------|--------------------------|
--0----3--5--6----0--3----|-----0--3--5--8----8----|--0----3--5--6----0--3----|
--0----3--5--6----0--3----|-----0--3--5--8----8----|--0----3--5--6----0--3----|
--0----3--5--6----0--3----|-----0--3--5--8----8----|--0----3--5--6----0--3----|

  E  E  E  E  Q    Q       Q    E  E  Q    E  Q       E  E  E  E  Q    Q     
------------------------|--------------------------|------------------------|
------------------------|--------------------------|------------------------|
------------------------|--------------------------|------------------------|
-----0--3--5--8----8----|--0----3--5--6----0--3----|-----0--3--5--8----8----|
-----0--3--5--8----8----|--0----3--5--6----0--3----|-----0--3--5--8----8----|
-----0--3--5--8----8----|--0----3--5--6----0--3----|-----0--3--5--8----8----|

                                                      PM PM PM PM PM PM PM PM  
  Q    E  E  Q    E  Q       E  E  E  E  Q    Q       E  E  E  E  E  E  E  E   
--------------------------|------------------------|--------------------------|
--------------------------|------------------------|--------------------------|
--------------------------|------------------------|--------------------------|
--0----3--5--6----0--3----|-----0--3--5--5----5----|--2--2--5--5--2--2--5--5--|
--0----3--5--6----0--3----|-----0--3--5--5----5----|--2--2--5--5--2--2--5--5--|
--0----3--5--6----0--3----|-----0--3--5--5----5----|--0--0--0--0--0--0--0--0--|

  PM PM PM PM PM PM PM PM    PM PM PM PM PM PM PM PM  
  E  E  E  E  E  E  E  E     E  E  E  E  E  E  E  E   
--------------------------|--------------------------|
--------------------------|--------------------------|
--------------------------|--------------------------|
--2--2--5--5--2--2--5--5--|--5--5--5--5--5--5--5--5--|
--2--2--5--5--2--2--5--5--|--5--5--5--5--5--5--5--5--|
--0--0--0--0--0--0--0--0--|--3--3--3--3--3--3--3--3--|

  PM PM PM PM PM PM PM PM    PM PM PM PM PM PM PM PM  
  E  E  E  E  E  E  E  E     E  E  E  E  E  E  E  E   
--------------------------|--------------------------|
--------------------------|--------------------------|
--------------------------|--------------------------|
--5--5--5--5--5--5--5--5--|--2--2--5--5--2--2--5--5--|
--5--5--5--5--5--5--5--5--|--2--2--5--5--2--2--5--5--|
--3--3--3--3--3--3--3--3--|--0--0--0--0--0--0--0--0--|

  PM PM PM PM PM PM PM PM    PM PM PM PM PM PM PM PM  
  E  E  E  E  E  E  E  E     E  E  E  E  E  E  E  E   
--------------------------|--------------------------|
--------------------------|--------------------------|
--------------------------|--------------------------|
--2--2--5--5--2--2--5--5--|--5--5--5--5--5--5--5--5--|
--2--2--5--5--2--2--5--5--|--5--5--5--5--5--5--5--5--|
--0--0--0--0--0--0--0--0--|--3--3--3--3--3--3--3--3--|

  PM PM PM PM PM PM PM PM    PM PM PM PM PM PM PM PM  
  E  E  E  E  E  E  E  E     E  E  E  E  E  E  E  E   
--------------------------|--------------------------|
--------------------------|--------------------------|
--------------------------|--------------------------|
--5--5--5--5--5--5--5--5--|--2--2--5--5--2--2--5--5--|
--5--5--5--5--5--5--5--5--|--2--2--5--5--2--2--5--5--|
--3--3--3--3--3--3--3--3--|--0--0--0--0--0--0--0--0--|

  PM PM PM PM PM PM PM PM    PM PM PM PM PM PM PM PM  
  E  E  E  E  E  E  E  E     E  E  E  E  E  E  E  E   
--------------------------|--------------------------|
--------------------------|--------------------------|
--------------------------|--------------------------|
--2--2--5--5--2--2--5--5--|--5--5--5--5--5--5--5--5--|
--2--2--5--5--2--2--5--5--|--5--5--5--5--5--5--5--5--|
--0--0--0--0--0--0--0--0--|--3--3--3--3--3--3--3--3--|

  PM PM PM PM PM PM PM PM    PM PM PM PM PM PM PM PM  
  E  E  E  E  E  E  E  E     E  E  E  E  E  E  E  E   
--------------------------|--------------------------|
--------------------------|--------------------------|
--------------------------|--------------------------|
--5--5--5--5--5--5--5--5--|--2--2--5--5--2--2--5--5--|
--5--5--5--5--5--5--5--5--|--2--2--5--5--2--2--5--5--|
--3--3--3--3--3--3--3--3--|--0--0--0--0--0--0--0--0--|

  PM PM PM PM PM PM PM PM    PM PM PM PM PM PM PM PM  
  E  E  E  E  E  E  E  E     E  E  E  E  E  E  E  E   
--------------------------|--------------------------|
--------------------------|--------------------------|
--------------------------|--------------------------|
--2--2--5--5--2--2--5--5--|--5--5--5--5--5--5--5--5--|
--2--2--5--5--2--2--5--5--|--5--5--5--5--5--5--5--5--|
--0--0--0--0--0--0--0--0--|--3--3--3--3--3--3--3--3--|

  PM PM PM PM PM PM PM PM    PM PM PM PM PM PM PM PM  
  E  E  E  E  E  E  E  E     E  E  E  E  E  E  E  E   
--------------------------|--------------------------|
--------------------------|--------------------------|
--------------------------|--------------------------|
--5--5--5--5--5--5--5--5--|--2--2--5--5--2--2--5--5--|
--5--5--5--5--5--5--5--5--|--2--2--5--5--2--2--5--5--|
--3--3--3--3--3--3--3--3--|--0--0--0--0--0--0--0--0--|

  PM PM PM PM PM PM PM PM    PM PM PM PM PM PM PM PM  
  E  E  E  E  E  E  E  E     E  E  E  E  E  E  E  E   
--------------------------|--------------------------|
--------------------------|--------------------------|
--------------------------|--------------------------|
--2--2--5--5--2--2--5--5--|--5--5--5--5--5--5--5--5--|
--2--2--5--5--2--2--5--5--|--5--5--5--5--5--5--5--5--|
--0--0--0--0--0--0--0--0--|--3--3--3--3--3--3--3--3--|

  PM PM PM PM PM PM PM PM                             
  E  E  E  E  E  E  E  E     E  E  E  E  E  E  E  E   
--------------------------|--------------------------|
--------------------------|--------------------------|
--------------------------|--------------------------|
--5--5--5--5--5--5--5--5--|--------------------------|
--5--5--5--5--5--5--5--5--|--2--2--2--2--2--2--2--2--|
--3--3--3--3--3--3--3--3--|--------------------------|

  E  E  E  E  E  E  E  E     E  E  E  E  E  E  E  E   
--------------------------|--------------------------|
--------------------------|--------------------------|
--------------------------|--------------------------|
--------------------------|--------------------------|
--5--5--5--5--5--5--5--5--|--7--7--7--7--7--7--7--7--|
--------------------------|--------------------------|

  E  E  E  E  E  E  E  E                       E  E  E  E   E   
--------------------------|-----|-----|-----|------------------|
--------------------------|-----|-----|-----|------------------|
--------------------------|-----|-----|-----|------------------|
--------------------------|-----|-----|-----|--------------17--|
--9--9--9--9--9--9--9--9--|-----|-----|-----|--------------15--|
--------------------------|-----|-----|-----|------------------|

  E  E  E  E  E  E  E  E     E  E  E  E  E  E  E  E   
--------------------------|--------------------------|
--------------------------|--------------------------|
--2--2--2--2--2--2--2--2--|--------------------------|
--2--2--2--2--2--2--2--2--|--5--5--5--5--2--5--2--0--|
--0--0--0--0--0--0--0--0--|--5--5--5--5--2--5--2--0--|
--------------------------|--3--3--3--3--2--5--2--0--|

  E  E  E  E  E  E  E  E     E  E  E  E  E  E  E  E   
--------------------------|--------------------------|
--------------------------|--------------------------|
--------------------------|--------------------------|
--9--9--9--9--9--9--9--9--|--7--7--7--7--7--7--7--7--|
--9--9--9--9--9--9--9--9--|--7--7--7--7--7--7--7--7--|
--7--7--7--7--7--7--7--7--|--5--5--5--5--5--5--5--5--|

  E  E  E  E  E  E  E  E     E  E  E  E  E  E  E  E   
--------------------------|--------------------------|
--------------------------|--------------------------|
--2--2--2--2--2--2--2--2--|--------------------------|
--2--2--2--2--2--2--2--2--|--5--5--5--5--2--5--2--0--|
--0--0--0--0--0--0--0--0--|--5--5--5--5--2--5--2--0--|
--------------------------|--3--3--3--3--2--5--2--0--|

  E  E  E  E  E  E  E  E     E  E  E  E  E  E  E  E   
--------------------------|--------------------------|
--------------------------|--------------------------|
--------------------------|--------------------------|
--9--9--9--9--9--9--9--9--|--7--7--7--7--7--7--7--7--|
--9--9--9--9--9--9--9--9--|--7--7--7--7--7--7--7--7--|
--7--7--7--7--7--7--7--7--|--5--5--5--5--5--5--5--5--|

  E  E  E  E  E  E  E  E     E  E  E  E  E  E  E  E   
--------------------------|--------------------------|
--------------------------|--------------------------|
--2--2--2--2--2--2--2--2--|--------------------------|
--2--2--2--2--2--2--2--2--|--5--5--5--5--2--5--2--0--|
--0--0--0--0--0--0--0--0--|--5--5--5--5--2--5--2--0--|
--------------------------|--3--3--3--3--2--5--2--0--|

  E  E  E  E  E  E  E  E     E  E  E  E  E  E  E  E   
--------------------------|--------------------------|
--------------------------|--------------------------|
--------------------------|--------------------------|
--9--9--9--9--9--9--9--9--|--7--7--7--7--7--7--7--7--|
--9--9--9--9--9--9--9--9--|--7--7--7--7--7--7--7--7--|
--7--7--7--7--7--7--7--7--|--5--5--5--5--5--5--5--5--|

  E  E  E  E  E  E  E  E     E  E  E  E  E  E  E  E   
--------------------------|--------------------------|
--------------------------|--------------------------|
--2--2--2--2--2--2--2--2--|--------------------------|
--2--2--2--2--2--2--2--2--|--5--5--5--5--2--5--2--0--|
--0--0--0--0--0--0--0--0--|--5--5--5--5--2--5--2--0--|
--------------------------|--3--3--3--3--2--5--2--0--|

  E  E  E  E  E  E  E  E     E  E  E  E  E  E  E  E     H        E  Q     
--------------------------|--------------------------|-------------------|
--------------------------|--------------------------|--------------3----|
--------------------------|--------------------------|-----------2-------|
--9--9--9--9--9--9--9--9--|--7--7--7--7--7--7--7--7--|--0----------------|
--9--9--9--9--9--9--9--9--|--7--7--7--7--7--7--7--7--|--0----------------|
--7--7--7--7--7--7--7--7--|--5--5--5--5--5--5--5--5--|--0----------------|

  H        E  Q    E     H        E  Q       H        E  Q    E   
----------------------|-------------------|----------------------|
--5--------3--2----1--|--------------3----|--5--------3--2----1--|
----------------------|-----------2-------|----------------------|
----------------------|--0----------------|----------------------|
----------------------|--0----------------|----------------------|
----------------------|--0----------------|----------------------|

  H        E  Q       H        E  Q    E     H        E  Q     
-------------------|----------------------|-------------------|
--------------3----|--5--------3--2----1--|--------------3----|
-----------2-------|----------------------|-----------2-------|
--0----------------|----------------------|--0----------------|
--0----------------|----------------------|--0----------------|
--0----------------|----------------------|--0----------------|

  H        E  Q    E     W                    E    E   Q     E    E   Q     
----------------------|--9b----------------|-------------------------------|
--5--------3--2----1--|--------------------|--8h--10p--8-------------------|
----------------------|--------------------|----------------11p--10p--8----|
----------------------|--------------------|-------------------------------|
----------------------|--------------------|-------------------------------|
----------------------|--------------------|-------------------------------|

  W                    E    E   E   Q    E  Q       E  E  E  E  E  E  E  E   
--------------------|----------------------------|--------------------------|
--------------------|----------------------------|--------------------2--5--|
--9b----------------|----------------------------|--------------2--4--------|
--------------------|--8h--10p--8s--7------------|--------2--5--------------|
--------------------|--------------------9--8----|--2--4--------------------|
--------------------|----------------------------|--------------------------|

  E  E  E  E  E  E  E  E     E  E  E  E  E  E  E  E   
--------------------------|--------------------------|
--7--5-----5--------------|--------------------7--9--|
--------7-----7--5-----5--|--------7--9--------------|
--------------------7-----|--7--9--------7--9--------|
--------------------------|--------------------------|
--------------------------|--------------------------|

   S S S S  S  S  S  S  S  S  S  S  S  S  S  S  
-----------------------------------------------|
--12-9-9-9-13-15-15-15-14-16-16-16-15-17-17-17-|
-----------------------------------------------|
-----------------------------------------------|
-----------------------------------------------|
-----------------------------------------------|

   S  S  S  S  S  S  S  S  S  S  S  S  S  S  S  S  
--------------------------------------------------|
--20-16-16-19-16-16-20-16-16-19-16-16-18-16-17-16-|
--------------------------------------------------|
--------------------------------------------------|
--------------------------------------------------|
--------------------------------------------------|

   S  S  S  S  S  S  S  S  S  S  S  S  S  S  S  S  
--------------------------------------------------|
--20-16-16-19-16-16-20-16-16-19-16-16-18-16-17-16-|
--------------------------------------------------|
--------------------------------------------------|
--------------------------------------------------|
--------------------------------------------------|

   S  S  S  S  S  S  S  S  S  S  S  S  S  S  S  S  
--------------------------------------------------|
--------------------------------------------------|
--20-16-16-19-16-16-20-16-16-19-16-16-18-16-17-16-|
--------------------------------------------------|
--------------------------------------------------|
--------------------------------------------------|

                                                                 PM PM PM PM  
   S  S  S  S  S  S  S  S  S  S  S  S  S  S  S  S    E  E  E  E  E  E  E  E   
--------------------------------------------------|--------------------------|
--------------------------------------------------|--------------------------|
--------------------------------------------------|--------------------------|
--20-16-16-19-16-16-------------------------------|--5--5--5--5--1--1--1--1--|
--------------------20-16-16-19-16-16-------------|--2--2--2--2--1--1--1--1--|
--------------------------------------18-16-17-16-|--2--2--2--2--1--1--1--1--|

              PM PM PM PM                PM PM PM PM  
  E  E  E  E  E  E  E  E     E  E  E  E  E  E  E  E   
--------------------------|--------------------------|
--------------------------|--------------------------|
--------------------------|--------------------------|
--5--5--5--5--1--1--1--1--|--5--5--5--5--1--1--1--1--|
--2--2--2--2--1--1--1--1--|--2--2--2--2--1--1--1--1--|
--2--2--2--2--1--1--1--1--|--2--2--2--2--1--1--1--1--|

              PM PM PM PM                PM PM PM PM  
  E  E  E  E  E  E  E  E     E  E  E  E  E  E  E  E   
--------------------------|--------------------------|
--------------------------|--------------------------|
--------------------------|--------------------------|
--5--5--5--5--1--1--1--1--|--5--5--5--5--1--1--1--1--|
--2--2--2--2--1--1--1--1--|--2--2--2--2--1--1--1--1--|
--2--2--2--2--1--1--1--1--|--2--2--2--2--1--1--1--1--|

              PM PM PM PM                PM PM PM PM  
  E  E  E  E  E  E  E  E     E  E  E  E  E  E  E  E   
--------------------------|--------------------------|
--------------------------|--------------------------|
--------------------------|--------------------------|
--5--5--5--5--1--1--1--1--|--5--5--5--5--1--1--1--1--|
--2--2--2--2--1--1--1--1--|--2--2--2--2--1--1--1--1--|
--2--2--2--2--1--1--1--1--|--2--2--2--2--1--1--1--1--|

              PM PM PM PM                PM PM PM PM  
  E  E  E  E  E  E  E  E     E  E  E  E  E  E  E  E   
--------------------------|--------------------------|
--------------------------|--------------------------|
--------------------------|--------------------------|
--5--5--5--5--1--1--1--1--|--5--5--5--5--1--1--1--1--|
--2--2--2--2--1--1--1--1--|--2--2--2--2--1--1--1--1--|
--2--2--2--2--1--1--1--1--|--2--2--2--2--1--1--1--1--|

              PM PM PM PM                PM PM PM PM  
  E  E  E  E  E  E  E  E     E  E  E  E  E  E  E  E   
--------------------------|--------------------------|
--------------------------|--------------------------|
--------------------------|--------------------------|
--5--5--5--5--1--1--1--1--|--5--5--5--5--1--1--1--1--|
--2--2--2--2--1--1--1--1--|--2--2--2--2--1--1--1--1--|
--2--2--2--2--1--1--1--1--|--2--2--2--2--1--1--1--1--|

              PM PM PM PM                PM PM PM PM  
  E  E  E  E  E  E  E  E     E  E  E  E  E  E  E  E   
--------------------------|--------------------------|
--------------------------|--------------------------|
--------------------------|--------------------------|
--5--5--5--5--1--1--1--1--|--5--5--5--5--1--1--1--1--|
--2--2--2--2--1--1--1--1--|--2--2--2--2--1--1--1--1--|
--2--2--2--2--1--1--1--1--|--2--2--2--2--1--1--1--1--|

              PM PM PM PM                PM PM PM PM  
  E  E  E  E  E  E  E  E     E  E  E  E  E  E  E  E   
--------------------------|--------------------------|
--------------------------|--------------------------|
--------------------------|--------------------------|
--5--5--5--5--1--1--1--1--|--5--5--5--5--1--1--1--1--|
--2--2--2--2--1--1--1--1--|--2--2--2--2--1--1--1--1--|
--2--2--2--2--1--1--1--1--|--2--2--2--2--1--1--1--1--|

              PM PM PM PM                PM PM PM PM  
  E  E  E  E  E  E  E  E     E  E  E  E  E  E  E  E   
--------------------------|--------------------------|
--------------------------|--------------------------|
--------------------------|--------------------------|
--5--5--5--5--1--1--1--1--|--5--5--5--5--1--1--1--1--|
--2--2--2--2--1--1--1--1--|--2--2--2--2--1--1--1--1--|
--2--2--2--2--1--1--1--1--|--2--2--2--2--1--1--1--1--|

              PM PM PM PM                PM PM PM PM  
  E  E  E  E  E  E  E  E     E  E  E  E  E  E  E  E   
--------------------------|--------------------------|
--------------------------|--------------------------|
--------------------------|--------------------------|
--5--5--5--5--1--1--1--1--|--5--5--5--5--1--1--1--1--|
--2--2--2--2--1--1--1--1--|--2--2--2--2--1--1--1--1--|
--2--2--2--2--1--1--1--1--|--2--2--2--2--1--1--1--1--|

              PM PM PM PM                PM PM PM PM  
  E  E  E  E  E  E  E  E     E  E  E  E  E  E  E  E   
--------------------------|--------------------------|
--------------------------|--------------------------|
--------------------------|--------------------------|
--5--5--5--5--1--1--1--1--|--5--5--5--5--1--1--1--1--|
--2--2--2--2--1--1--1--1--|--2--2--2--2--1--1--1--1--|
--2--2--2--2--1--1--1--1--|--2--2--2--2--1--1--1--1--|

              PM PM PM PM                PM PM PM PM  
  E  E  E  E  E  E  E  E     E  E  E  E  E  E  E  E   
--------------------------|--------------------------|
--------------------------|--------------------------|
--------------------------|--------------------------|
--5--5--5--5--1--1--1--1--|--5--5--5--5--1--1--1--1--|
--2--2--2--2--1--1--1--1--|--2--2--2--2--1--1--1--1--|
--2--2--2--2--1--1--1--1--|--2--2--2--2--1--1--1--1--|

              PM PM PM PM                PM PM PM PM  
  E  E  E  E  E  E  E  E     E  E  E  E  E  E  E  E   
--------------------------|--------------------------|
--------------------------|--------------------------|
--------------------------|--------------------------|
--5--5--5--5--1--1--1--1--|--5--5--5--5--1--1--1--1--|
--2--2--2--2--1--1--1--1--|--2--2--2--2--1--1--1--1--|
--2--2--2--2--1--1--1--1--|--2--2--2--2--1--1--1--1--|

              PM PM PM PM                PM PM PM PM  
  E  E  E  E  E  E  E  E     E  E  E  E  E  E  E  E   
--------------------------|--------------------------|
--------------------------|--------------------------|
--------------------------|--------------------------|
--5--5--5--5--1--1--1--1--|--5--5--5--5--1--1--1--1--|
--2--2--2--2--1--1--1--1--|--2--2--2--2--1--1--1--1--|
--2--2--2--2--1--1--1--1--|--2--2--2--2--1--1--1--1--|

              PM PM PM PM                PM PM PM PM  
  E  E  E  E  E  E  E  E     E  E  E  E  E  E  E  E   
--------------------------|--------------------------|
--------------------------|--------------------------|
--------------------------|--------------------------|
--5--5--5--5--1--1--1--1--|--5--5--5--5--1--1--1--1--|
--2--2--2--2--1--1--1--1--|--2--2--2--2--1--1--1--1--|
--2--2--2--2--1--1--1--1--|--2--2--2--2--1--1--1--1--|

              PM PM PM PM                                                       
  E  E  E  E  E  E  E  E     W                         E  E  E  E  E  E  E  E   
--------------------------|-------------------|-----|--------------------------|
--------------------------|-------------------|-----|--------------------------|
--------------------------|-------------------|-----|--------------------------|
--5--5--5--5--1--1--1--1--|--5----------------|-----|--------------------------|
--2--2--2--2--1--1--1--1--|--2----------------|-----|--2--2--2--2--2--2--2--2--|
--2--2--2--2--1--1--1--1--|--2----------------|-----|--------------------------|

  E  E  E  E  E  E  E  E     E  E  E  E  E  E  E  E   
--------------------------|--------------------------|
--------------------------|--------------------------|
--------------------------|--------------------------|
--------------------------|--------------------------|
--5--5--5--5--5--5--5--5--|--7--7--7--7--7--7--7--7--|
--------------------------|--------------------------|

  E  E  E  E  E  E  E  E     E  E  E  E  E  E  E  E   
--------------------------|--------------------------|
--------------------------|--------------------------|
--------------------------|--------------------------|
--------------------------|--------------------------|
--9--9--9--9--9--9--9--9--|--2--2--2--2--2--2--2--2--|
--------------------------|--------------------------|

  E  E  E  E  E  E  E  E     E  E  E  E  E  E  E  E   
--------------------------|--------------------------|
--------------------------|--------------------------|
--------------------------|--------------------------|
--------------------------|--------------------------|
--5--5--5--5--5--5--5--5--|--7--7--7--7--7--7--7--7--|
--------------------------|--------------------------|

  E  E  E  E  E  E  E  E                                             
--------------------------|-----|-----|-----|-----|-----|-----|-----|
--------------------------|-----|-----|-----|-----|-----|-----|-----|
--------------------------|-----|-----|-----|-----|-----|-----|-----|
--------------------------|-----|-----|-----|-----|-----|-----|-----|
--9--9--9--9--9--9--9--9--|-----|-----|-----|-----|-----|-----|-----|
--------------------------|-----|-----|-----|-----|-----|-----|-----|

  E  E  E  E   E     E  E  E  E  E  E  E  E     E  E  E  E  E  E  E  E   
------------------|--------------------------|--------------------------|
------------------|--------------------------|--------------------------|
------------------|--2--2--2--2--2--2--2--2--|--------------------------|
--------------17--|--2--2--2--2--2--2--2--2--|--5--5--5--5--2--5--2--0--|
--------------15--|--0--0--0--0--0--0--0--0--|--5--5--5--5--2--5--2--0--|
------------------|--------------------------|--3--3--3--3--2--5--2--0--|

  E  E  E  E  E  E  E  E     E  E  E  E  E  E  E  E   
--------------------------|--------------------------|
--------------------------|--------------------------|
--------------------------|--------------------------|
--9--9--9--9--9--9--9--9--|--7--7--7--7--7--7--7--7--|
--9--9--9--9--9--9--9--9--|--7--7--7--7--7--7--7--7--|
--7--7--7--7--7--7--7--7--|--5--5--5--5--5--5--5--5--|

  E  E  E  E  E  E  E  E     E  E  E  E  E  E  E  E   
--------------------------|--------------------------|
--------------------------|--------------------------|
--2--2--2--2--2--2--2--2--|--------------------------|
--2--2--2--2--2--2--2--2--|--5--5--5--5--2--5--2--0--|
--0--0--0--0--0--0--0--0--|--5--5--5--5--2--5--2--0--|
--------------------------|--3--3--3--3--2--5--2--0--|

  E  E  E  E  E  E  E  E     E  E  E  E  E  E  E  E   
--------------------------|--------------------------|
--------------------------|--------------------------|
--------------------------|--------------------------|
--9--9--9--9--9--9--9--9--|--7--7--7--7--7--7--7--7--|
--9--9--9--9--9--9--9--9--|--7--7--7--7--7--7--7--7--|
--7--7--7--7--7--7--7--7--|--5--5--5--5--5--5--5--5--|

  E  E  E  E  E  E  E  E     E  E  E  E  E  E  E  E   
--------------------------|--------------------------|
--------------------------|--------------------------|
--2--2--2--2--2--2--2--2--|--------------------------|
--2--2--2--2--2--2--2--2--|--5--5--5--5--2--5--2--0--|
--0--0--0--0--0--0--0--0--|--5--5--5--5--2--5--2--0--|
--------------------------|--3--3--3--3--2--5--2--0--|

  E  E  E  E  E  E  E  E     E  E  E  E  E  E  E  E   
--------------------------|--------------------------|
--------------------------|--------------------------|
--------------------------|--------------------------|
--9--9--9--9--9--9--9--9--|--7--7--7--7--7--7--7--7--|
--9--9--9--9--9--9--9--9--|--7--7--7--7--7--7--7--7--|
--7--7--7--7--7--7--7--7--|--5--5--5--5--5--5--5--5--|

  E  E  E  E  E  E  E  E     E  E  E  E  E  E  E  E   
--------------------------|--------------------------|
--------------------------|--------------------------|
--2--2--2--2--2--2--2--2--|--------------------------|
--2--2--2--2--2--2--2--2--|--5--5--5--5--2--5--2--0--|
--0--0--0--0--0--0--0--0--|--5--5--5--5--2--5--2--0--|
--------------------------|--3--3--3--3--2--5--2--0--|

  E  E  E  E  E  E  E  E     E  E  E  E  E  E  E  E   
--------------------------|--------------------------|
--------------------------|--------------------------|
--------------------------|--------------------------|
--9--9--9--9--9--9--9--9--|--7--7--7--7--7--7--7--7--|
--9--9--9--9--9--9--9--9--|--7--7--7--7--7--7--7--7--|
--7--7--7--7--7--7--7--7--|--5--5--5--5--5--5--5--5--|

  Q    E  E  Q    E  Q       E  E  E  E  Q    Q       Q    E  E  Q    E  Q     
--------------------------|------------------------|--------------------------|
--------------------------|------------------------|--------------------------|
--------------------------|------------------------|--------------------------|
--0----3--5--6----0--3----|-----0--3--5--8----8----|--0----3--5--6----0--3----|
--0----3--5--6----0--3----|-----0--3--5--8----8----|--0----3--5--6----0--3----|
--0----3--5--6----0--3----|-----0--3--5--8----8----|--0----3--5--6----0--3----|

  E  E  E  E  Q    Q       Q    E  E  Q    E  Q       E  E  E  E  Q    Q     
------------------------|--------------------------|------------------------|
------------------------|--------------------------|------------------------|
------------------------|--------------------------|------------------------|
-----0--3--5--8----8----|--0----3--5--6----0--3----|-----0--3--5--8----8----|
-----0--3--5--8----8----|--0----3--5--6----0--3----|-----0--3--5--8----8----|
-----0--3--5--8----8----|--0----3--5--6----0--3----|-----0--3--5--8----8----|

  Q    E  E  Q    E  Q       E  E  E  E  Q    Q      
--------------------------|------------------------||
--------------------------|------------------------||
--------------------------|------------------------||
--0----3--5--6----0--3----|-----0--3--5--5----5----||
--0----3--5--6----0--3----|-----0--3--5--5----5----||
--0----3--5--6----0--3----|-----0--3--5--5----5----||

Rhythm Guitar

     Q    E  E  Q    E  Q       E  E  E  E  Q    Q     
D||--------------------------|------------------------|
A||--------------------------|------------------------|
F||--------------------------|------------------------|
C||--0----3--5--6----0--3----|-----0--3--5--8----8----|
G||--0----3--5--6----0--3----|-----0--3--5--8----8----|
C||--0----3--5--6----0--3----|-----0--3--5--8----8----|

  Q    E  E  Q    E  Q       E  E  E  E  Q    Q       Q    E  E  Q    E  Q     
--------------------------|------------------------|--------------------------|
--------------------------|------------------------|--------------------------|
--------------------------|------------------------|--------------------------|
--0----3--5--6----0--3----|-----0--3--5--8----8----|--0----3--5--6----0--3----|
--0----3--5--6----0--3----|-----0--3--5--8----8----|--0----3--5--6----0--3----|
--0----3--5--6----0--3----|-----0--3--5--8----8----|--0----3--5--6----0--3----|

  E  E  E  E  Q    Q       Q    E  E  Q    E  Q       E  E  E  E  Q    Q     
------------------------|--------------------------|------------------------|
------------------------|--------------------------|------------------------|
------------------------|--------------------------|------------------------|
-----0--3--5--8----8----|--0----3--5--6----0--3----|-----0--3--5--5----5----|
-----0--3--5--8----8----|--0----3--5--6----0--3----|-----0--3--5--5----5----|
-----0--3--5--8----8----|--0----3--5--6----0--3----|-----0--3--5--5----5----|

  Q    E  E  Q    E  Q       E  E  E  E  Q    Q       Q    E  E  Q    E  Q     
--------------------------|------------------------|--------------------------|
--------------------------|------------------------|--------------------------|
--------------------------|------------------------|--------------------------|
--0----3--5--6----0--3----|-----0--3--5--8----8----|--0----3--5--6----0--3----|
--0----3--5--6----0--3----|-----0--3--5--8----8----|--0----3--5--6----0--3----|
--0----3--5--6----0--3----|-----0--3--5--8----8----|--0----3--5--6----0--3----|

  E  E  E  E  Q    Q       Q    E  E  Q    E  Q       E  E  E  E  Q    Q     
------------------------|--------------------------|------------------------|
------------------------|--------------------------|------------------------|
------------------------|--------------------------|------------------------|
-----0--3--5--8----8----|--0----3--5--6----0--3----|-----0--3--5--8----8----|
-----0--3--5--8----8----|--0----3--5--6----0--3----|-----0--3--5--8----8----|
-----0--3--5--8----8----|--0----3--5--6----0--3----|-----0--3--5--8----8----|

  Q    E  E  Q    E  Q       E  E  E  E  Q    Q                             
--------------------------|------------------------|-------|-------|-------|
--------------------------|------------------------|-------|-------|-------|
--------------------------|------------------------|-------|-------|-------|
--0----3--5--6----0--3----|-----0--3--5--5----5----|-------|-------|-------|
--0----3--5--6----0--3----|-----0--3--5--5----5----|-------|-------|-------|
--0----3--5--6----0--3----|-----0--3--5--5----5----|-------|-------|-------|

                                          E  E  E  E  E  E  E  E   
-------|-------|-------|-------|-------|--------------------------|
-------|-------|-------|-------|-------|--------------------------|
-------|-------|-------|-------|-------|--------------------------|
-------|-------|-------|-------|-------|--x--x--x--x--x--x--x--x--|
-------|-------|-------|-------|-------|--x--x--x--x--x--x--x--x--|
-------|-------|-------|-------|-------|--x--x--x--x--x--x--x--x--|

  E  E  E  E  E  E  E  E     E  E  E  E  E  E  E  E   
--------------------------|--------------------------|
--------------------------|--------------------------|
--------------------------|--------------------------|
--x--x--x--x--x--x--x--x--|--x--x--x--x--x--x--x--x--|
--x--x--x--x--x--x--x--x--|--x--x--x--x--x--x--x--x--|
--x--x--x--x--x--x--x--x--|--x--x--x--x--x--x--x--x--|

  E  E  E  E  E  E  E  E     E  E  E  E  E  E  E  E   
--------------------------|--------------------------|
--------------------------|--------------------------|
--------------------------|--------------------------|
--x--x--x--x--x--x--x--x--|--x--x--x--x--x--x--x--x--|
--x--x--x--x--x--x--x--x--|--x--x--x--x--x--x--x--x--|
--x--x--x--x--x--x--x--x--|--x--x--x--x--x--x--x--x--|

  E  E  E  E  E  E  E  E     E  E  E  E  E  E  E  E   
--------------------------|--------------------------|
--------------------------|--------------------------|
--------------------------|--------------------------|
--x--x--x--x--x--x--x--x--|--x--x--x--x--x--x--x--x--|
--x--x--x--x--x--x--x--x--|--x--x--x--x--x--x--x--x--|
--x--x--x--x--x--x--x--x--|--x--x--x--x--x--x--x--x--|

  E  E  E  E  E  E  E  E     E  E  E  E  E  E  E  E   
--------------------------|--------------------------|
--------------------------|--------------------------|
--------------------------|--------------------------|
--x--x--x--x--x--x--x--x--|--x--x--x--x--x--x--x--x--|
--x--x--x--x--x--x--x--x--|--x--x--x--x--x--x--x--x--|
--x--x--x--x--x--x--x--x--|--x--x--x--x--x--x--x--x--|

  E  E  E  E  E  E  E  E     E  E  E  E  E  E  E  E   
--------------------------|--------------------------|
--------------------------|--------------------------|
--------------------------|--------------------------|
--x--x--x--x--x--x--x--x--|--x--x--x--x--x--x--x--x--|
--x--x--x--x--x--x--x--x--|--x--x--x--x--x--x--x--x--|
--x--x--x--x--x--x--x--x--|--x--x--x--x--x--x--x--x--|

  E  E  E  E  E  E  E  E     E  E  E  E  E  E  E  E   
--------------------------|--------------------------|
--------------------------|--------------------------|
--------------------------|--------------------------|
--x--x--x--x--x--x--x--x--|--x--x--x--x--x--x--x--x--|
--x--x--x--x--x--x--x--x--|--x--x--x--x--x--x--x--x--|
--x--x--x--x--x--x--x--x--|--x--x--x--x--x--x--x--x--|

  E  E  E  E  E  E  E  E     E  E  E  E  E  E  E  E   
--------------------------|--------------------------|
--------------------------|--------------------------|
--------------------------|--------------------------|
--x--x--x--x--x--x--x--x--|--x--x--x--x--x--x--x--x--|
--x--x--x--x--x--x--x--x--|--x--x--x--x--x--x--x--x--|
--x--x--x--x--x--x--x--x--|--x--x--x--x--x--x--x--x--|

  E  E  E  E  E  E  E  E                                                   
--------------------------|-------|-------|-------|-------|-------|-------|
--------------------------|-------|-------|-------|-------|-------|-------|
--------------------------|-------|-------|-------|-------|-------|-------|
--x--x--x--x--x--x--x--x--|-------|-------|-------|-------|-------|-------|
--x--x--x--x--x--x--x--x--|-------|-------|-------|-------|-------|-------|
--x--x--x--x--x--x--x--x--|-------|-------|-------|-------|-------|-------|

          E  E  E  E   E     E  E  E  E  E  E  E  E   
-------|------------------|--------------------------|
-------|------------------|--------------------------|
-------|------------------|--2--2--2--2--2--2--2--2--|
-------|--------------17--|--2--2--2--2--2--2--2--2--|
-------|--------------15--|--0--0--0--0--0--0--0--0--|
-------|------------------|--------------------------|

  E  E  E  E  E  E  E  E     E  E  E  E  E  E  E  E   
--------------------------|--------------------------|
--------------------------|--------------------------|
--------------------------|--------------------------|
--5--5--5--5--2--5--2--0--|--9--9--9--9--9--9--9--9--|
--5--5--5--5--2--5--2--0--|--9--9--9--9--9--9--9--9--|
--3--3--3--3--2--5--2--0--|--7--7--7--7--7--7--7--7--|

  E  E  E  E  E  E  E  E     E  E  E  E  E  E  E  E   
--------------------------|--------------------------|
--------------------------|--------------------------|
--------------------------|--2--2--2--2--2--2--2--2--|
--7--7--7--7--7--7--7--7--|--2--2--2--2--2--2--2--2--|
--7--7--7--7--7--7--7--7--|--0--0--0--0--0--0--0--0--|
--5--5--5--5--5--5--5--5--|--------------------------|

  E  E  E  E  E  E  E  E     E  E  E  E  E  E  E  E   
--------------------------|--------------------------|
--------------------------|--------------------------|
--------------------------|--------------------------|
--5--5--5--5--2--5--2--0--|--9--9--9--9--9--9--9--9--|
--5--5--5--5--2--5--2--0--|--9--9--9--9--9--9--9--9--|
--3--3--3--3--2--5--2--0--|--7--7--7--7--7--7--7--7--|

  E  E  E  E  E  E  E  E     E  E  E  E  E  E  E  E   
--------------------------|--------------------------|
--------------------------|--------------------------|
--------------------------|--2--2--2--2--2--2--2--2--|
--7--7--7--7--7--7--7--7--|--2--2--2--2--2--2--2--2--|
--7--7--7--7--7--7--7--7--|--0--0--0--0--0--0--0--0--|
--5--5--5--5--5--5--5--5--|--------------------------|

  E  E  E  E  E  E  E  E     E  E  E  E  E  E  E  E   
--------------------------|--------------------------|
--------------------------|--------------------------|
--------------------------|--------------------------|
--5--5--5--5--2--5--2--0--|--9--9--9--9--9--9--9--9--|
--5--5--5--5--2--5--2--0--|--9--9--9--9--9--9--9--9--|
--3--3--3--3--2--5--2--0--|--7--7--7--7--7--7--7--7--|

  E  E  E  E  E  E  E  E     E  E  E  E  E  E  E  E   
--------------------------|--------------------------|
--------------------------|--------------------------|
--------------------------|--2--2--2--2--2--2--2--2--|
--7--7--7--7--7--7--7--7--|--2--2--2--2--2--2--2--2--|
--7--7--7--7--7--7--7--7--|--0--0--0--0--0--0--0--0--|
--5--5--5--5--5--5--5--5--|--------------------------|

  E  E  E  E  E  E  E  E     E  E  E  E  E  E  E  E   
--------------------------|--------------------------|
--------------------------|--------------------------|
--------------------------|--------------------------|
--5--5--5--5--2--5--2--0--|--9--9--9--9--9--9--9--9--|
--5--5--5--5--2--5--2--0--|--9--9--9--9--9--9--9--9--|
--3--3--3--3--2--5--2--0--|--7--7--7--7--7--7--7--7--|

  E  E  E  E  E  E  E  E     Q    E  E  Q    E  Q       E  E  E  E  Q    Q     
--------------------------|--------------------------|------------------------|
--------------------------|--------------------------|------------------------|
--------------------------|--------------------------|------------------------|
--7--7--7--7--7--7--7--7--|--0----3--5--6----0--3----|-----0--3--5--8----8----|
--7--7--7--7--7--7--7--7--|--0----3--5--6----0--3----|-----0--3--5--8----8----|
--5--5--5--5--5--5--5--5--|--0----3--5--6----0--3----|-----0--3--5--8----8----|

  Q    E  E  Q    E  Q       E  E  E  E  Q    Q       Q    E  E  Q    E  Q     
--------------------------|------------------------|--------------------------|
--------------------------|------------------------|--------------------------|
--------------------------|------------------------|--------------------------|
--0----3--5--6----0--3----|-----0--3--5--8----8----|--0----3--5--6----0--3----|
--0----3--5--6----0--3----|-----0--3--5--8----8----|--0----3--5--6----0--3----|
--0----3--5--6----0--3----|-----0--3--5--8----8----|--0----3--5--6----0--3----|

  E  E  E  E  Q    Q       Q    E  E  Q    E  Q       E  E  E  E  Q    Q     
------------------------|--------------------------|------------------------|
------------------------|--------------------------|------------------------|
------------------------|--------------------------|------------------------|
-----0--3--5--8----8----|--0----3--5--6----0--3----|-----0--3--5--5----5----|
-----0--3--5--8----8----|--0----3--5--6----0--3----|-----0--3--5--5----5----|
-----0--3--5--8----8----|--0----3--5--6----0--3----|-----0--3--5--5----5----|

  E  E  E  E  E  E  E  E     E  E  E  E  E  E  E  E   
--------------------------|--------------------------|
--------------------------|--------------------------|
--------------------------|--------------------------|
--x--x--x--x--x--x--x--x--|--x--x--x--x--x--x--x--x--|
--x--x--x--x--x--x--x--x--|--x--x--x--x--x--x--x--x--|
--x--x--x--x--x--x--x--x--|--x--x--x--x--x--x--x--x--|

  E  E  E  E  E  E  E  E     E  E  E  E  E  E  E  E   
--------------------------|--------------------------|
--------------------------|--------------------------|
--------------------------|--------------------------|
--x--x--x--x--x--x--x--x--|--x--x--x--x--x--x--x--x--|
--x--x--x--x--x--x--x--x--|--x--x--x--x--x--x--x--x--|
--x--x--x--x--x--x--x--x--|--x--x--x--x--x--x--x--x--|

  PM PM PM PM PM PM PM PM    PM PM PM PM PM PM PM PM  
  E  E  E  E  E  E  E  E     E  E  E  E  E  E  E  E   
--------------------------|--------------------------|
--------------------------|--------------------------|
--------------------------|--------------------------|
--0--0--0--0--0--0--0--0--|--0--0--0--0--0--0--0--0--|
--0--0--0--0--0--0--0--0--|--0--0--0--0--0--0--0--0--|
--0--0--0--0--0--0--0--0--|--0--0--0--0--0--0--0--0--|

  PM PM PM PM PM PM PM PM    PM PM PM PM PM PM PM PM  
  E  E  E  E  E  E  E  E     E  E  E  E  E  E  E  E   
--------------------------|--------------------------|
--------------------------|--------------------------|
--------------------------|--------------------------|
--0--0--0--0--0--0--0--0--|--0--0--0--0--0--0--0--0--|
--0--0--0--0--0--0--0--0--|--0--0--0--0--0--0--0--0--|
--0--0--0--0--0--0--0--0--|--0--0--0--0--0--0--0--0--|

  PM PM PM PM PM PM PM PM    PM PM PM PM PM PM PM PM  
  E  E  E  E  E  E  E  E     E  E  E  E  E  E  E  E   
--------------------------|--------------------------|
--------------------------|--------------------------|
--------------------------|--------------------------|
--0--0--0--0--0--0--0--0--|--0--0--0--0--0--0--0--0--|
--0--0--0--0--0--0--0--0--|--0--0--0--0--0--0--0--0--|
--0--0--0--0--0--0--0--0--|--0--0--0--0--0--0--0--0--|

  PM PM PM PM PM PM PM PM    PM PM PM PM PM PM PM PM  
  E  E  E  E  E  E  E  E     E  E  E  E  E  E  E  E   
--------------------------|--------------------------|
--------------------------|--------------------------|
--------------------------|--------------------------|
--0--0--0--0--0--0--0--0--|--0--0--0--0--0--0--0--0--|
--0--0--0--0--0--0--0--0--|--0--0--0--0--0--0--0--0--|
--0--0--0--0--0--0--0--0--|--0--0--0--0--0--0--0--0--|

  PM PM PM PM PM PM PM PM    PM PM PM PM PM PM PM PM  
  E  E  E  E  E  E  E  E     E  E  E  E  E  E  E  E   
--------------------------|--------------------------|
--------------------------|--------------------------|
--------------------------|--------------------------|
--0--0--0--0--0--0--0--0--|--0--0--0--0--0--0--0--0--|
--0--0--0--0--0--0--0--0--|--0--0--0--0--0--0--0--0--|
--0--0--0--0--0--0--0--0--|--0--0--0--0--0--0--0--0--|

  PM PM PM PM PM PM PM PM    PM PM PM PM PM PM PM PM  
  E  E  E  E  E  E  E  E     E  E  E  E  E  E  E  E   
--------------------------|--------------------------|
--------------------------|--------------------------|
--------------------------|--------------------------|
--0--0--0--0--0--0--0--0--|--0--0--0--0--0--0--0--0--|
--0--0--0--0--0--0--0--0--|--0--0--0--0--0--0--0--0--|
--0--0--0--0--0--0--0--0--|--0--0--0--0--0--0--0--0--|

  PM PM PM PM PM PM PM PM    PM PM PM PM PM PM PM PM  
  E  E  E  E  E  E  E  E     E  E  E  E  E  E  E  E   
--------------------------|--------------------------|
--------------------------|--------------------------|
--------------------------|--------------------------|
--0--0--0--0--0--0--0--0--|--0--0--0--0--0--0--0--0--|
--0--0--0--0--0--0--0--0--|--0--0--0--0--0--0--0--0--|
--0--0--0--0--0--0--0--0--|--0--0--0--0--0--0--0--0--|

  PM PM PM PM PM PM PM PM    PM PM PM PM PM PM PM PM                          
  E  E  E  E  E  E  E  E     E  E  E  E  E  E  E  E                           
--------------------------|--------------------------|-----|-----|-----|-----|
--------------------------|--------------------------|-----|-----|-----|-----|
--------------------------|--------------------------|-----|-----|-----|-----|
--0--0--0--0--0--0--0--0--|--0--0--0--0--0--0--0--0--|-----|-----|-----|-----|
--0--0--0--0--0--0--0--0--|--0--0--0--0--0--0--0--0--|-----|-----|-----|-----|
--0--0--0--0--0--0--0--0--|--0--0--0--0--0--0--0--0--|-----|-----|-----|-----|

                    E  E  E  E   E     E  E  E  E  E  E  E  E   
-----|-----|-----|------------------|--------------------------|
-----|-----|-----|------------------|--------------------------|
-----|-----|-----|------------------|--2--2--2--2--2--2--2--2--|
-----|-----|-----|--------------17--|--2--2--2--2--2--2--2--2--|
-----|-----|-----|--------------15--|--0--0--0--0--0--0--0--0--|
-----|-----|-----|------------------|--------------------------|

  E  E  E  E  E  E  E  E     E  E  E  E  E  E  E  E   
--------------------------|--------------------------|
--------------------------|--------------------------|
--------------------------|--------------------------|
--5--5--5--5--2--5--2--0--|--9--9--9--9--9--9--9--9--|
--5--5--5--5--2--5--2--0--|--9--9--9--9--9--9--9--9--|
--3--3--3--3--2--5--2--0--|--7--7--7--7--7--7--7--7--|

  E  E  E  E  E  E  E  E     E  E  E  E  E  E  E  E   
--------------------------|--------------------------|
--------------------------|--------------------------|
--------------------------|--2--2--2--2--2--2--2--2--|
--7--7--7--7--7--7--7--7--|--2--2--2--2--2--2--2--2--|
--7--7--7--7--7--7--7--7--|--0--0--0--0--0--0--0--0--|
--5--5--5--5--5--5--5--5--|--------------------------|

  E  E  E  E  E  E  E  E     E  E  E  E  E  E  E  E   
--------------------------|--------------------------|
--------------------------|--------------------------|
--------------------------|--------------------------|
--5--5--5--5--2--5--2--0--|--9--9--9--9--9--9--9--9--|
--5--5--5--5--2--5--2--0--|--9--9--9--9--9--9--9--9--|
--3--3--3--3--2--5--2--0--|--7--7--7--7--7--7--7--7--|

  E  E  E  E  E  E  E  E     E  E  E  E  E  E  E  E   
--------------------------|--------------------------|
--------------------------|--------------------------|
--------------------------|--2--2--2--2--2--2--2--2--|
--7--7--7--7--7--7--7--7--|--2--2--2--2--2--2--2--2--|
--7--7--7--7--7--7--7--7--|--0--0--0--0--0--0--0--0--|
--5--5--5--5--5--5--5--5--|--------------------------|

  E  E  E  E  E  E  E  E     E  E  E  E  E  E  E  E   
--------------------------|--------------------------|
--------------------------|--------------------------|
--------------------------|--------------------------|
--5--5--5--5--2--5--2--0--|--9--9--9--9--9--9--9--9--|
--5--5--5--5--2--5--2--0--|--9--9--9--9--9--9--9--9--|
--3--3--3--3--2--5--2--0--|--7--7--7--7--7--7--7--7--|

  E  E  E  E  E  E  E  E     E  E  E  E  E  E  E  E   
--------------------------|--------------------------|
--------------------------|--------------------------|
--------------------------|--2--2--2--2--2--2--2--2--|
--7--7--7--7--7--7--7--7--|--2--2--2--2--2--2--2--2--|
--7--7--7--7--7--7--7--7--|--0--0--0--0--0--0--0--0--|
--5--5--5--5--5--5--5--5--|--------------------------|

  E  E  E  E  E  E  E  E     E  E  E  E  E  E  E  E   
--------------------------|--------------------------|
--------------------------|--------------------------|
--------------------------|--------------------------|
--5--5--5--5--2--5--2--0--|--9--9--9--9--9--9--9--9--|
--5--5--5--5--2--5--2--0--|--9--9--9--9--9--9--9--9--|
--3--3--3--3--2--5--2--0--|--7--7--7--7--7--7--7--7--|

  E  E  E  E  E  E  E  E     W                                     
--------------------------|-------------------|-------------------|
--------------------------|-------------------|-------------------|
--------------------------|-------------------|-------------------|
--7--7--7--7--7--7--7--7--|--0----------------|-------------------|
--7--7--7--7--7--7--7--7--|--0----------------|-------------------|
--5--5--5--5--5--5--5--5--|--0----------------|-------------------|

  W                                       W                                     
-------------------|-------------------|-------------------|-------------------|
-------------------|-------------------|-------------------|-------------------|
-------------------|-------------------|-------------------|-------------------|
--0----------------|-------------------|--0----------------|-------------------|
--0----------------|-------------------|--0----------------|-------------------|
--0----------------|-------------------|--0----------------|-------------------|

                                  PM PM PM PM                             
  W                   E  E  E  E  E  E  E  E     E  E  E  E  E  E  E  E   
-------------------|--------------------------|--------------------------|
-------------------|--------------------------|--------------------------|
-------------------|--------------------------|--2--2--2--2--2--2--2--2--|
--0----------------|--------------------------|--2--2--2--2--2--2--2--2--|
--0----------------|--------------0--0--0--0--|--0--0--0--0--0--0--0--0--|
--0----------------|--------------0--0--0--0--|--------------------------|

  E  E  E  E  E  E  E  E     E  E  E  E  E  E  E  E   
--------------------------|--------------------------|
--------------------------|--------------------------|
--------------------------|--------------------------|
--5--5--5--5--2--5--2--0--|--9--9--9--9--9--9--9--9--|
--5--5--5--5--2--5--2--0--|--9--9--9--9--9--9--9--9--|
--3--3--3--3--2--5--2--0--|--7--7--7--7--7--7--7--7--|

  E  E  E  E  E  E  E  E     E  E  E  E  E  E  E  E   
--------------------------|--------------------------|
--------------------------|--------------------------|
--------------------------|--2--2--2--2--2--2--2--2--|
--7--7--7--7--7--7--7--7--|--2--2--2--2--2--2--2--2--|
--7--7--7--7--7--7--7--7--|--0--0--0--0--0--0--0--0--|
--5--5--5--5--5--5--5--5--|--------------------------|

  E  E  E  E  E  E  E  E     E  E  E  E  E  E  E  E   
--------------------------|--------------------------|
--------------------------|--------------------------|
--------------------------|--------------------------|
--5--5--5--5--2--5--2--0--|--9--9--9--9--9--9--9--9--|
--5--5--5--5--2--5--2--0--|--9--9--9--9--9--9--9--9--|
--3--3--3--3--2--5--2--0--|--7--7--7--7--7--7--7--7--|

                                         PM PM PM PM  
  E  E  E  E  E  E  E  E     E  E  E  E  E  E  E  E   
--------------------------|--------------------------|
--------------------------|--------------------------|
--------------------------|--------------------------|
--7--7--7--7--7--7--7--7--|--5--5--5--5--1--1--1--1--|
--7--7--7--7--7--7--7--7--|--2--2--2--2--1--1--1--1--|
--5--5--5--5--5--5--5--5--|--2--2--2--2--1--1--1--1--|

              PM PM PM PM                PM PM PM PM  
  E  E  E  E  E  E  E  E     E  E  E  E  E  E  E  E   
--------------------------|--------------------------|
--------------------------|--------------------------|
--------------------------|--------------------------|
--5--5--5--5--1--1--1--1--|--5--5--5--5--1--1--1--1--|
--2--2--2--2--1--1--1--1--|--2--2--2--2--1--1--1--1--|
--2--2--2--2--1--1--1--1--|--2--2--2--2--1--1--1--1--|

              PM PM PM PM                PM PM PM PM  
  E  E  E  E  E  E  E  E     E  E  E  E  E  E  E  E   
--------------------------|--------------------------|
--------------------------|--------------------------|
--------------------------|--------------------------|
--5--5--5--5--1--1--1--1--|--5--5--5--5--1--1--1--1--|
--2--2--2--2--1--1--1--1--|--2--2--2--2--1--1--1--1--|
--2--2--2--2--1--1--1--1--|--2--2--2--2--1--1--1--1--|

              PM PM PM PM                PM PM PM PM  
  E  E  E  E  E  E  E  E     E  E  E  E  E  E  E  E   
--------------------------|--------------------------|
--------------------------|--------------------------|
--------------------------|--------------------------|
--5--5--5--5--1--1--1--1--|--5--5--5--5--1--1--1--1--|
--2--2--2--2--1--1--1--1--|--2--2--2--2--1--1--1--1--|
--2--2--2--2--1--1--1--1--|--2--2--2--2--1--1--1--1--|

              PM PM PM PM                PM PM PM PM  
  E  E  E  E  E  E  E  E     E  E  E  E  E  E  E  E   
--------------------------|--------------------------|
--------------------------|--------------------------|
--------------------------|--------------------------|
--5--5--5--5--1--1--1--1--|--5--5--5--5--1--1--1--1--|
--2--2--2--2--1--1--1--1--|--2--2--2--2--1--1--1--1--|
--2--2--2--2--1--1--1--1--|--2--2--2--2--1--1--1--1--|

              PM PM PM PM                PM PM PM PM  
  E  E  E  E  E  E  E  E     E  E  E  E  E  E  E  E   
--------------------------|--------------------------|
--------------------------|--------------------------|
--------------------------|--------------------------|
--5--5--5--5--1--1--1--1--|--5--5--5--5--1--1--1--1--|
--2--2--2--2--1--1--1--1--|--2--2--2--2--1--1--1--1--|
--2--2--2--2--1--1--1--1--|--2--2--2--2--1--1--1--1--|

              PM PM PM PM                PM PM PM PM  
  E  E  E  E  E  E  E  E     E  E  E  E  E  E  E  E   
--------------------------|--------------------------|
--------------------------|--------------------------|
--------------------------|--------------------------|
--5--5--5--5--1--1--1--1--|--5--5--5--5--1--1--1--1--|
--2--2--2--2--1--1--1--1--|--2--2--2--2--1--1--1--1--|
--2--2--2--2--1--1--1--1--|--2--2--2--2--1--1--1--1--|

              PM PM PM PM                PM PM PM PM  
  E  E  E  E  E  E  E  E     E  E  E  E  E  E  E  E   
--------------------------|--------------------------|
--------------------------|--------------------------|
--------------------------|--------------------------|
--5--5--5--5--1--1--1--1--|--5--5--5--5--1--1--1--1--|
--2--2--2--2--1--1--1--1--|--2--2--2--2--1--1--1--1--|
--2--2--2--2--1--1--1--1--|--2--2--2--2--1--1--1--1--|

              PM PM PM PM                PM PM PM PM  
  E  E  E  E  E  E  E  E     E  E  E  E  E  E  E  E   
--------------------------|--------------------------|
--------------------------|--------------------------|
--------------------------|--------------------------|
--5--5--5--5--1--1--1--1--|--5--5--5--5--1--1--1--1--|
--2--2--2--2--1--1--1--1--|--2--2--2--2--1--1--1--1--|
--2--2--2--2--1--1--1--1--|--2--2--2--2--1--1--1--1--|

              PM PM PM PM                PM PM PM PM  
  E  E  E  E  E  E  E  E     E  E  E  E  E  E  E  E   
--------------------------|--------------------------|
--------------------------|--------------------------|
--------------------------|--------------------------|
--5--5--5--5--1--1--1--1--|--5--5--5--5--1--1--1--1--|
--2--2--2--2--1--1--1--1--|--2--2--2--2--1--1--1--1--|
--2--2--2--2--1--1--1--1--|--2--2--2--2--1--1--1--1--|

              PM PM PM PM                PM PM PM PM  
  E  E  E  E  E  E  E  E     E  E  E  E  E  E  E  E   
--------------------------|--------------------------|
--------------------------|--------------------------|
--------------------------|--------------------------|
--5--5--5--5--1--1--1--1--|--5--5--5--5--1--1--1--1--|
--2--2--2--2--1--1--1--1--|--2--2--2--2--1--1--1--1--|
--2--2--2--2--1--1--1--1--|--2--2--2--2--1--1--1--1--|

              PM PM PM PM                PM PM PM PM  
  E  E  E  E  E  E  E  E     E  E  E  E  E  E  E  E   
--------------------------|--------------------------|
--------------------------|--------------------------|
--------------------------|--------------------------|
--5--5--5--5--1--1--1--1--|--5--5--5--5--1--1--1--1--|
--2--2--2--2--1--1--1--1--|--2--2--2--2--1--1--1--1--|
--2--2--2--2--1--1--1--1--|--2--2--2--2--1--1--1--1--|

              PM PM PM PM                PM PM PM PM  
  E  E  E  E  E  E  E  E     E  E  E  E  E  E  E  E   
--------------------------|--------------------------|
--------------------------|--------------------------|
--------------------------|--------------------------|
--5--5--5--5--1--1--1--1--|--5--5--5--5--1--1--1--1--|
--2--2--2--2--1--1--1--1--|--2--2--2--2--1--1--1--1--|
--2--2--2--2--1--1--1--1--|--2--2--2--2--1--1--1--1--|

              PM PM PM PM                PM PM PM PM  
  E  E  E  E  E  E  E  E     E  E  E  E  E  E  E  E   
--------------------------|--------------------------|
--------------------------|--------------------------|
--------------------------|--------------------------|
--5--5--5--5--1--1--1--1--|--5--5--5--5--1--1--1--1--|
--2--2--2--2--1--1--1--1--|--2--2--2--2--1--1--1--1--|
--2--2--2--2--1--1--1--1--|--2--2--2--2--1--1--1--1--|

              PM PM PM PM                PM PM PM PM  
  E  E  E  E  E  E  E  E     E  E  E  E  E  E  E  E   
--------------------------|--------------------------|
--------------------------|--------------------------|
--------------------------|--------------------------|
--5--5--5--5--1--1--1--1--|--5--5--5--5--1--1--1--1--|
--2--2--2--2--1--1--1--1--|--2--2--2--2--1--1--1--1--|
--2--2--2--2--1--1--1--1--|--2--2--2--2--1--1--1--1--|

              PM PM PM PM                PM PM PM PM  
  E  E  E  E  E  E  E  E     E  E  E  E  E  E  E  E   
--------------------------|--------------------------|
--------------------------|--------------------------|
--------------------------|--------------------------|
--5--5--5--5--1--1--1--1--|--5--5--5--5--1--1--1--1--|
--2--2--2--2--1--1--1--1--|--2--2--2--2--1--1--1--1--|
--2--2--2--2--1--1--1--1--|--2--2--2--2--1--1--1--1--|

              PM PM PM PM                PM PM PM PM  
  E  E  E  E  E  E  E  E     E  E  E  E  E  E  E  E   
--------------------------|--------------------------|
--------------------------|--------------------------|
--------------------------|--------------------------|
--5--5--5--5--1--1--1--1--|--5--5--5--5--1--1--1--1--|
--2--2--2--2--1--1--1--1--|--2--2--2--2--1--1--1--1--|
--2--2--2--2--1--1--1--1--|--2--2--2--2--1--1--1--1--|

              PM PM PM PM                                                    
  E  E  E  E  E  E  E  E     W                                               
--------------------------|-------------------|-----|-----|-----|-----|-----|
--------------------------|-------------------|-----|-----|-----|-----|-----|
--------------------------|-------------------|-----|-----|-----|-----|-----|
--5--5--5--5--1--1--1--1--|--5----------------|-----|-----|-----|-----|-----|
--2--2--2--2--1--1--1--1--|--2----------------|-----|-----|-----|-----|-----|
--2--2--2--2--1--1--1--1--|--2----------------|-----|-----|-----|-----|-----|

-----|-----|-----|-----|-----|-----|-----|-----|-----|-----|-----|
-----|-----|-----|-----|-----|-----|-----|-----|-----|-----|-----|
-----|-----|-----|-----|-----|-----|-----|-----|-----|-----|-----|
-----|-----|-----|-----|-----|-----|-----|-----|-----|-----|-----|
-----|-----|-----|-----|-----|-----|-----|-----|-----|-----|-----|
-----|-----|-----|-----|-----|-----|-----|-----|-----|-----|-----|

  E  E  E  E   E     E  E  E  E  E  E  E  E     E  E  E  E  E  E  E  E   
------------------|--------------------------|--------------------------|
------------------|--------------------------|--------------------------|
------------------|--2--2--2--2--2--2--2--2--|--------------------------|
--------------17--|--2--2--2--2--2--2--2--2--|--5--5--5--5--2--5--2--0--|
--------------15--|--0--0--0--0--0--0--0--0--|--5--5--5--5--2--5--2--0--|
------------------|--------------------------|--3--3--3--3--2--5--2--0--|

  E  E  E  E  E  E  E  E     E  E  E  E  E  E  E  E   
--------------------------|--------------------------|
--------------------------|--------------------------|
--------------------------|--------------------------|
--9--9--9--9--9--9--9--9--|--7--7--7--7--7--7--7--7--|
--9--9--9--9--9--9--9--9--|--7--7--7--7--7--7--7--7--|
--7--7--7--7--7--7--7--7--|--5--5--5--5--5--5--5--5--|

  E  E  E  E  E  E  E  E     E  E  E  E  E  E  E  E   
--------------------------|--------------------------|
--------------------------|--------------------------|
--2--2--2--2--2--2--2--2--|--------------------------|
--2--2--2--2--2--2--2--2--|--5--5--5--5--2--5--2--0--|
--0--0--0--0--0--0--0--0--|--5--5--5--5--2--5--2--0--|
--------------------------|--3--3--3--3--2--5--2--0--|

  E  E  E  E  E  E  E  E     E  E  E  E  E  E  E  E   
--------------------------|--------------------------|
--------------------------|--------------------------|
--------------------------|--------------------------|
--9--9--9--9--9--9--9--9--|--7--7--7--7--7--7--7--7--|
--9--9--9--9--9--9--9--9--|--7--7--7--7--7--7--7--7--|
--7--7--7--7--7--7--7--7--|--5--5--5--5--5--5--5--5--|

  E  E  E  E  E  E  E  E     E  E  E  E  E  E  E  E   
--------------------------|--------------------------|
--------------------------|--------------------------|
--2--2--2--2--2--2--2--2--|--------------------------|
--2--2--2--2--2--2--2--2--|--5--5--5--5--2--5--2--0--|
--0--0--0--0--0--0--0--0--|--5--5--5--5--2--5--2--0--|
--------------------------|--3--3--3--3--2--5--2--0--|

  E  E  E  E  E  E  E  E     E  E  E  E  E  E  E  E   
--------------------------|--------------------------|
--------------------------|--------------------------|
--------------------------|--------------------------|
--9--9--9--9--9--9--9--9--|--7--7--7--7--7--7--7--7--|
--9--9--9--9--9--9--9--9--|--7--7--7--7--7--7--7--7--|
--7--7--7--7--7--7--7--7--|--5--5--5--5--5--5--5--5--|

  E  E  E  E  E  E  E  E     E  E  E  E  E  E  E  E   
--------------------------|--------------------------|
--------------------------|--------------------------|
--2--2--2--2--2--2--2--2--|--------------------------|
--2--2--2--2--2--2--2--2--|--5--5--5--5--2--5--2--0--|
--0--0--0--0--0--0--0--0--|--5--5--5--5--2--5--2--0--|
--------------------------|--3--3--3--3--2--5--2--0--|

  E  E  E  E  E  E  E  E     E  E  E  E  E  E  E  E   
--------------------------|--------------------------|
--------------------------|--------------------------|
--------------------------|--------------------------|
--9--9--9--9--9--9--9--9--|--7--7--7--7--7--7--7--7--|
--9--9--9--9--9--9--9--9--|--7--7--7--7--7--7--7--7--|
--7--7--7--7--7--7--7--7--|--5--5--5--5--5--5--5--5--|

  Q    E  E  Q    E  Q       E  E  E  E  Q    Q       Q    E  E  Q    E  Q     
--------------------------|------------------------|--------------------------|
--------------------------|------------------------|--------------------------|
--------------------------|------------------------|--------------------------|
--0----3--5--6----0--3----|-----0--3--5--8----8----|--0----3--5--6----0--3----|
--0----3--5--6----0--3----|-----0--3--5--8----8----|--0----3--5--6----0--3----|
--0----3--5--6----0--3----|-----0--3--5--8----8----|--0----3--5--6----0--3----|

  E  E  E  E  Q    Q       Q    E  E  Q    E  Q       E  E  E  E  Q    Q     
------------------------|--------------------------|------------------------|
------------------------|--------------------------|------------------------|
------------------------|--------------------------|------------------------|
-----0--3--5--8----8----|--0----3--5--6----0--3----|-----0--3--5--8----8----|
-----0--3--5--8----8----|--0----3--5--6----0--3----|-----0--3--5--8----8----|
-----0--3--5--8----8----|--0----3--5--6----0--3----|-----0--3--5--8----8----|

  Q    E  E  Q    E  Q       E  E  E  E  Q    Q      
--------------------------|------------------------||
--------------------------|------------------------||
--------------------------|------------------------||
--0----3--5--6----0--3----|-----0--3--5--5----5----||
--0----3--5--6----0--3----|-----0--3--5--5----5----||
--0----3--5--6----0--3----|-----0--3--5--5----5----||

==========Live To Die==========

Lead Guitar

     S S S S S S S S S S S S S S S S    S S S S S S S S S S S S S S S S  
D||----------------------------------|----------------------------------|
A||----------------------------------|----------------------------------|
F||----------------------------------|----------------------------------|
C||----------------------------------|----------------------------------|
G||--2-2-4-4-2-2-4-4-2-2-4-4-3-3-0-0-|--2-2-4-4-2-2-4-4-2-2-4-4-3-3-0-0-|
C||--2-2-4-4-2-2-4-4-2-2-4-4-3-3-0-0-|--2-2-4-4-2-2-4-4-2-2-4-4-3-3-0-0-|

  S S S S S S S S S S S S S S S S    S S S S S S S S S S S S S S S S  
----------------------------------|----------------------------------|
----------------------------------|----------------------------------|
----------------------------------|----------------------------------|
----------------------------------|----------------------------------|
--2-2-4-4-2-2-4-4-2-2-4-4-3-3-0-0-|--2-2-4-4-2-2-4-4-2-2-4-4-3-3-0-0-|
--2-2-4-4-2-2-4-4-2-2-4-4-3-3-0-0-|--2-2-4-4-2-2-4-4-2-2-4-4-3-3-0-0-|

  S S S S S S S S S S S S S S S S    S S S S S S S S S S S S S S S S  
----------------------------------|----------------------------------|
----------------------------------|----------------------------------|
----------------------------------|----------------------------------|
----------------------------------|----------------------------------|
--2-2-4-4-2-2-4-4-2-2-4-4-3-3-0-0-|--2-2-4-4-2-2-4-4-2-2-4-4-3-3-0-0-|
--2-2-4-4-2-2-4-4-2-2-4-4-3-3-0-0-|--2-2-4-4-2-2-4-4-2-2-4-4-3-3-0-0-|

  S S S S S S S S S S S S S S S S    S S S S S S S S S S S S S S S S  
----------------------------------|----------------------------------|
----------------------------------|----------------------------------|
----------------------------------|----------------------------------|
----------------------------------|----------------------------------|
--2-2-4-4-2-2-4-4-2-2-4-4-3-3-0-0-|--2-2-4-4-2-2-4-4-2-2-4-4-3-3-0-0-|
--2-2-4-4-2-2-4-4-2-2-4-4-3-3-0-0-|--2-2-4-4-2-2-4-4-2-2-4-4-3-3-0-0-|

  S S S S S S S S S S S S S S S S    S S S S S S S S S S S S S S S S  
----------------------------------|----------------------------------|
----------------------------------|----------------------------------|
----------------------------------|----------------------------------|
----------------------------------|----------------------------------|
--2-2-4-4-2-2-4-4-2-2-4-4-3-3-0-0-|--2-2-4-4-2-2-4-4-2-2-4-4-3-3-0-0-|
--2-2-4-4-2-2-4-4-2-2-4-4-3-3-0-0-|--2-2-4-4-2-2-4-4-2-2-4-4-3-3-0-0-|

  S S S S S S S S S S S S S S S S    S S S S S S S S S S S S S S S S  
----------------------------------|----------------------------------|
----------------------------------|----------------------------------|
----------------------------------|----------------------------------|
----------------------------------|----------------------------------|
--2-2-4-4-2-2-4-4-2-2-4-4-3-3-0-0-|--2-2-4-4-2-2-4-4-2-2-4-4-3-3-0-0-|
--2-2-4-4-2-2-4-4-2-2-4-4-3-3-0-0-|--2-2-4-4-2-2-4-4-2-2-4-4-3-3-0-0-|

  S S S S S S S S S S S S S S S S    S S S S S S S S S S S S S S S S  
----------------------------------|----------------------------------|
----------------------------------|----------------------------------|
----------------------------------|----------------------------------|
----------------------------------|----------------------------------|
--9-9-9-9-9-9-9-9-7-7-7-7-7-7-7-7-|--2-2-4-4-2-2-4-4-2-2-4-4-3-3-0-0-|
--9-9-9-9-9-9-9-9-7-7-7-7-7-7-7-7-|--2-2-4-4-2-2-4-4-2-2-4-4-3-3-0-0-|

  S S S S S S S S S S S S S S S S    S S S S S S S S S S S S S S S S  
----------------------------------|----------------------------------|
----------------------------------|----------------------------------|
----------------------------------|----------------------------------|
----------------------------------|----------------------------------|
--2-2-4-4-2-2-4-4-2-2-4-4-3-3-0-0-|--9-9-9-9-9-9-9-9-7-7-7-7-7-7-7-7-|
--2-2-4-4-2-2-4-4-2-2-4-4-3-3-0-0-|--9-9-9-9-9-9-9-9-7-7-7-7-7-7-7-7-|

  S S S S S S S S S S S S S S S S    S S S S S S S S S S S S S S S S  
----------------------------------|----------------------------------|
----------------------------------|----------------------------------|
----------------------------------|----------------------------------|
----------------------------------|----------------------------------|
--2-2-4-4-2-2-4-4-2-2-4-4-3-3-0-0-|--2-2-4-4-2-2-4-4-2-2-4-4-3-3-0-0-|
--2-2-4-4-2-2-4-4-2-2-4-4-3-3-0-0-|--2-2-4-4-2-2-4-4-2-2-4-4-3-3-0-0-|

  E  E  E  E  E  E  E  E     S S S S S S S S S S S S S S S S  
-----------0--------------|----------------------------------|
--------3--------------3--|----------------------------------|
-----2--------------2-----|----------------------------------|
--0--------------0--------|----------------------------------|
--------------------------|--2-2-4-4-2-2-4-4-2-2-4-4-3-3-0-0-|
--------------------------|--2-2-4-4-2-2-4-4-2-2-4-4-3-3-0-0-|

  S S S S S S S S S S S S S S S S    E  E  E  E  E  E  E  E   
----------------------------------|-----------0--------------|
----------------------------------|--------3--------------3--|
----------------------------------|-----2--------------2-----|
----------------------------------|--0--------------0--------|
--2-2-4-4-2-2-4-4-2-2-4-4-3-3-0-0-|--------------------------|
--2-2-4-4-2-2-4-4-2-2-4-4-3-3-0-0-|--------------------------|

  S S S S S S S S S S S S S S S S    S S S S S S S S S S S S S S S S  
----------------------------------|----------------------------------|
----------------------------------|----------------------------------|
----------------------------------|----------------------------------|
----------------------------------|----------------------------------|
--2-2-4-4-2-2-4-4-2-2-4-4-3-3-0-0-|--2-2-4-4-2-2-4-4-2-2-4-4-3-3-0-0-|
--2-2-4-4-2-2-4-4-2-2-4-4-3-3-0-0-|--2-2-4-4-2-2-4-4-2-2-4-4-3-3-0-0-|

  S S S S S S S S S S S S S S S S    S S S S S S S S S S S S S S S S  
----------------------------------|----------------------------------|
----------------------------------|----------------------------------|
----------------------------------|----------------------------------|
----------------------------------|----------------------------------|
--2-2-4-4-2-2-4-4-2-2-4-4-3-3-0-0-|--2-2-4-4-2-2-4-4-2-2-4-4-3-3-0-0-|
--2-2-4-4-2-2-4-4-2-2-4-4-3-3-0-0-|--2-2-4-4-2-2-4-4-2-2-4-4-3-3-0-0-|

  E  E  E  E  E  E  E  E     E  E  E  E  E  E  E  E   
--------------------------|--------------------------|
--------------------------|--------------------------|
--------------------------|--------------------------|
--3--3--3--3--0--0--7--7--|--5--5--7--7--5--5--7--7--|
--3--3--3--3--0--0--7--7--|--5--5--7--7--5--5--7--7--|
--3--3--3--3--0--0--7--7--|--5--5--7--7--5--5--7--7--|

  E  E  E  E  E  E  E  E     E  E  E  E  E  E  E  E   
--------------------------|--------------------------|
--------------------------|--------------------------|
--------------------------|--------------------------|
--3--3--3--3--0--0--7--7--|--5--5--7--7--5--5--7--7--|
--3--3--3--3--0--0--7--7--|--5--5--7--7--5--5--7--7--|
--3--3--3--3--0--0--7--7--|--5--5--7--7--5--5--7--7--|

  E  E  E  E  E  E  E  E     E  E  E  E  E  E  E  E   
--------------------------|--------------------------|
--------------------------|--------------------------|
--------------------------|--------------------------|
--3--3--3--3--0--0--7--7--|--5--5--7--7--5--5--7--7--|
--3--3--3--3--0--0--7--7--|--5--5--7--7--5--5--7--7--|
--3--3--3--3--0--0--7--7--|--5--5--7--7--5--5--7--7--|

  E  E  E  E  E  E  E  E     E  E  E  E  E  E  E  E     H          H         
--------------------------|--------------------------|----------------------|
--------------------------|--------------------------|----------------------|
--------------------------|--------------------------|----------------------|
--3--3--3--3--0--0--7--7--|--5--5--7--7--5--5--7--7--|--2s--------10--------|
--3--3--3--3--0--0--7--7--|--5--5--7--7--5--5--7--7--|--2s---------8--------|
--3--3--3--3--0--0--7--7--|--5--5--7--7--5--5--7--7--|--0-------------------|

  H          H           H          H           H          H         
----------------------|----------------------|----------------------|
----------------------|----------------------|----------------------|
----------------------|----------------------|----------------------|
--2s--------10--------|--2s--------10--------|--2s--------10--------|
--2s---------8--------|--2s---------8--------|--2s---------8--------|
--0-------------------|--0-------------------|--0-------------------|

  S S S S S S S S S S S S S S S S    S S S S S S S S S S S S S S S S  
----------------------------------|----------------------------------|
----------------------------------|----------------------------------|
----------------------------------|----------------------------------|
----------------------5-5---------|----------------------5-5---------|
--5-5-7-7-5-5-7-7-3-3-3-3-3-3-0-0-|--5-5-7-7-5-5-7-7-3-3-3-3-3-3-2-2-|
--5-5-7-7-5-5-7-7-3-3-----3-3-0-0-|--5-5-7-7-5-5-7-7-3-3-----3-3-2-2-|

  S S S S S S S S S S S S S S S S    S S S S S S S S S S S S S S S S  
----------------------------------|----------------------------------|
----------------------------------|----------------------------------|
----------------------------------|----------------------------------|
----------------------5-5---------|----------------------5-5---------|
--5-5-7-7-5-5-7-7-3-3-3-3-3-3-0-0-|--5-5-7-7-5-5-7-7-3-3-3-3-3-3-2-2-|
--5-5-7-7-5-5-7-7-3-3-----3-3-0-0-|--5-5-7-7-5-5-7-7-3-3-----3-3-2-2-|

  S S S S S S S S S S S S S S S S    S S S S S S S S S S S S S S S S  
----------------------------------|----------------------------------|
----------------------------------|----------------------------------|
----------------------------------|----------------------------------|
----------------------------------|----------------------------------|
--2-2-4-4-2-2-4-4-2-2-4-4-3-3-0-0-|--2-2-4-4-2-2-4-4-2-2-4-4-3-3-0-0-|
--2-2-4-4-2-2-4-4-2-2-4-4-3-3-0-0-|--2-2-4-4-2-2-4-4-2-2-4-4-3-3-0-0-|

  S S S S S S S S S S S S S S S S    S S S S S S S S S S S S S S S S  
----------------------------------|----------------------------------|
----------------------------------|----------------------------------|
----------------------------------|----------------------------------|
----------------------------------|----------------------------------|
--2-2-4-4-2-2-4-4-2-2-4-4-3-3-0-0-|--2-2-4-4-2-2-4-4-2-2-4-4-3-3-0-0-|
--2-2-4-4-2-2-4-4-2-2-4-4-3-3-0-0-|--2-2-4-4-2-2-4-4-2-2-4-4-3-3-0-0-|

  S S S S S S S S S S S S S S S S    S S S S S S S S S S S S S S S S  
----------------------------------|----------------------------------|
----------------------------------|----------------------------------|
----------------------------------|----------------------------------|
----------------------------------|----------------------------------|
--2-2-4-4-2-2-4-4-2-2-4-4-3-3-0-0-|--2-2-4-4-2-2-4-4-2-2-4-4-3-3-0-0-|
--2-2-4-4-2-2-4-4-2-2-4-4-3-3-0-0-|--2-2-4-4-2-2-4-4-2-2-4-4-3-3-0-0-|

  S S S S S S S S S S S S S S S S    S S S S S S S S S S S S S S S S  
----------------------------------|----------------------------------|
----------------------------------|----------------------------------|
----------------------------------|----------------------------------|
----------------------------------|----------------------------------|
--2-2-4-4-2-2-4-4-2-2-4-4-3-3-0-0-|--2-2-4-4-2-2-4-4-2-2-4-4-3-3-0-0-|
--2-2-4-4-2-2-4-4-2-2-4-4-3-3-0-0-|--2-2-4-4-2-2-4-4-2-2-4-4-3-3-0-0-|

  S S S S S S S S S S S S S S S S    S S S S S S S S S S S S S S S S  
----------------------------------|----------------------------------|
----------------------------------|----------------------------------|
----------------------------------|----------------------------------|
----------------------------------|----------------------------------|
--9-9-9-9-9-9-9-9-7-7-7-7-7-7-7-7-|--2-2-4-4-2-2-4-4-2-2-4-4-3-3-0-0-|
--9-9-9-9-9-9-9-9-7-7-7-7-7-7-7-7-|--2-2-4-4-2-2-4-4-2-2-4-4-3-3-0-0-|

  S S S S S S S S S S S S S S S S    S S S S S S S S S S S S S S S S  
----------------------------------|----------------------------------|
----------------------------------|----------------------------------|
----------------------------------|----------------------------------|
----------------------------------|----------------------------------|
--2-2-4-4-2-2-4-4-2-2-4-4-3-3-0-0-|--9-9-9-9-9-9-9-9-7-7-7-7-7-7-7-7-|
--2-2-4-4-2-2-4-4-2-2-4-4-3-3-0-0-|--9-9-9-9-9-9-9-9-7-7-7-7-7-7-7-7-|

  S S S S S S S S S S S S S S S S    S S S S S S S S S S S S S S S S  
----------------------------------|----------------------------------|
----------------------------------|----------------------------------|
----------------------------------|----------------------------------|
----------------------------------|----------------------------------|
--2-2-4-4-2-2-4-4-2-2-4-4-3-3-0-0-|--2-2-4-4-2-2-4-4-2-2-4-4-3-3-0-0-|
--2-2-4-4-2-2-4-4-2-2-4-4-3-3-0-0-|--2-2-4-4-2-2-4-4-2-2-4-4-3-3-0-0-|

  E  E  E  E  E  E  E  E     S S S S S S S S S S S S S S S S  
-----------0--------------|----------------------------------|
--------3--------------3--|----------------------------------|
-----2--------------2-----|----------------------------------|
--0--------------0--------|----------------------------------|
--------------------------|--2-2-4-4-2-2-4-4-2-2-4-4-3-3-0-0-|
--------------------------|--2-2-4-4-2-2-4-4-2-2-4-4-3-3-0-0-|

  S S S S S S S S S S S S S S S S    E  E  E  E  E  E  E  E   
----------------------------------|-----------0--------------|
----------------------------------|--------3--------------3--|
----------------------------------|-----2--------------2-----|
----------------------------------|--0--------------0--------|
--2-2-4-4-2-2-4-4-2-2-4-4-3-3-0-0-|--------------------------|
--2-2-4-4-2-2-4-4-2-2-4-4-3-3-0-0-|--------------------------|

  S S S S S S S S S S S S S S S S    S S S S S S S S S S S S S S S S  
----------------------------------|----------------------------------|
----------------------------------|----------------------------------|
----------------------------------|----------------------------------|
----------------------------------|----------------------------------|
--2-2-4-4-2-2-4-4-2-2-4-4-3-3-0-0-|--2-2-4-4-2-2-4-4-2-2-4-4-3-3-0-0-|
--2-2-4-4-2-2-4-4-2-2-4-4-3-3-0-0-|--2-2-4-4-2-2-4-4-2-2-4-4-3-3-0-0-|

  S S S S S S S S S S S S S S S S    S S S S S S S S S S S S S S S S  
----------------------------------|----------------------------------|
----------------------------------|----------------------------------|
----------------------------------|----------------------------------|
----------------------------------|----------------------------------|
--2-2-4-4-2-2-4-4-2-2-4-4-3-3-0-0-|--2-2-4-4-2-2-4-4-2-2-4-4-3-3-0-0-|
--2-2-4-4-2-2-4-4-2-2-4-4-3-3-0-0-|--2-2-4-4-2-2-4-4-2-2-4-4-3-3-0-0-|

  E  E  E  E  E  E  E  E     E  E  E  E  E  E  E  E   
--------------------------|--------------------------|
--------------------------|--------------------------|
--------------------------|--------------------------|
--3--3--3--3--0--0--7--7--|--5--5--7--7--5--5--7--7--|
--3--3--3--3--0--0--7--7--|--5--5--7--7--5--5--7--7--|
--3--3--3--3--0--0--7--7--|--5--5--7--7--5--5--7--7--|

  E  E  E  E  E  E  E  E     E  E  E  E  E  E  E  E   
--------------------------|--------------------------|
--------------------------|--------------------------|
--------------------------|--------------------------|
--3--3--3--3--0--0--7--7--|--5--5--7--7--5--5--7--7--|
--3--3--3--3--0--0--7--7--|--5--5--7--7--5--5--7--7--|
--3--3--3--3--0--0--7--7--|--5--5--7--7--5--5--7--7--|

  E  E  E  E  E  E  E  E     E  E  E  E  E  E  E  E   
--------------------------|--------------------------|
--------------------------|--------------------------|
--------------------------|--------------------------|
--3--3--3--3--0--0--7--7--|--5--5--7--7--5--5--7--7--|
--3--3--3--3--0--0--7--7--|--5--5--7--7--5--5--7--7--|
--3--3--3--3--0--0--7--7--|--5--5--7--7--5--5--7--7--|

  E  E  E  E  E  E  E  E     E  E  E  E  E  E  E  E     H          H         
--------------------------|--------------------------|----------------------|
--------------------------|--------------------------|----------------------|
--------------------------|--------------------------|----------------------|
--3--3--3--3--0--0--7--7--|--5--5--7--7--5--5--7--7--|--2s--------10--------|
--3--3--3--3--0--0--7--7--|--5--5--7--7--5--5--7--7--|--2s---------8--------|
--3--3--3--3--0--0--7--7--|--5--5--7--7--5--5--7--7--|--0-------------------|

  H          H           H          H           H          H         
----------------------|----------------------|----------------------|
----------------------|----------------------|----------------------|
----------------------|----------------------|----------------------|
--2s--------10--------|--2s--------10--------|--2s--------10--------|
--2s---------8--------|--2s---------8--------|--2s---------8--------|
--0-------------------|--0-------------------|--0-------------------|

  S S S S S S S S S S S S S S S S    S S S S S S S S S S S S S S S S  
----------------------------------|----------------------------------|
----------------------------------|----------------------------------|
----------------------------------|----------------------------------|
----------------------5-5---------|----------------------5-5---------|
--5-5-7-7-5-5-7-7-3-3-3-3-3-3-0-0-|--5-5-7-7-5-5-7-7-3-3-3-3-3-3-2-2-|
--5-5-7-7-5-5-7-7-3-3-----3-3-0-0-|--5-5-7-7-5-5-7-7-3-3-----3-3-2-2-|

  S S S S S S S S S S S S S S S S    S S S S S S S S S S S S S S S S  
----------------------------------|----------------------------------|
----------------------------------|----------------------------------|
----------------------------------|----------------------------------|
----------------------5-5---------|----------------------5-5---------|
--5-5-7-7-5-5-7-7-3-3-3-3-3-3-0-0-|--5-5-7-7-5-5-7-7-3-3-3-3-3-3-2-2-|
--5-5-7-7-5-5-7-7-3-3-----3-3-0-0-|--5-5-7-7-5-5-7-7-3-3-----3-3-2-2-|

  S S S S S S S S S S S S S S S S    S S S S S S S S S S S S S S S S  
----------------------------------|----------------------------------|
----------------------------------|----------------------------------|
----------------------------------|----------------------------------|
----------------------5-5---------|----------------------5-5---------|
--5-5-7-7-5-5-7-7-3-3-3-3-3-3-0-0-|--5-5-7-7-5-5-7-7-3-3-3-3-3-3-2-2-|
--5-5-7-7-5-5-7-7-3-3-----3-3-0-0-|--5-5-7-7-5-5-7-7-3-3-----3-3-2-2-|

  S S S S S S S S S S S S S S S S    S S S S S S S S S S S S S S S S  
----------------------------------|----------------------------------|
----------------------------------|----------------------------------|
----------------------------------|----------------------------------|
----------------------5-5---------|----------------------5-5---------|
--5-5-7-7-5-5-7-7-3-3-3-3-3-3-0-0-|--5-5-7-7-5-5-7-7-3-3-3-3-3-3-2-2-|
--5-5-7-7-5-5-7-7-3-3-----3-3-0-0-|--5-5-7-7-5-5-7-7-3-3-----3-3-2-2-|

   S  S  S  S  S  S  S  S S S S S S S S S  
------------------------------------------|
------------------------------------------|
---9--9--9--9--9--9--9--9-8-8-8-8-7-7-7-7-|
--10-10-10-10-10-10-10-10-9-9-9-9-8-8-8-8-|
---8--8--8--8--8--8--8--8-7-7-7-7-6-6-6-6-|
------------------------------------------|

   S  S  S  S  S  S  S  S S S S S S S S S  
------------------------------------------|
------------------------------------------|
---9--9--9--9--9--9--9--9-8-8-8-8-6-6-6-6-|
--10-10-10-10-10-10-10-10-9-9-9-9-7-7-7-7-|
---8--8--8--8--8--8--8--8-7-7-7-7-5-5-5-5-|
------------------------------------------|

   S  S  S  S  S  S  S  S S S S S S S S S  
------------------------------------------|
------------------------------------------|
---9--9--9--9--9--9--9--9-8-8-8-8-7-7-7-7-|
--10-10-10-10-10-10-10-10-9-9-9-9-8-8-8-8-|
---8--8--8--8--8--8--8--8-7-7-7-7-6-6-6-6-|
------------------------------------------|

   S  S  S  S  S  S  S  S S S S S S S S S  
------------------------------------------|
------------------------------------------|
---9--9--9--9--9--9--9--9-8-8-8-8-6-6-6-6-|
--10-10-10-10-10-10-10-10-9-9-9-9-7-7-7-7-|
---8--8--8--8--8--8--8--8-7-7-7-7-5-5-5-5-|
------------------------------------------|

   S  S  S  S  S  S  S  S S S S S S S S S  
------------------------------------------|
------------------------------------------|
---9--9--9--9--9--9--9--9-8-8-8-8-7-7-7-7-|
--10-10-10-10-10-10-10-10-9-9-9-9-8-8-8-8-|
---8--8--8--8--8--8--8--8-7-7-7-7-6-6-6-6-|
------------------------------------------|

   S  S  S  S  S  S  S  S S S S S S S S S  
------------------------------------------|
------------------------------------------|
---9--9--9--9--9--9--9--9-8-8-8-8-6-6-6-6-|
--10-10-10-10-10-10-10-10-9-9-9-9-7-7-7-7-|
---8--8--8--8--8--8--8--8-7-7-7-7-5-5-5-5-|
------------------------------------------|

   S  S  S  S  S  S  S  S S S S S S S S S  
------------------------------------------|
------------------------------------------|
---9--9--9--9--9--9--9--9-8-8-8-8-7-7-7-7-|
--10-10-10-10-10-10-10-10-9-9-9-9-8-8-8-8-|
---8--8--8--8--8--8--8--8-7-7-7-7-6-6-6-6-|
------------------------------------------|

   S  S  S  S  S  S  S  S S S S S S S S S    S S S S S S S S S S S S S S S S  
------------------------------------------|----------------------------------|
------------------------------------------|----------------------------------|
---9--9--9--9--9--9--9--9-8-8-8-8-6-6-6-6-|----------------------------------|
--10-10-10-10-10-10-10-10-9-9-9-9-7-7-7-7-|----------------------5-5---------|
---8--8--8--8--8--8--8--8-7-7-7-7-5-5-5-5-|--5-5-7-7-5-5-7-7-3-3-3-3-3-3-0-0-|
------------------------------------------|--5-5-7-7-5-5-7-7-3-3-----3-3-0-0-|

  S S S S S S S S S S S S S S S S    S S S S S S S S S S S S S S S S  
----------------------------------|----------------------------------|
----------------------------------|----------------------------------|
----------------------------------|----------------------------------|
----------------------5-5---------|----------------------5-5---------|
--5-5-7-7-5-5-7-7-3-3-3-3-3-3-2-2-|--5-5-7-7-5-5-7-7-3-3-3-3-3-3-0-0-|
--5-5-7-7-5-5-7-7-3-3-----3-3-2-2-|--5-5-7-7-5-5-7-7-3-3-----3-3-0-0-|

  S S S S S S S S S S S S S S S S    S S S S S S S S S S S S S S S S  
----------------------------------|----------------------------------|
----------------------------------|----------------------------------|
----------------------------------|----------------------------------|
----------------------5-5---------|----------------------5-5---------|
--5-5-7-7-5-5-7-7-3-3-3-3-3-3-2-2-|--5-5-7-7-5-5-7-7-3-3-3-3-3-3-0-0-|
--5-5-7-7-5-5-7-7-3-3-----3-3-2-2-|--5-5-7-7-5-5-7-7-3-3-----3-3-0-0-|

  S S S S S S S S S S S S S S S S    S S S S S S S S S S S S S S S S  
----------------------------------|----------------------------------|
----------------------------------|----------------------------------|
----------------------------------|----------------------------------|
----------------------5-5---------|----------------------5-5---------|
--5-5-7-7-5-5-7-7-3-3-3-3-3-3-2-2-|--5-5-7-7-5-5-7-7-3-3-3-3-3-3-0-0-|
--5-5-7-7-5-5-7-7-3-3-----3-3-2-2-|--5-5-7-7-5-5-7-7-3-3-----3-3-0-0-|

  S S S S S S S S S S S S S S S S    E  E  E  W                 
----------------------------------|----------------------------|
----------------------------------|----------------------------|
----------------------------------|----------------------------|
----------------------5-5---------|----------------------------|
--5-5-7-7-5-5-7-7-3-3-3-3-3-3-2-2-|-----5--6--7----------------|
--5-5-7-7-5-5-7-7-3-3-----3-3-2-2-|----------------------------|

  E  E  E  W                   E  E  E  W                 
----------------------------|----------------------------|
----------------------------|----------------------------|
----------------------------|----------------------------|
----------------------------|----------------------------|
-----4--3--2----------------|-----5--6--7----------------|
----------------------------|----------------------------|

  E  E  E  W                   E  E  E  W                 
----------------------------|----------------------------|
----------------------------|----------------------------|
----------------------------|----------------------------|
----------------------------|----------------------------|
-----4--3--2----------------|-----5--6--7----------------|
----------------------------|----------------------------|

  E  E  E  W                   E  E  E  W                 
----------------------------|----------------------------|
----------------------------|----------------------------|
----------------------------|----------------------------|
----------------------------|----------------------------|
-----4--3--2----------------|-----5--6--7----------------|
----------------------------|----------------------------|

  E  E  E  W                  
----------------------------||
----------------------------||
----------------------------||
----------------------------||
-----4--3--2----------------||
----------------------------||

Rhythm Guitar

                                     S S S S S S S S S S S S S S S S  
D||-------|-------|-------|-------|----------------------------------|
A||-------|-------|-------|-------|----------------------------------|
F||-------|-------|-------|-------|----------------------------------|
C||-------|-------|-------|-------|----------------------------------|
G||-------|-------|-------|-------|--2-2-4-4-2-2-4-4-2-2-4-4-3-3-0-0-|
C||-------|-------|-------|-------|--2-2-4-4-2-2-4-4-2-2-4-4-3-3-0-0-|

  S S S S S S S S S S S S S S S S    S S S S S S S S S S S S S S S S  
----------------------------------|----------------------------------|
----------------------------------|----------------------------------|
----------------------------------|----------------------------------|
----------------------------------|----------------------------------|
--2-2-4-4-2-2-4-4-2-2-4-4-3-3-0-0-|--2-2-4-4-2-2-4-4-2-2-4-4-3-3-0-0-|
--2-2-4-4-2-2-4-4-2-2-4-4-3-3-0-0-|--2-2-4-4-2-2-4-4-2-2-4-4-3-3-0-0-|

  S S S S S S S S S S S S S S S S    S S S S S S S S S S S S S S S S  
----------------------------------|----------------------------------|
----------------------------------|----------------------------------|
----------------------------------|----------------------------------|
----------------------------------|----------------------------------|
--2-2-4-4-2-2-4-4-2-2-4-4-3-3-0-0-|--2-2-4-4-2-2-4-4-2-2-4-4-3-3-0-0-|
--2-2-4-4-2-2-4-4-2-2-4-4-3-3-0-0-|--2-2-4-4-2-2-4-4-2-2-4-4-3-3-0-0-|

  S S S S S S S S S S S S S S S S    S S S S S S S S S S S S S S S S  
----------------------------------|----------------------------------|
----------------------------------|----------------------------------|
----------------------------------|----------------------------------|
----------------------------------|----------------------------------|
--2-2-4-4-2-2-4-4-2-2-4-4-3-3-0-0-|--2-2-4-4-2-2-4-4-2-2-4-4-3-3-0-0-|
--2-2-4-4-2-2-4-4-2-2-4-4-3-3-0-0-|--2-2-4-4-2-2-4-4-2-2-4-4-3-3-0-0-|

  S S S S S S S S S S S S S S S S            S S S S S S S S S S S S S S S S  
----------------------------------|-------|----------------------------------|
----------------------------------|-------|----------------------------------|
----------------------------------|-------|----------------------------------|
----------------------------------|-------|----------------------------------|
--2-2-4-4-2-2-4-4-2-2-4-4-3-3-0-0-|-------|--2-2-4-4-2-2-4-4-2-2-4-4-3-3-0-0-|
--2-2-4-4-2-2-4-4-2-2-4-4-3-3-0-0-|-------|--2-2-4-4-2-2-4-4-2-2-4-4-3-3-0-0-|

  S S S S S S S S S S S S S S S S            S S S S S S S S S S S S S S S S  
----------------------------------|-------|----------------------------------|
----------------------------------|-------|----------------------------------|
----------------------------------|-------|----------------------------------|
----------------------------------|-------|----------------------------------|
--2-2-4-4-2-2-4-4-2-2-4-4-3-3-0-0-|-------|--2-2-4-4-2-2-4-4-2-2-4-4-3-3-0-0-|
--2-2-4-4-2-2-4-4-2-2-4-4-3-3-0-0-|-------|--2-2-4-4-2-2-4-4-2-2-4-4-3-3-0-0-|

  S S S S S S S S S S S S S S S S    S S S S S S S S S S S S S S S S  
----------------------------------|----------------------------------|
----------------------------------|----------------------------------|
----------------------------------|----------------------------------|
----------------------------------|----------------------------------|
--2-2-4-4-2-2-4-4-2-2-4-4-3-3-0-0-|--9-9-9-9-9-9-9-9-7-7-7-7-7-7-7-7-|
--2-2-4-4-2-2-4-4-2-2-4-4-3-3-0-0-|--9-9-9-9-9-9-9-9-7-7-7-7-7-7-7-7-|

  S S S S S S S S S S S S S S S S    S S S S S S S S S S S S S S S S  
----------------------------------|----------------------------------|
----------------------------------|----------------------------------|
----------------------------------|----------------------------------|
----------------------------------|----------------------------------|
--2-2-4-4-2-2-4-4-2-2-4-4-3-3-0-0-|--2-2-4-4-2-2-4-4-2-2-4-4-3-3-0-0-|
--2-2-4-4-2-2-4-4-2-2-4-4-3-3-0-0-|--2-2-4-4-2-2-4-4-2-2-4-4-3-3-0-0-|

  S S S S S S S S S S S S S S S S    S S S S S S S S S S S S S S S S  
----------------------------------|----------------------------------|
----------------------------------|----------------------------------|
----------------------------------|----------------------------------|
----------------------------------|----------------------------------|
--9-9-9-9-9-9-9-9-7-7-7-7-7-7-7-7-|--2-2-4-4-2-2-4-4-2-2-4-4-3-3-0-0-|
--9-9-9-9-9-9-9-9-7-7-7-7-7-7-7-7-|--2-2-4-4-2-2-4-4-2-2-4-4-3-3-0-0-|

  S S S S S S S S S S S S S S S S    S S S S S S S S S S S S S S S S  
----------------------------------|----------------------------------|
----------------------------------|----------------------------------|
----------------------------------|----------------------------------|
----------------------------------|----------------------------------|
--2-2-4-4-2-2-4-4-2-2-4-4-3-3-0-0-|--2-2-4-4-2-2-4-4-2-2-4-4-3-3-0-0-|
--2-2-4-4-2-2-4-4-2-2-4-4-3-3-0-0-|--2-2-4-4-2-2-4-4-2-2-4-4-3-3-0-0-|

  S S S S S S S S S S S S S S S S    E  E  E  E  E  E  E  E   
----------------------------------|--------------------------|
----------------------------------|--------------------------|
----------------------------------|--------------------------|
----------------------------------|--3--3--3--3--0--0--7--7--|
--2-2-4-4-2-2-4-4-2-2-4-4-3-3-0-0-|--3--3--3--3--0--0--7--7--|
--2-2-4-4-2-2-4-4-2-2-4-4-3-3-0-0-|--3--3--3--3--0--0--7--7--|

  E  E  E  E  E  E  E  E     E  E  E  E  E  E  E  E   
--------------------------|--------------------------|
--------------------------|--------------------------|
--------------------------|--------------------------|
--5--5--7--7--5--5--7--7--|--3--3--3--3--0--0--7--7--|
--5--5--7--7--5--5--7--7--|--3--3--3--3--0--0--7--7--|
--5--5--7--7--5--5--7--7--|--3--3--3--3--0--0--7--7--|

  E  E  E  E  E  E  E  E     E  E  E  E  E  E  E  E   
--------------------------|--------------------------|
--------------------------|--------------------------|
--------------------------|--------------------------|
--5--5--7--7--5--5--7--7--|--3--3--3--3--0--0--7--7--|
--5--5--7--7--5--5--7--7--|--3--3--3--3--0--0--7--7--|
--5--5--7--7--5--5--7--7--|--3--3--3--3--0--0--7--7--|

  E  E  E  E  E  E  E  E     E  E  E  E  E  E  E  E   
--------------------------|--------------------------|
--------------------------|--------------------------|
--------------------------|--------------------------|
--5--5--7--7--5--5--7--7--|--3--3--3--3--0--0--7--7--|
--5--5--7--7--5--5--7--7--|--3--3--3--3--0--0--7--7--|
--5--5--7--7--5--5--7--7--|--3--3--3--3--0--0--7--7--|

  E  E  E  E  E  E  E  E                           
--------------------------|-----|-----|-----|-----|
--------------------------|-----|-----|-----|-----|
--------------------------|-----|-----|-----|-----|
--5--5--7--7--5--5--7--7--|-----|-----|-----|-----|
--5--5--7--7--5--5--7--7--|-----|-----|-----|-----|
--5--5--7--7--5--5--7--7--|-----|-----|-----|-----|

  S S S S S S S S S S S S S S S S    S S S S S S S S S S S S S S S S  
----------------------------------|----------------------------------|
----------------------------------|----------------------------------|
----------------------------------|----------------------------------|
----------------------5-5---------|----------------------5-5---------|
--5-5-7-7-5-5-7-7-3-3-3-3-3-3-0-0-|--5-5-7-7-5-5-7-7-3-3-3-3-3-3-2-2-|
--5-5-7-7-5-5-7-7-3-3-----3-3-0-0-|--5-5-7-7-5-5-7-7-3-3-----3-3-2-2-|

  S S S S S S S S S S S S S S S S    S S S S S S S S S S S S S S S S  
----------------------------------|----------------------------------|
----------------------------------|----------------------------------|
----------------------------------|----------------------------------|
----------------------5-5---------|----------------------5-5---------|
--5-5-7-7-5-5-7-7-3-3-3-3-3-3-0-0-|--5-5-7-7-5-5-7-7-3-3-3-3-3-3-2-2-|
--5-5-7-7-5-5-7-7-3-3-----3-3-0-0-|--5-5-7-7-5-5-7-7-3-3-----3-3-2-2-|

  S S S S S S S S S S S S S S S S    S S S S S S S S S S S S S S S S  
----------------------------------|----------------------------------|
----------------------------------|----------------------------------|
----------------------------------|----------------------------------|
----------------------------------|----------------------------------|
--2-2-4-4-2-2-4-4-2-2-4-4-3-3-0-0-|--2-2-4-4-2-2-4-4-2-2-4-4-3-3-0-0-|
--2-2-4-4-2-2-4-4-2-2-4-4-3-3-0-0-|--2-2-4-4-2-2-4-4-2-2-4-4-3-3-0-0-|

  S S S S S S S S S S S S S S S S    S S S S S S S S S S S S S S S S  
----------------------------------|----------------------------------|
----------------------------------|----------------------------------|
----------------------------------|----------------------------------|
----------------------------------|----------------------------------|
--2-2-4-4-2-2-4-4-2-2-4-4-3-3-0-0-|--2-2-4-4-2-2-4-4-2-2-4-4-3-3-0-0-|
--2-2-4-4-2-2-4-4-2-2-4-4-3-3-0-0-|--2-2-4-4-2-2-4-4-2-2-4-4-3-3-0-0-|

  S S S S S S S S S S S S S S S S    S S S S S S S S S S S S S S S S  
----------------------------------|----------------------------------|
----------------------------------|----------------------------------|
----------------------------------|----------------------------------|
----------------------------------|----------------------------------|
--2-2-4-4-2-2-4-4-2-2-4-4-3-3-0-0-|--2-2-4-4-2-2-4-4-2-2-4-4-3-3-0-0-|
--2-2-4-4-2-2-4-4-2-2-4-4-3-3-0-0-|--2-2-4-4-2-2-4-4-2-2-4-4-3-3-0-0-|

  S S S S S S S S S S S S S S S S    S S S S S S S S S S S S S S S S          
----------------------------------|----------------------------------|-------|
----------------------------------|----------------------------------|-------|
----------------------------------|----------------------------------|-------|
----------------------------------|----------------------------------|-------|
--2-2-4-4-2-2-4-4-2-2-4-4-3-3-0-0-|--2-2-4-4-2-2-4-4-2-2-4-4-3-3-0-0-|-------|
--2-2-4-4-2-2-4-4-2-2-4-4-3-3-0-0-|--2-2-4-4-2-2-4-4-2-2-4-4-3-3-0-0-|-------|

  S S S S S S S S S S S S S S S S    S S S S S S S S S S S S S S S S          
----------------------------------|----------------------------------|-------|
----------------------------------|----------------------------------|-------|
----------------------------------|----------------------------------|-------|
----------------------------------|----------------------------------|-------|
--2-2-4-4-2-2-4-4-2-2-4-4-3-3-0-0-|--2-2-4-4-2-2-4-4-2-2-4-4-3-3-0-0-|-------|
--2-2-4-4-2-2-4-4-2-2-4-4-3-3-0-0-|--2-2-4-4-2-2-4-4-2-2-4-4-3-3-0-0-|-------|

  S S S S S S S S S S S S S S S S    S S S S S S S S S S S S S S S S  
----------------------------------|----------------------------------|
----------------------------------|----------------------------------|
----------------------------------|----------------------------------|
----------------------------------|----------------------------------|
--2-2-4-4-2-2-4-4-2-2-4-4-3-3-0-0-|--2-2-4-4-2-2-4-4-2-2-4-4-3-3-0-0-|
--2-2-4-4-2-2-4-4-2-2-4-4-3-3-0-0-|--2-2-4-4-2-2-4-4-2-2-4-4-3-3-0-0-|

  S S S S S S S S S S S S S S S S    S S S S S S S S S S S S S S S S  
----------------------------------|----------------------------------|
----------------------------------|----------------------------------|
----------------------------------|----------------------------------|
----------------------------------|----------------------------------|
--9-9-9-9-9-9-9-9-7-7-7-7-7-7-7-7-|--2-2-4-4-2-2-4-4-2-2-4-4-3-3-0-0-|
--9-9-9-9-9-9-9-9-7-7-7-7-7-7-7-7-|--2-2-4-4-2-2-4-4-2-2-4-4-3-3-0-0-|

  S S S S S S S S S S S S S S S S    S S S S S S S S S S S S S S S S  
----------------------------------|----------------------------------|
----------------------------------|----------------------------------|
----------------------------------|----------------------------------|
----------------------------------|----------------------------------|
--2-2-4-4-2-2-4-4-2-2-4-4-3-3-0-0-|--9-9-9-9-9-9-9-9-7-7-7-7-7-7-7-7-|
--2-2-4-4-2-2-4-4-2-2-4-4-3-3-0-0-|--9-9-9-9-9-9-9-9-7-7-7-7-7-7-7-7-|

  S S S S S S S S S S S S S S S S    S S S S S S S S S S S S S S S S  
----------------------------------|----------------------------------|
----------------------------------|----------------------------------|
----------------------------------|----------------------------------|
----------------------------------|----------------------------------|
--2-2-4-4-2-2-4-4-2-2-4-4-3-3-0-0-|--2-2-4-4-2-2-4-4-2-2-4-4-3-3-0-0-|
--2-2-4-4-2-2-4-4-2-2-4-4-3-3-0-0-|--2-2-4-4-2-2-4-4-2-2-4-4-3-3-0-0-|

  S S S S S S S S S S S S S S S S    S S S S S S S S S S S S S S S S  
----------------------------------|----------------------------------|
----------------------------------|----------------------------------|
----------------------------------|----------------------------------|
----------------------------------|----------------------------------|
--2-2-4-4-2-2-4-4-2-2-4-4-3-3-0-0-|--2-2-4-4-2-2-4-4-2-2-4-4-3-3-0-0-|
--2-2-4-4-2-2-4-4-2-2-4-4-3-3-0-0-|--2-2-4-4-2-2-4-4-2-2-4-4-3-3-0-0-|

  E  E  E  E  E  E  E  E     E  E  E  E  E  E  E  E   
--------------------------|--------------------------|
--------------------------|--------------------------|
--------------------------|--------------------------|
--3--3--3--3--0--0--7--7--|--5--5--7--7--5--5--7--7--|
--3--3--3--3--0--0--7--7--|--5--5--7--7--5--5--7--7--|
--3--3--3--3--0--0--7--7--|--5--5--7--7--5--5--7--7--|

  E  E  E  E  E  E  E  E     E  E  E  E  E  E  E  E   
--------------------------|--------------------------|
--------------------------|--------------------------|
--------------------------|--------------------------|
--3--3--3--3--0--0--7--7--|--5--5--7--7--5--5--7--7--|
--3--3--3--3--0--0--7--7--|--5--5--7--7--5--5--7--7--|
--3--3--3--3--0--0--7--7--|--5--5--7--7--5--5--7--7--|

  E  E  E  E  E  E  E  E     E  E  E  E  E  E  E  E   
--------------------------|--------------------------|
--------------------------|--------------------------|
--------------------------|--------------------------|
--3--3--3--3--0--0--7--7--|--5--5--7--7--5--5--7--7--|
--3--3--3--3--0--0--7--7--|--5--5--7--7--5--5--7--7--|
--3--3--3--3--0--0--7--7--|--5--5--7--7--5--5--7--7--|

  E  E  E  E  E  E  E  E     E  E  E  E  E  E  E  E                           
--------------------------|--------------------------|-----|-----|-----|-----|
--------------------------|--------------------------|-----|-----|-----|-----|
--------------------------|--------------------------|-----|-----|-----|-----|
--3--3--3--3--0--0--7--7--|--5--5--7--7--5--5--7--7--|-----|-----|-----|-----|
--3--3--3--3--0--0--7--7--|--5--5--7--7--5--5--7--7--|-----|-----|-----|-----|
--3--3--3--3--0--0--7--7--|--5--5--7--7--5--5--7--7--|-----|-----|-----|-----|

  S S S S S S S S S S S S S S S S    S S S S S S S S S S S S S S S S  
----------------------------------|----------------------------------|
----------------------------------|----------------------------------|
----------------------------------|----------------------------------|
----------------------5-5---------|----------------------5-5---------|
--5-5-7-7-5-5-7-7-3-3-3-3-3-3-0-0-|--5-5-7-7-5-5-7-7-3-3-3-3-3-3-2-2-|
--5-5-7-7-5-5-7-7-3-3-----3-3-0-0-|--5-5-7-7-5-5-7-7-3-3-----3-3-2-2-|

  S S S S S S S S S S S S S S S S    S S S S S S S S S S S S S S S S  
----------------------------------|----------------------------------|
----------------------------------|----------------------------------|
----------------------------------|----------------------------------|
----------------------5-5---------|----------------------5-5---------|
--5-5-7-7-5-5-7-7-3-3-3-3-3-3-0-0-|--5-5-7-7-5-5-7-7-3-3-3-3-3-3-2-2-|
--5-5-7-7-5-5-7-7-3-3-----3-3-0-0-|--5-5-7-7-5-5-7-7-3-3-----3-3-2-2-|

  S S S S S S S S S S S S S S S S    S S S S S S S S S S S S S S S S  
----------------------------------|----------------------------------|
----------------------------------|----------------------------------|
----------------------------------|----------------------------------|
----------------------5-5---------|----------------------5-5---------|
--5-5-7-7-5-5-7-7-3-3-3-3-3-3-0-0-|--5-5-7-7-5-5-7-7-3-3-3-3-3-3-2-2-|
--5-5-7-7-5-5-7-7-3-3-----3-3-0-0-|--5-5-7-7-5-5-7-7-3-3-----3-3-2-2-|

  S S S S S S S S S S S S S S S S    S S S S S S S S S S S S S S S S  
----------------------------------|----------------------------------|
----------------------------------|----------------------------------|
----------------------------------|----------------------------------|
----------------------5-5---------|----------------------5-5---------|
--5-5-7-7-5-5-7-7-3-3-3-3-3-3-0-0-|--5-5-7-7-5-5-7-7-3-3-3-3-3-3-2-2-|
--5-5-7-7-5-5-7-7-3-3-----3-3-0-0-|--5-5-7-7-5-5-7-7-3-3-----3-3-2-2-|

   S  S  S  S  S  S  S  S S S S S S S S S  
------------------------------------------|
------------------------------------------|
---9--9--9--9--9--9--9--9-8-8-8-8-7-7-7-7-|
--10-10-10-10-10-10-10-10-9-9-9-9-8-8-8-8-|
---8--8--8--8--8--8--8--8-7-7-7-7-6-6-6-6-|
------------------------------------------|

   S  S  S  S  S  S  S  S S S S S S S S S  
------------------------------------------|
------------------------------------------|
---9--9--9--9--9--9--9--9-8-8-8-8-6-6-6-6-|
--10-10-10-10-10-10-10-10-9-9-9-9-7-7-7-7-|
---8--8--8--8--8--8--8--8-7-7-7-7-5-5-5-5-|
------------------------------------------|

   S  S  S  S  S  S  S  S S S S S S S S S  
------------------------------------------|
------------------------------------------|
---9--9--9--9--9--9--9--9-8-8-8-8-7-7-7-7-|
--10-10-10-10-10-10-10-10-9-9-9-9-8-8-8-8-|
---8--8--8--8--8--8--8--8-7-7-7-7-6-6-6-6-|
------------------------------------------|

   S  S  S  S  S  S  S  S S S S S S S S S  
------------------------------------------|
------------------------------------------|
---9--9--9--9--9--9--9--9-8-8-8-8-6-6-6-6-|
--10-10-10-10-10-10-10-10-9-9-9-9-7-7-7-7-|
---8--8--8--8--8--8--8--8-7-7-7-7-5-5-5-5-|
------------------------------------------|

   S  S  S  S  S  S  S  S S S S S S S S S  
------------------------------------------|
------------------------------------------|
---9--9--9--9--9--9--9--9-8-8-8-8-7-7-7-7-|
--10-10-10-10-10-10-10-10-9-9-9-9-8-8-8-8-|
---8--8--8--8--8--8--8--8-7-7-7-7-6-6-6-6-|
------------------------------------------|

   S  S  S  S  S  S  S  S S S S S S S S S  
------------------------------------------|
------------------------------------------|
---9--9--9--9--9--9--9--9-8-8-8-8-6-6-6-6-|
--10-10-10-10-10-10-10-10-9-9-9-9-7-7-7-7-|
---8--8--8--8--8--8--8--8-7-7-7-7-5-5-5-5-|
------------------------------------------|

   S  S  S  S  S  S  S  S S S S S S S S S  
------------------------------------------|
------------------------------------------|
---9--9--9--9--9--9--9--9-8-8-8-8-7-7-7-7-|
--10-10-10-10-10-10-10-10-9-9-9-9-8-8-8-8-|
---8--8--8--8--8--8--8--8-7-7-7-7-6-6-6-6-|
------------------------------------------|

   S  S  S  S  S  S  S  S S S S S S S S S    S S S S S S S S S S S S S S S S  
------------------------------------------|----------------------------------|
------------------------------------------|----------------------------------|
---9--9--9--9--9--9--9--9-8-8-8-8-6-6-6-6-|----------------------------------|
--10-10-10-10-10-10-10-10-9-9-9-9-7-7-7-7-|----------------------5-5---------|
---8--8--8--8--8--8--8--8-7-7-7-7-5-5-5-5-|--5-5-7-7-5-5-7-7-3-3-3-3-3-3-0-0-|
------------------------------------------|--5-5-7-7-5-5-7-7-3-3-----3-3-0-0-|

  S S S S S S S S S S S S S S S S    S S S S S S S S S S S S S S S S  
----------------------------------|----------------------------------|
----------------------------------|----------------------------------|
----------------------------------|----------------------------------|
----------------------5-5---------|----------------------5-5---------|
--5-5-7-7-5-5-7-7-3-3-3-3-3-3-2-2-|--5-5-7-7-5-5-7-7-3-3-3-3-3-3-0-0-|
--5-5-7-7-5-5-7-7-3-3-----3-3-2-2-|--5-5-7-7-5-5-7-7-3-3-----3-3-0-0-|

  S S S S S S S S S S S S S S S S    S S S S S S S S S S S S S S S S  
----------------------------------|----------------------------------|
----------------------------------|----------------------------------|
----------------------------------|----------------------------------|
----------------------5-5---------|----------------------5-5---------|
--5-5-7-7-5-5-7-7-3-3-3-3-3-3-2-2-|--5-5-7-7-5-5-7-7-3-3-3-3-3-3-0-0-|
--5-5-7-7-5-5-7-7-3-3-----3-3-2-2-|--5-5-7-7-5-5-7-7-3-3-----3-3-0-0-|

  S S S S S S S S S S S S S S S S    S S S S S S S S S S S S S S S S  
----------------------------------|----------------------------------|
----------------------------------|----------------------------------|
----------------------------------|----------------------------------|
----------------------5-5---------|----------------------5-5---------|
--5-5-7-7-5-5-7-7-3-3-3-3-3-3-2-2-|--5-5-7-7-5-5-7-7-3-3-3-3-3-3-0-0-|
--5-5-7-7-5-5-7-7-3-3-----3-3-2-2-|--5-5-7-7-5-5-7-7-3-3-----3-3-0-0-|

  S S S S S S S S S S S S S S S S                                           
----------------------------------|----|----|----|----|----|----|----|----||
----------------------------------|----|----|----|----|----|----|----|----||
----------------------------------|----|----|----|----|----|----|----|----||
----------------------5-5---------|----|----|----|----|----|----|----|----||
--5-5-7-7-5-5-7-7-3-3-3-3-3-3-2-2-|----|----|----|----|----|----|----|----||
--5-5-7-7-5-5-7-7-3-3-----3-3-2-2-|----|----|----|----|----|----|----|----||

==========Grudge==========

Clean Guitar

     E  E  E  E  E  E  E  E     E  E  E  E  E  E  S  S E   
E||--------------------------|----------------------------|
B||--------------------------|----------------------------|
G||--------2-----------4-----|--------3-----------5h-7-5--|
D||-----4-----4-----6-----6--|-----5-----5-----7----------|
A||--2-----------4-----------|--3-----------5-------------|
E||--------------------------|----------------------------|

  E  E  E  E  E  E  E  E     E  E  E  E  E  E  S  S E   
--------------------------|----------------------------|
--------------------------|----------------------------|
--------2-----------4-----|--------3-------------------|
-----4-----4-----6-----6--|-----5-----5-----7----------|
--2-----------4-----------|--3-----------5-----5h-7-5--|
--------------------------|----------------------------|

  E  E  E  E  E  E  E  E     E  E  E  E  E  E  S  S E   
--------------------------|----------------------------|
--------------------------|----------------------------|
--------2-----------4-----|--------3-----------5h-7-5--|
-----4-----4-----6-----6--|-----5-----5-----7----------|
--2-----------4-----------|--3-----------5-------------|
--------------------------|----------------------------|

  E  E  E  E  E  E  E  E     E  E  E  E  E  E  S  S E   
--------------------------|----------------------------|
--------------------------|----------------------------|
--------2-----------4-----|--------3-------------------|
-----4-----4-----6-----6--|-----5-----5-----7----------|
--2-----------4-----------|--3-----------5-----5h-7-5--|
--------------------------|----------------------------|

  E  E  E  E  E  E  E  E     E  E  E  E  E  E  S  S E   
--------------------------|----------------------------|
--------------------------|----------------------------|
--------2-----------4-----|--------3-----------5h-7-5--|
-----4-----4-----6-----6--|-----5-----5-----7----------|
--2-----------4-----------|--3-----------5-------------|
--------------------------|----------------------------|

  E  E  E  E  E  E  E  E     E  E  E  E  E  E  S  S E   
--------------------------|----------------------------|
--------------------------|----------------------------|
--------2-----------4-----|--------3-------------------|
-----4-----4-----6-----6--|-----5-----5-----7----------|
--2-----------4-----------|--3-----------5-----5h-7-5--|
--------------------------|----------------------------|

  ^  v  ^  v                 ^  v  ^  v               
  E  E  E  E  E  E  E  E     E  E  E  E  E  E  E  E   
--------------------------|--------------------------|
--------------------------|--------------------------|
--------------------------|--------------------------|
--0--0--0--0--------------|--0--0--0--0--------------|
--0--0--0--0--2--2--1--1--|--0--0--0--0--2--2--1--1--|
--0--0--0--0--------------|--0--0--0--0--------------|

  ^  v  ^  v                 ^  v  ^  v               
  E  E  E  E  E  E  E  E     E  E  E  E  E  E  E  E   
--------------------------|--------------------------|
--------------------------|--------------------------|
--------------------------|--------------------------|
--2--2--2--2--------------|--5--5--5--5--------------|
--2--2--2--2--4--4--3--3--|--5--5--5--5--7--7--6--6--|
--2--2--2--2--------------|--5--5--5--5--------------|

  ^  v  ^  v                 ^  v  ^  v  ^  v  ^  v   
  E  E  E  E  E  E  E  E     E  E  E  E  E  E  E  E   
--------------------------|--------------------------|
--------------------------|--------------------------|
--------------------------|--------------------------|
--2--2--2--2--------------|--5--5--5--5--7--7--6--6--|
--2--2--2--2--4--4--3--3--|--5--5--5--5--7--7--6--6--|
--2--2--2--2--------------|--5--5--5--5--7--7--6--6--|

  ^  v  ^  v                 ^  v  ^  v               
  E  E  E  E  E  E  E  E     E  E  E  E  E  E  E  E   
--------------------------|--------------------------|
--------------------------|--------------------------|
--------------------------|--------------------------|
--0--0--0--0--------------|--0--0--0--0--------------|
--0--0--0--0--2--2--1--1--|--0--0--0--0--2--2--1--1--|
--0--0--0--0--------------|--0--0--0--0--------------|

  ^  v  ^  v                 ^  v  ^  v               
  E  E  E  E  E  E  E  E     E  E  E  E  E  E  E  E   
--------------------------|--------------------------|
--------------------------|--------------------------|
--------------------------|--------------------------|
--2--2--2--2--------------|--5--5--5--5--------------|
--2--2--2--2--4--4--3--3--|--5--5--5--5--7--7--6--6--|
--2--2--2--2--------------|--5--5--5--5--------------|

  ^  v  ^  v                 ^  v  ^  v  ^  v  ^  v   
  E  E  E  E  E  E  E  E     E  E  E  E  E  E  E  E   
--------------------------|--------------------------|
--------------------------|--------------------------|
--------------------------|--------------------------|
--2--2--2--2--------------|--5--5--5--5--7--7--6--6--|
--2--2--2--2--4--4--3--3--|--5--5--5--5--7--7--6--6--|
--2--2--2--2--------------|--5--5--5--5--7--7--6--6--|

  ^  v  ^  v                 ^  v  ^  v               
  E  E  E  E  E  E  E  E     E  E  E  E  E  E  E  E   
--------------------------|--------------------------|
--------------------------|--------------------------|
--------------------------|--------------------------|
--0--0--0--0--------------|--0--0--0--0--------------|
--0--0--0--0--2--2--1--1--|--0--0--0--0--2--2--1--1--|
--0--0--0--0--------------|--0--0--0--0--------------|

  ^  v  ^  v                 ^  v  ^  v               
  E  E  E  E  E  E  E  E     E  E  E  E  E  E  E  E   
--------------------------|--------------------------|
--------------------------|--------------------------|
--------------------------|--------------------------|
--2--2--2--2--------------|--5--5--5--5--------------|
--2--2--2--2--4--4--3--3--|--5--5--5--5--7--7--6--6--|
--2--2--2--2--------------|--5--5--5--5--------------|

  ^  v  ^  v                 ^  v  ^  v  ^  v  ^  v   
  E  E  E  E  E  E  E  E     E  E  E  E  E  E  E  E   
--------------------------|--------------------------|
--------------------------|--------------------------|
--------------------------|--------------------------|
--2--2--2--2--------------|--5--5--5--5--7--7--6--6--|
--2--2--2--2--4--4--3--3--|--5--5--5--5--7--7--6--6--|
--2--2--2--2--------------|--5--5--5--5--7--7--6--6--|

  ^  v  ^  v                 ^  v  ^  v               
  E  E  E  E  E  E  E  E     E  E  E  E  E  E  E  E   
--------------------------|--------------------------|
--------------------------|--------------------------|
--------------------------|--------------------------|
--0--0--0--0--------------|--0--0--0--0--------------|
--0--0--0--0--2--2--1--1--|--0--0--0--0--2--2--1--1--|
--0--0--0--0--------------|--0--0--0--0--------------|

  ^  v  ^  v                 ^  v  ^  v               
  E  E  E  E  E  E  E  E     E  E  E  E  E  E  E  E   
--------------------------|--------------------------|
--------------------------|--------------------------|
--------------------------|--------------------------|
--2--2--2--2--------------|--5--5--5--5--------------|
--2--2--2--2--4--4--3--3--|--5--5--5--5--7--7--6--6--|
--2--2--2--2--------------|--5--5--5--5--------------|

  ^  v  ^  v                 ^  v  ^  v  ^  v  ^  v   
  E  E  E  E  E  E  E  E     E  E  E  E  E  E  E  E   
--------------------------|--------------------------|
--------------------------|--------------------------|
--------------------------|--------------------------|
--2--2--2--2--------------|--5--5--5--5--7--7--6--6--|
--2--2--2--2--4--4--3--3--|--5--5--5--5--7--7--6--6--|
--2--2--2--2--------------|--5--5--5--5--7--7--6--6--|

  E  E  E  E  E  E  E  E     E  E  E  E  E  E  S  S E   
--------------------------|----------------------------|
--------------------------|----------------------------|
--------2-----------4-----|--------3-----------5h-7-5--|
-----4-----4-----6-----6--|-----5-----5-----7----------|
--2-----------4-----------|--3-----------5-------------|
--------------------------|----------------------------|

  E  E  E  E  E  E  E  E     E  E  E  E  E  E  S  S E   
--------------------------|----------------------------|
--------------------------|----------------------------|
--------2-----------4-----|--------3-------------------|
-----4-----4-----6-----6--|-----5-----5-----7----------|
--2-----------4-----------|--3-----------5-----5h-7-5--|
--------------------------|----------------------------|

  E  E  E  E  E  E  E  E     E  E  E  E  E  E  S  S E   
--------------------------|----------------------------|
--------------------------|----------------------------|
--------2-----------4-----|--------3-----------5h-7-5--|
-----4-----4-----6-----6--|-----5-----5-----7----------|
--2-----------4-----------|--3-----------5-------------|
--------------------------|----------------------------|

  E  E  E  E  E  E  E  E     E  E  E  E  E  E  S  S E   
--------------------------|----------------------------|
--------------------------|----------------------------|
--------2-----------4-----|--------3-------------------|
-----4-----4-----6-----6--|-----5-----5-----7----------|
--2-----------4-----------|--3-----------5-----5h-7-5--|
--------------------------|----------------------------|

  E  E  E  E  E  E  E  E     E  E  E  E  E  E  S  S E   
--------------------------|----------------------------|
--------------------------|----------------------------|
--------2-----------4-----|--------3-----------5h-7-5--|
-----4-----4-----6-----6--|-----5-----5-----7----------|
--2-----------4-----------|--3-----------5-------------|
--------------------------|----------------------------|

  E  E  E  E  E  E  E  E     E  E  E  E  E  E  S  S E   
--------------------------|----------------------------|
--------------------------|----------------------------|
--------2-----------4-----|--------3-------------------|
-----4-----4-----6-----6--|-----5-----5-----7----------|
--2-----------4-----------|--3-----------5-----5h-7-5--|
--------------------------|----------------------------|

  ^  v  ^  v                 ^  v  ^  v               
  E  E  E  E  E  E  E  E     E  E  E  E  E  E  E  E   
--------------------------|--------------------------|
--------------------------|--------------------------|
--------------------------|--------------------------|
--0--0--0--0--------------|--0--0--0--0--------------|
--0--0--0--0--2--2--1--1--|--0--0--0--0--2--2--1--1--|
--0--0--0--0--------------|--0--0--0--0--------------|

  ^  v  ^  v                 ^  v  ^  v               
  E  E  E  E  E  E  E  E     E  E  E  E  E  E  E  E   
--------------------------|--------------------------|
--------------------------|--------------------------|
--------------------------|--------------------------|
--2--2--2--2--------------|--5--5--5--5--------------|
--2--2--2--2--4--4--3--3--|--5--5--5--5--7--7--6--6--|
--2--2--2--2--------------|--5--5--5--5--------------|

  ^  v  ^  v                 ^  v  ^  v  ^  v  ^  v   
  E  E  E  E  E  E  E  E     E  E  E  E  E  E  E  E   
--------------------------|--------------------------|
--------------------------|--------------------------|
--------------------------|--------------------------|
--2--2--2--2--------------|--5--5--5--5--7--7--6--6--|
--2--2--2--2--4--4--3--3--|--5--5--5--5--7--7--6--6--|
--2--2--2--2--------------|--5--5--5--5--7--7--6--6--|

  ^  v  ^  v                 ^  v  ^  v               
  E  E  E  E  E  E  E  E     E  E  E  E  E  E  E  E   
--------------------------|--------------------------|
--------------------------|--------------------------|
--------------------------|--------------------------|
--0--0--0--0--------------|--0--0--0--0--------------|
--0--0--0--0--2--2--1--1--|--0--0--0--0--2--2--1--1--|
--0--0--0--0--------------|--0--0--0--0--------------|

  ^  v  ^  v                 ^  v  ^  v               
  E  E  E  E  E  E  E  E     E  E  E  E  E  E  E  E   
--------------------------|--------------------------|
--------------------------|--------------------------|
--------------------------|--------------------------|
--2--2--2--2--------------|--5--5--5--5--------------|
--2--2--2--2--4--4--3--3--|--5--5--5--5--7--7--6--6--|
--2--2--2--2--------------|--5--5--5--5--------------|

  ^  v  ^  v                 ^  v  ^  v  ^  v  ^  v   
  E  E  E  E  E  E  E  E     E  E  E  E  E  E  E  E   
--------------------------|--------------------------|
--------------------------|--------------------------|
--------------------------|--------------------------|
--2--2--2--2--------------|--5--5--5--5--7--7--6--6--|
--2--2--2--2--4--4--3--3--|--5--5--5--5--7--7--6--6--|
--2--2--2--2--------------|--5--5--5--5--7--7--6--6--|

  ^  v  ^  v                 ^  v  ^  v               
  E  E  E  E  E  E  E  E     E  E  E  E  E  E  E  E   
--------------------------|--------------------------|
--------------------------|--------------------------|
--------------------------|--------------------------|
--0--0--0--0--------------|--0--0--0--0--------------|
--0--0--0--0--2--2--1--1--|--0--0--0--0--2--2--1--1--|
--0--0--0--0--------------|--0--0--0--0--------------|

  ^  v  ^  v                 ^  v  ^  v               
  E  E  E  E  E  E  E  E     E  E  E  E  E  E  E  E   
--------------------------|--------------------------|
--------------------------|--------------------------|
--------------------------|--------------------------|
--2--2--2--2--------------|--5--5--5--5--------------|
--2--2--2--2--4--4--3--3--|--5--5--5--5--7--7--6--6--|
--2--2--2--2--------------|--5--5--5--5--------------|

  ^  v  ^  v                 ^  v  ^  v  ^  v  ^  v   
  E  E  E  E  E  E  E  E     E  E  E  E  E  E  E  E   
--------------------------|--------------------------|
--------------------------|--------------------------|
--------------------------|--------------------------|
--2--2--2--2--------------|--5--5--5--5--7--7--6--6--|
--2--2--2--2--4--4--3--3--|--5--5--5--5--7--7--6--6--|
--2--2--2--2--------------|--5--5--5--5--7--7--6--6--|

  ^  v  ^  v                 ^  v  ^  v               
  E  E  E  E  E  E  E  E     E  E  E  E  E  E  E  E   
--------------------------|--------------------------|
--------------------------|--------------------------|
--------------------------|--------------------------|
--0--0--0--0--------------|--0--0--0--0--------------|
--0--0--0--0--2--2--1--1--|--0--0--0--0--2--2--1--1--|
--0--0--0--0--------------|--0--0--0--0--------------|

  ^  v  ^  v                 ^  v  ^  v               
  E  E  E  E  E  E  E  E     E  E  E  E  E  E  E  E   
--------------------------|--------------------------|
--------------------------|--------------------------|
--------------------------|--------------------------|
--2--2--2--2--------------|--5--5--5--5--------------|
--2--2--2--2--4--4--3--3--|--5--5--5--5--7--7--6--6--|
--2--2--2--2--------------|--5--5--5--5--------------|

  ^  v  ^  v                 ^  v  ^  v  ^  v  ^  v   
  E  E  E  E  E  E  E  E     E  E  E  E  E  E  E  E   
--------------------------|--------------------------|
--------------------------|--------------------------|
--------------------------|--------------------------|
--2--2--2--2--------------|--5--5--5--5--7--7--6--6--|
--2--2--2--2--4--4--3--3--|--5--5--5--5--7--7--6--6--|
--2--2--2--2--------------|--5--5--5--5--7--7--6--6--|

  E  E  E  E  E  E  E  E     E  E  E  E  E  E  E  E   
--2--2--2--2--2--2--2--2--|--0--0--0--0--0--0--0--0--|
--3--3--3--3--3--3--3--3--|--0--0--0--0--0--0--0--0--|
--4--4--4--4--4--4--4--4--|--1--1--1--1--1--1--1--1--|
--4--4--4--4--4--4--4--4--|--2--2--2--2--2--2--2--2--|
--2--2--2--2--2--2--2--2--|--2--2--2--2--2--2--2--2--|
--------------------------|--0--0--0--0--0--0--0--0--|

  E  E  E  E  E  E  E  E     E  E  E  E  E  E  E  E   
--0--0--0--0--0--0--0--0--|--1--1--1--1--1--1--1--1--|
--1--1--1--1--1--1--1--1--|--1--1--1--1--1--1--1--1--|
--2--2--2--2--2--2--2--2--|--2--2--2--2--2--2--2--2--|
--2--2--2--2--2--2--2--2--|--3--3--3--3--3--3--3--3--|
--0--0--0--0--0--0--0--0--|--3--3--3--3--3--3--3--3--|
--------------------------|--1--1--1--1--1--1--1--1--|

  E  E  E  E  E  E  E  E     E  E  E  E  E  E  E  E   
--2--2--2--2--2--2--2--2--|--0--0--0--0--0--0--0--0--|
--3--3--3--3--3--3--3--3--|--0--0--0--0--0--0--0--0--|
--4--4--4--4--4--4--4--4--|--1--1--1--1--1--1--1--1--|
--4--4--4--4--4--4--4--4--|--2--2--2--2--2--2--2--2--|
--2--2--2--2--2--2--2--2--|--2--2--2--2--2--2--2--2--|
--------------------------|--0--0--0--0--0--0--0--0--|

  E  E  E  E  E  E  E  E     E  E  E  E  E  E  E  E   
--0--0--0--0--0--0--0--0--|--1--1--1--1--1--1--1--1--|
--1--1--1--1--1--1--1--1--|--1--1--1--1--1--1--1--1--|
--2--2--2--2--2--2--2--2--|--2--2--2--2--2--2--2--2--|
--2--2--2--2--2--2--2--2--|--3--3--3--3--3--3--3--3--|
--0--0--0--0--0--0--0--0--|--3--3--3--3--3--3--3--3--|
--------------------------|--1--1--1--1--1--1--1--1--|

  E  E  E  E  E  E  E  E     E  E  E  E  E  E  E  E   
--2--2--2--2--2--2--2--2--|--0--0--0--0--0--0--0--0--|
--3--3--3--3--3--3--3--3--|--0--0--0--0--0--0--0--0--|
--4--4--4--4--4--4--4--4--|--1--1--1--1--1--1--1--1--|
--4--4--4--4--4--4--4--4--|--2--2--2--2--2--2--2--2--|
--2--2--2--2--2--2--2--2--|--2--2--2--2--2--2--2--2--|
--------------------------|--0--0--0--0--0--0--0--0--|

  E  E  E  E  E  E  E  E     E  E  E  E  E  E  E  E   
--0--0--0--0--0--0--0--0--|--1--1--1--1--1--1--1--1--|
--1--1--1--1--1--1--1--1--|--1--1--1--1--1--1--1--1--|
--2--2--2--2--2--2--2--2--|--2--2--2--2--2--2--2--2--|
--2--2--2--2--2--2--2--2--|--3--3--3--3--3--3--3--3--|
--0--0--0--0--0--0--0--0--|--3--3--3--3--3--3--3--3--|
--------------------------|--1--1--1--1--1--1--1--1--|

  E  E  E  E  E  E  E  E     E  E  E  E  E  E  E  E   
--2--2--2--2--2--2--2--2--|--0--0--0--0--0--0--0--0--|
--3--3--3--3--3--3--3--3--|--0--0--0--0--0--0--0--0--|
--4--4--4--4--4--4--4--4--|--1--1--1--1--1--1--1--1--|
--4--4--4--4--4--4--4--4--|--2--2--2--2--2--2--2--2--|
--2--2--2--2--2--2--2--2--|--2--2--2--2--2--2--2--2--|
--------------------------|--0--0--0--0--0--0--0--0--|

  E  E  E  E  E  E  E  E     E  E  E  E  E  E  E  E                           
--0--0--0--0--0--0--0--0--|--1--1--1--1--1--1--1--1--|-----|-----|-----|-----|
--1--1--1--1--1--1--1--1--|--1--1--1--1--1--1--1--1--|-----|-----|-----|-----|
--2--2--2--2--2--2--2--2--|--2--2--2--2--2--2--2--2--|-----|-----|-----|-----|
--2--2--2--2--2--2--2--2--|--3--3--3--3--3--3--3--3--|-----|-----|-----|-----|
--0--0--0--0--0--0--0--0--|--3--3--3--3--3--3--3--3--|-----|-----|-----|-----|
--------------------------|--1--1--1--1--1--1--1--1--|-----|-----|-----|-----|

-----|-----|-----|-----|-----|-----|-----|-----|-----|-----|-----|-----|-----|
-----|-----|-----|-----|-----|-----|-----|-----|-----|-----|-----|-----|-----|
-----|-----|-----|-----|-----|-----|-----|-----|-----|-----|-----|-----|-----|
-----|-----|-----|-----|-----|-----|-----|-----|-----|-----|-----|-----|-----|
-----|-----|-----|-----|-----|-----|-----|-----|-----|-----|-----|-----|-----|
-----|-----|-----|-----|-----|-----|-----|-----|-----|-----|-----|-----|-----|

-----|-----|-----|-----|-----|-----|-----|-----|-----|-----|-----|-----|-----|
-----|-----|-----|-----|-----|-----|-----|-----|-----|-----|-----|-----|-----|
-----|-----|-----|-----|-----|-----|-----|-----|-----|-----|-----|-----|-----|
-----|-----|-----|-----|-----|-----|-----|-----|-----|-----|-----|-----|-----|
-----|-----|-----|-----|-----|-----|-----|-----|-----|-----|-----|-----|-----|
-----|-----|-----|-----|-----|-----|-----|-----|-----|-----|-----|-----|-----|

-----|-----|-----|-----|-----|-----|-----|-----|-----|-----|-----||
-----|-----|-----|-----|-----|-----|-----|-----|-----|-----|-----||
-----|-----|-----|-----|-----|-----|-----|-----|-----|-----|-----||
-----|-----|-----|-----|-----|-----|-----|-----|-----|-----|-----||
-----|-----|-----|-----|-----|-----|-----|-----|-----|-----|-----||
-----|-----|-----|-----|-----|-----|-----|-----|-----|-----|-----||

Distortion Guitar

D||-------|-------|-------|-------|-------|-------|-------|-------|-------|
A||-------|-------|-------|-------|-------|-------|-------|-------|-------|
F||-------|-------|-------|-------|-------|-------|-------|-------|-------|
C||-------|-------|-------|-------|-------|-------|-------|-------|-------|
G||-------|-------|-------|-------|-------|-------|-------|-------|-------|
C||-------|-------|-------|-------|-------|-------|-------|-------|-------|\

-------|-------|-------|-------|-------|-------|-------|-------|-------|-------|
-------|-------|-------|-------|-------|-------|-------|-------|-------|-------|
-------|-------|-------|-------|-------|-------|-------|-------|-------|-------|
-------|-------|-------|-------|-------|-------|-------|-------|-------|-------|
-------|-------|-------|-------|-------|-------|-------|-------|-------|-------|
-------|-------|-------|-------|-------|-------|-------|-------|-------|-------|

-------|-------|-------|-------|-------|-------|-------|-------|-------|-------|
-------|-------|-------|-------|-------|-------|-------|-------|-------|-------|
-------|-------|-------|-------|-------|-------|-------|-------|-------|-------|
-------|-------|-------|-------|-------|-------|-------|-------|-------|-------|
-------|-------|-------|-------|-------|-------|-------|-------|-------|-------|
-------|-------|-------|-------|-------|-------|-------|-------|-------|-------|

-------|-------|-------|-------|-------|-------|-------|-------|-------|-------|
-------|-------|-------|-------|-------|-------|-------|-------|-------|-------|
-------|-------|-------|-------|-------|-------|-------|-------|-------|-------|
-------|-------|-------|-------|-------|-------|-------|-------|-------|-------|
-------|-------|-------|-------|-------|-------|-------|-------|-------|-------|
-------|-------|-------|-------|-------|-------|-------|-------|-------|-------|

-------|-------|-------|-------|-------|-------|-------|-------|-------|-------|
-------|-------|-------|-------|-------|-------|-------|-------|-------|-------|
-------|-------|-------|-------|-------|-------|-------|-------|-------|-------|
-------|-------|-------|-------|-------|-------|-------|-------|-------|-------|
-------|-------|-------|-------|-------|-------|-------|-------|-------|-------|
-------|-------|-------|-------|-------|-------|-------|-------|-------|-------|

-------|-------|-------|-------|-------|-------|-------|-------|-------|-------|
-------|-------|-------|-------|-------|-------|-------|-------|-------|-------|
-------|-------|-------|-------|-------|-------|-------|-------|-------|-------|
-------|-------|-------|-------|-------|-------|-------|-------|-------|-------|
-------|-------|-------|-------|-------|-------|-------|-------|-------|-------|
-------|-------|-------|-------|-------|-------|-------|-------|-------|-------|

-------|-------|-------|-------|-------|-------|-------|-------|-------|-------|
-------|-------|-------|-------|-------|-------|-------|-------|-------|-------|
-------|-------|-------|-------|-------|-------|-------|-------|-------|-------|
-------|-------|-------|-------|-------|-------|-------|-------|-------|-------|
-------|-------|-------|-------|-------|-------|-------|-------|-------|-------|
-------|-------|-------|-------|-------|-------|-------|-------|-------|-------|

                          T  T  H           W                 
-------|-------|-------|-----------------|-------------------|
-------|-------|-------|--2h-4s-7--------|--5----------------|
-------|-------|-------|-----------------|-------------------|
-------|-------|-------|-----------------|-------------------|
-------|-------|-------|-----------------|-------------------|
-------|-------|-------|-----------------|-------------------|

  W                   H        S  T    W                   W                 
--6----------------|--5--------5h-7-|-------------------|-------------------|
-------------------|----------------|-------------------|-------------------|
-------------------|----------------|--9----------------|--7----------------|
-------------------|----------------|-------------------|-------------------|
-------------------|----------------|-------------------|-------------------|
-------------------|----------------|-------------------|-------------------|

  W                   H        S  S    W                   W                 
-------------------|----------------|-------------------|-------------------|
--8----------------|--7--------7h-9-|--5----------------|--3----------------|
-------------------|----------------|-------------------|-------------------|
-------------------|----------------|-------------------|-------------------|
-------------------|----------------|-------------------|-------------------|
-------------------|----------------|-------------------|-------------------|

  W                   H        S  S    W                   W                 
--6----------------|--5--------5h-7-|-------------------|-------------------|
-------------------|----------------|-------------------|-------------------|
-------------------|----------------|--9----------------|--7----------------|
-------------------|----------------|-------------------|-------------------|
-------------------|----------------|-------------------|-------------------|
-------------------|----------------|-------------------|-------------------|

  W                   T  T   Q     T  T   Q        E  E  E  E  E  E  E  E   
-------------------|---------------8h-9h-10b----|--2--2--2--2--2--2--2--2--|
--8----------------|--7h-9s-11b-----------------|--3--3--3--3--3--3--3--3--|
-------------------|----------------------------|--4--4--4--4--4--4--4--4--|
-------------------|----------------------------|--4--4--4--4--4--4--4--4--|
-------------------|----------------------------|--2--2--2--2--2--2--2--2--|
-------------------|----------------------------|--------------------------|

  E  E  E  E  E  E  E  E     E  E  E  E  E  E  E  E   
--0--0--0--0--0--0--0--0--|--0--0--0--0--0--0--0--0--|
--0--0--0--0--0--0--0--0--|--1--1--1--1--1--1--1--1--|
--1--1--1--1--1--1--1--1--|--2--2--2--2--2--2--2--2--|
--2--2--2--2--2--2--2--2--|--2--2--2--2--2--2--2--2--|
--2--2--2--2--2--2--2--2--|--0--0--0--0--0--0--0--0--|
--0--0--0--0--0--0--0--0--|--------------------------|

  E  E  E  E  E  E  E  E     E  E  E  E  E  E  E  E   
--1--1--1--1--1--1--1--1--|--2--2--2--2--2--2--2--2--|
--1--1--1--1--1--1--1--1--|--3--3--3--3--3--3--3--3--|
--2--2--2--2--2--2--2--2--|--4--4--4--4--4--4--4--4--|
--3--3--3--3--3--3--3--3--|--4--4--4--4--4--4--4--4--|
--3--3--3--3--3--3--3--3--|--2--2--2--2--2--2--2--2--|
--1--1--1--1--1--1--1--1--|--------------------------|

  E  E  E  E  E  E  E  E     E  E  E  E  E  E  E  E   
--0--0--0--0--0--0--0--0--|--0--0--0--0--0--0--0--0--|
--0--0--0--0--0--0--0--0--|--1--1--1--1--1--1--1--1--|
--1--1--1--1--1--1--1--1--|--2--2--2--2--2--2--2--2--|
--2--2--2--2--2--2--2--2--|--2--2--2--2--2--2--2--2--|
--2--2--2--2--2--2--2--2--|--0--0--0--0--0--0--0--0--|
--0--0--0--0--0--0--0--0--|--------------------------|

  E  E  E  E  E  E  E  E     E  E  E  E  E  E  E  E   
--1--1--1--1--1--1--1--1--|--2--2--2--2--2--2--2--2--|
--1--1--1--1--1--1--1--1--|--3--3--3--3--3--3--3--3--|
--2--2--2--2--2--2--2--2--|--4--4--4--4--4--4--4--4--|
--3--3--3--3--3--3--3--3--|--4--4--4--4--4--4--4--4--|
--3--3--3--3--3--3--3--3--|--2--2--2--2--2--2--2--2--|
--1--1--1--1--1--1--1--1--|--------------------------|

  E  E  E  E  E  E  E  E     E  E  E  E  E  E  E  E   
--0--0--0--0--0--0--0--0--|--0--0--0--0--0--0--0--0--|
--0--0--0--0--0--0--0--0--|--1--1--1--1--1--1--1--1--|
--1--1--1--1--1--1--1--1--|--2--2--2--2--2--2--2--2--|
--2--2--2--2--2--2--2--2--|--2--2--2--2--2--2--2--2--|
--2--2--2--2--2--2--2--2--|--0--0--0--0--0--0--0--0--|
--0--0--0--0--0--0--0--0--|--------------------------|

  E  E  E  E  E  E  E  E     E  E  E  E  E  E  E  E   
--1--1--1--1--1--1--1--1--|--2--2--2--2--2--2--2--2--|
--1--1--1--1--1--1--1--1--|--3--3--3--3--3--3--3--3--|
--2--2--2--2--2--2--2--2--|--4--4--4--4--4--4--4--4--|
--3--3--3--3--3--3--3--3--|--4--4--4--4--4--4--4--4--|
--3--3--3--3--3--3--3--3--|--2--2--2--2--2--2--2--2--|
--1--1--1--1--1--1--1--1--|--------------------------|

  E  E  E  E  E  E  E  E     E  E  E  E  E  E  E  E   
--0--0--0--0--0--0--0--0--|--0--0--0--0--0--0--0--0--|
--0--0--0--0--0--0--0--0--|--1--1--1--1--1--1--1--1--|
--1--1--1--1--1--1--1--1--|--2--2--2--2--2--2--2--2--|
--2--2--2--2--2--2--2--2--|--2--2--2--2--2--2--2--2--|
--2--2--2--2--2--2--2--2--|--0--0--0--0--0--0--0--0--|
--0--0--0--0--0--0--0--0--|--------------------------|

  E  E  E  E  E  E  E  E     E  E  E  E  E  E  E  E   
--1--1--1--1--1--1--1--1--|--------------------------|
--1--1--1--1--1--1--1--1--|--------------------------|
--2--2--2--2--2--2--2--2--|--------------------------|
--3--3--3--3--3--3--3--3--|--------------------------|
--3--3--3--3--3--3--3--3--|--0--0--0--0--2--2--1--1--|
--1--1--1--1--1--1--1--1--|--0--0--0--0--2--2--1--1--|

  E  E  E  E  E  E  E  E     E  E  E  E  E  E  E  E   
--------------------------|--------------------------|
--------------------------|--------------------------|
--------------------------|--------------------------|
--------------------------|--------------------------|
--0--0--0--0--2--2--1--1--|--2--2--2--2--4--4--3--3--|
--0--0--0--0--2--2--1--1--|--2--2--2--2--4--4--3--3--|

  E  E  E  E  E  E  E  E     E  E  E  E  E  E  E  E   
--------------------------|--------------------------|
--------------------------|--------------------------|
--------------------------|--------------------------|
--------------------------|--------------------------|
--5--5--5--5--7--7--6--6--|--2--2--2--2--4--4--3--3--|
--5--5--5--5--7--7--6--6--|--2--2--2--2--4--4--3--3--|

  E  E  E  E  E  E  E  E     E  E  E  E  E  E  E  E   
--------------------------|--------------------------|
--------------------------|--------------------------|
--------------------------|--------------------------|
--------------7--7--6--6--|--------------------------|
--5--5--5--5--7--7--6--6--|--0--0--0--0--2--2--1--1--|
--5--5--5--5--7--7--6--6--|--0--0--0--0--2--2--1--1--|

  E  E  E  E  E  E  E  E     E  E  E  E  E  E  E  E   
--------------------------|--------------------------|
--------------------------|--------------------------|
--------------------------|--------------------------|
--------------------------|--------------------------|
--0--0--0--0--2--2--1--1--|--2--2--2--2--4--4--3--3--|
--0--0--0--0--2--2--1--1--|--2--2--2--2--4--4--3--3--|

  E  E  E  E  E  E  E  E     E  E  E  E  E  E  E  E   
--------------------------|--------------------------|
--------------------------|--------------------------|
--------------------------|--------------------------|
--------------------------|--------------------------|
--5--5--5--5--7--7--6--6--|--2--2--2--2--4--4--3--3--|
--5--5--5--5--7--7--6--6--|--2--2--2--2--4--4--3--3--|

  E  E  E  E  E  E  E  E     E  E  E  E  E  E  E  E   
--------------------------|--------------------------|
--------------------------|--------------------------|
--------------------------|--------------------------|
--------------7--7--6--6--|--------------------------|
--5--5--5--5--7--7--6--6--|--0--0--0--0--2--2--1--1--|
--5--5--5--5--7--7--6--6--|--0--0--0--0--2--2--1--1--|

  E  E  E  E  E  E  E  E     E  E  E  E  E  E  E  E   
--------------------------|--------------------------|
--------------------------|--------------------------|
--------------------------|--------------------------|
--------------------------|--------------------------|
--0--0--0--0--2--2--1--1--|--2--2--2--2--4--4--3--3--|
--0--0--0--0--2--2--1--1--|--2--2--2--2--4--4--3--3--|

  E  E  E  E  E  E  E  E     E  E  E  E  E  E  E  E   
--------------------------|--------------------------|
--------------------------|--------------------------|
--------------------------|--------------------------|
--------------------------|--------------------------|
--5--5--5--5--7--7--6--6--|--2--2--2--2--4--4--3--3--|
--5--5--5--5--7--7--6--6--|--2--2--2--2--4--4--3--3--|

  E  E  E  E  E  E  E  E     E  E  E  E  E  E  E  E   
--------------------------|--------------------------|
--------------------------|--------------------------|
--------------------------|--------------------------|
--------------7--7--6--6--|--------------------------|
--5--5--5--5--7--7--6--6--|--0--0--0--0--2--2--1--1--|
--5--5--5--5--7--7--6--6--|--0--0--0--0--2--2--1--1--|

  E  E  E  E  E  E  E  E     E  E  E  E  E  E  E  E   
--------------------------|--------------------------|
--------------------------|--------------------------|
--------------------------|--------------------------|
--------------------------|--------------------------|
--0--0--0--0--2--2--1--1--|--2--2--2--2--4--4--3--3--|
--0--0--0--0--2--2--1--1--|--2--2--2--2--4--4--3--3--|

  E  E  E  E  E  E  E  E     E  E  E  E  E  E  E  E   
--------------------------|--------------------------|
--------------------------|--------------------------|
--------------------------|--------------------------|
--------------------------|--------------------------|
--5--5--5--5--7--7--6--6--|--2--2--2--2--4--4--3--3--|
--5--5--5--5--7--7--6--6--|--2--2--2--2--4--4--3--3--|

  E  E  E  E  E  E  E  E     W                  
--------------------------|-------------------||
--------------------------|-------------------||
--------------------------|-------------------||
--------------7--7--6--6--|--2----------------||
--5--5--5--5--7--7--6--6--|--2----------------||
--5--5--5--5--7--7--6--6--|--2----------------||

==========Between Demons & Devils==========

Lead Guitar

     ^  v  ^  v  ^  v  ^  v     ^  v  ^  v  ^  v  ^  v   
     E  E  E  E  E  E  E  E     E  E  E  E  E  E  E  E   
D||--------------------------|--------------------------|
A||--------------------------|--9--9--9--9--7--7--7--7--|
F||--------------5--5--5--5--|--x--x--x--x--x--x--x--x--|
C||--1--1--1--1--5--5--5--5--|--5--5--5--5--5--5--5--5--|
G||--1--1--1--1--3--3--3--3--|--------------------------|
C||--1--1--1--1--------------|--------------------------|

  ^  v  ^  v  ^  v  ^  v     ^  v  ^  v  ^  v  ^  v   
  E  E  E  E  E  E  E  E     E  E  E  E  E  E  E  E   
--------------------------|--------------------------|
--------------------------|--9--9--9--9--7--7--7--7--|
--------------5--5--5--5--|--x--x--x--x--x--x--x--x--|
--1--1--1--1--5--5--5--5--|--5--5--5--5--5--5--5--5--|
--1--1--1--1--3--3--3--3--|--------------------------|
--1--1--1--1--------------|--------------------------|

  ^  v  ^  v  ^  v  ^  v     ^  v  ^  v  ^  v  ^  v   
  E  E  E  E  E  E  E  E     E  E  E  E  E  E  E  E   
--------------------------|--------------------------|
--------------------------|--9--9--9--9--7--7--7--7--|
--------------5--5--5--5--|--x--x--x--x--x--x--x--x--|
--1--1--1--1--5--5--5--5--|--5--5--5--5--5--5--5--5--|
--1--1--1--1--3--3--3--3--|--------------------------|
--1--1--1--1--------------|--------------------------|

  ^  v  ^  v  ^  v  ^  v     ^  v  ^  v  ^  v  ^  v                           
  E  E  E  E  E  E  E  E     E  E  E  E  E  E  E  E     H        E  E  E  E   
--------------------------|--------------------------|-----------------------|
--------------------------|--9--9--9--9--7--7--7--7--|--9-----------------7--|
--------------5--5--5--5--|--x--x--x--x--x--x--x--x--|--x-----------------x--|
--1--1--1--1--5--5--5--5--|--5--5--5--5--5--5--5--5--|--5-----------------5--|
--1--1--1--1--3--3--3--3--|--------------------------|-----------------------|
--1--1--1--1--------------|--------------------------|-----------------------|

  H        E  E  E  E     H        E  E  E  E     H        E  E  E  E   
-----------------------|-----------------------|-----------------------|
--9-----------------7--|--9-----------------7--|--9-----------------7--|
--x-----------------x--|--x-----------------x--|--x-----------------x--|
--5-----------------5--|--5-----------------5--|--5-----------------5--|
-----------------------|-----------------------|-----------------------|
-----------------------|-----------------------|-----------------------|

  H        E  E  E  E     H        E  E  E  E     H        E  E  E  E   
-----------------------|-----------------------|-----------------------|
--9-----------------7--|--9-----------------7--|--9-----------------7--|
--x-----------------x--|--x-----------------x--|--x-----------------x--|
--5-----------------5--|--5-----------------5--|--5-----------------5--|
-----------------------|-----------------------|-----------------------|
-----------------------|-----------------------|-----------------------|

  H        E  E  E  E     E  E  E  E  W                      
-----------------------|-------------------------------|----|
--9-----------------7--|-------------------------------|----|
--x-----------------x--|-------------------------------|----|
--5-----------------5--|--x--x-----x--0----------------|----|
-----------------------|--x--x-----x--0----------------|----|
-----------------------|--x--x-----x--0----------------|----|

  E  E  E  E  W                        E  E  E  E  W                      
-------------------------------|----|-------------------------------|----|
-------------------------------|----|-------------------------------|----|
-------------------------------|----|-------------------------------|----|
--x--x-----x--0----------------|----|--x--x-----x--0----------------|----|
--x--x-----x--0----------------|----|--x--x-----x--0----------------|----|
--x--x-----x--0----------------|----|--x--x-----x--0----------------|----|

  E  E  E  E  W                        E  E  E  E  E  E  E  E   
-------------------------------|----|--------------------------|
-------------------------------|----|--------------------------|
-------------------------------|----|--------------5--5--5--5--|
--x--x-----x--0----------------|----|--5--5--5--5--x--x--x--x--|
--x--x-----x--0----------------|----|--2--2--2--2--2--2--2--2--|
--x--x-----x--0----------------|----|--2--2--2--2--------------|

  E  E  E  E  E  E  E  E     E  E  E  E  E  E     E  E  E  E  E  E  Q     
--------------------------|--------------------|-------------------------|
--------------------------|--------------------|-------------------------|
--5--5--5--5--7--7--7--7--|--------------------|-------------------------|
--2--2--2--2--5--5--5--5--|--------------------|-------------------------|
--3--3--3--3--5--5--5--5--|--0--0-----0--0-----|--0--0-----0--0-----1----|
--------------5--5--5--5--|--0--0-----0--0-----|--0--0-----0--0-----1----|

  E  E  E  E  E  E  E  E     E  E  E  E  E  E  E  E     E  E  E  E  E  E  E   
--------------------------|--------------------------|-----------------------|
--------------------------|--------------------------|-----------------------|
--------------5--5--5--5--|--5--5--5--5--7--7--7--7--|-----------------------|
--5--5--5--5--x--x--x--x--|--2--2--2--2--5--5--5--5--|-----------------------|
--2--2--2--2--2--2--2--2--|--3--3--3--3--5--5--5--5--|--0--0-----0--0--------|
--2--2--2--2--------------|--------------5--5--5--5--|--0--0-----0--0--------|

  PM PM PM PM PM PM          ^  v  ^  v  ^  v  ^  v   
  E  E  E  E  E  E  E  E     E  E  E  E  E  E  E  E   
--------------------------|--------------------------|
--------------------------|--------------------------|
--------------------------|--------------5--5--5--5--|
--------------------------|--1--1--1--1--5--5--5--5--|
--2--2--2--2--3--3--5--5--|--1--1--1--1--3--3--3--3--|
--2--2--2--2--3--3--5--5--|--1--1--1--1--------------|

  ^  v  ^  v  ^  v  ^  v     ^  v  ^  v  ^  v  ^  v   
  E  E  E  E  E  E  E  E     E  E  E  E  E  E  E  E   
--------------------------|--------------------------|
--9--9--9--9--7--7--7--7--|--------------------------|
--x--x--x--x--x--x--x--x--|--------------5--5--5--5--|
--5--5--5--5--5--5--5--5--|--1--1--1--1--5--5--5--5--|
--------------------------|--1--1--1--1--3--3--3--3--|
--------------------------|--1--1--1--1--------------|

  ^  v  ^  v  ^  v  ^  v     ^  v  ^  v  ^  v  ^  v   
  E  E  E  E  E  E  E  E     E  E  E  E  E  E  E  E   
--------------------------|--------------------------|
--9--9--9--9--7--7--7--7--|--------------------------|
--x--x--x--x--x--x--x--x--|--------------5--5--5--5--|
--5--5--5--5--5--5--5--5--|--1--1--1--1--5--5--5--5--|
--------------------------|--1--1--1--1--3--3--3--3--|
--------------------------|--1--1--1--1--------------|

  ^  v  ^  v  ^  v  ^  v     ^  v  ^  v  ^  v  ^  v   
  E  E  E  E  E  E  E  E     E  E  E  E  E  E  E  E   
--------------------------|--------------------------|
--9--9--9--9--7--7--7--7--|--------------------------|
--x--x--x--x--x--x--x--x--|--------------5--5--5--5--|
--5--5--5--5--5--5--5--5--|--1--1--1--1--5--5--5--5--|
--------------------------|--1--1--1--1--3--3--3--3--|
--------------------------|--1--1--1--1--------------|

  ^  v  ^  v  ^  v  ^  v                                                   
  E  E  E  E  E  E  E  E     H        E  E  E  E     H        E  E  E  E   
--------------------------|-----------------------|-----------------------|
--9--9--9--9--7--7--7--7--|--9-----------------7--|--9-----------------7--|
--x--x--x--x--x--x--x--x--|--x-----------------x--|--x-----------------x--|
--5--5--5--5--5--5--5--5--|--5-----------------5--|--5-----------------5--|
--------------------------|-----------------------|-----------------------|
--------------------------|-----------------------|-----------------------|

  H        E  E  E  E     H        E  E  E  E     H        E  E  E  E   
-----------------------|-----------------------|-----------------------|
--9-----------------7--|--9-----------------7--|--9-----------------7--|
--x-----------------x--|--x-----------------x--|--x-----------------x--|
--5-----------------5--|--5-----------------5--|--5-----------------5--|
-----------------------|-----------------------|-----------------------|
-----------------------|-----------------------|-----------------------|

  H        E  E  E  E     H        E  E  E  E     H        E  E  E  E   
-----------------------|-----------------------|-----------------------|
--9-----------------7--|--9-----------------7--|--9-----------------7--|
--x-----------------x--|--x-----------------x--|--x-----------------x--|
--5-----------------5--|--5-----------------5--|--5-----------------5--|
-----------------------|-----------------------|-----------------------|
-----------------------|-----------------------|-----------------------|

  E  E  E  E  W                        E  E  E  E  W                      
-------------------------------|----|-------------------------------|----|
-------------------------------|----|-------------------------------|----|
-------------------------------|----|-------------------------------|----|
--x--x-----x--0----------------|----|--x--x-----x--0----------------|----|
--x--x-----x--0----------------|----|--x--x-----x--0----------------|----|
--x--x-----x--0----------------|----|--x--x-----x--0----------------|----|

  E  E  E  E  W                        E  E  E  E  W                      
-------------------------------|----|-------------------------------|----|
-------------------------------|----|-------------------------------|----|
-------------------------------|----|-------------------------------|----|
--x--x-----x--0----------------|----|--x--x-----x--0----------------|----|
--x--x-----x--0----------------|----|--x--x-----x--0----------------|----|
--x--x-----x--0----------------|----|--x--x-----x--0----------------|----|

  E  E  E  E  E  E  E  E     E  E  E  E  E  E  E  E     E  E  E  E  E  E   
--------------------------|--------------------------|--------------------|
--------------------------|--------------------------|--------------------|
--------------5--5--5--5--|--5--5--5--5--7--7--7--7--|--------------------|
--5--5--5--5--x--x--x--x--|--2--2--2--2--5--5--5--5--|--------------------|
--2--2--2--2--2--2--2--2--|--3--3--3--3--5--5--5--5--|--0--0-----0--0-----|
--2--2--2--2--------------|--------------5--5--5--5--|--0--0-----0--0-----|

  E  E  E  E  E  E  Q       E  E  E  E  E  E  E  E     E  E  E  E  E  E  E  E   
-------------------------|--------------------------|--------------------------|
-------------------------|--------------------------|--------------------------|
-------------------------|--------------5--5--5--5--|--5--5--5--5--7--7--7--7--|
-------------------------|--5--5--5--5--x--x--x--x--|--2--2--2--2--5--5--5--5--|
--0--0-----0--0-----1----|--2--2--2--2--2--2--2--2--|--3--3--3--3--5--5--5--5--|
--0--0-----0--0-----1----|--2--2--2--2--------------|--------------5--5--5--5--|

                          PM PM PM PM PM PM          ^  v  ^  v  ^  v  ^  v   
  E  E  E  E  E  E  E     E  E  E  E  E  E  E  E     E  E  E  E  E  E  E  E   
-----------------------|--------------------------|--------------------------|
-----------------------|--------------------------|--------------------------|
-----------------------|--------------------------|--------------5--5--5--5--|
-----------------------|--------------------------|--1--1--1--1--5--5--5--5--|
--0--0-----0--0--------|--2--2--2--2--3--3--5--5--|--1--1--1--1--3--3--3--3--|
--0--0-----0--0--------|--2--2--2--2--3--3--5--5--|--1--1--1--1--------------|

  ^  v  ^  v  ^  v  ^  v     ^  v  ^  v  ^  v  ^  v   
  E  E  E  E  E  E  E  E     E  E  E  E  E  E  E  E   
--------------------------|--------------------------|
--9--9--9--9--7--7--7--7--|--------------------------|
--x--x--x--x--x--x--x--x--|--------------5--5--5--5--|
--5--5--5--5--5--5--5--5--|--1--1--1--1--5--5--5--5--|
--------------------------|--1--1--1--1--3--3--3--3--|
--------------------------|--1--1--1--1--------------|

  ^  v  ^  v  ^  v  ^  v     ^  v  ^  v  ^  v  ^  v   
  E  E  E  E  E  E  E  E     E  E  E  E  E  E  E  E   
--------------------------|--------------------------|
--9--9--9--9--7--7--7--7--|--------------------------|
--x--x--x--x--x--x--x--x--|--------------5--5--5--5--|
--5--5--5--5--5--5--5--5--|--1--1--1--1--5--5--5--5--|
--------------------------|--1--1--1--1--3--3--3--3--|
--------------------------|--1--1--1--1--------------|

  ^  v  ^  v  ^  v  ^  v     ^  v  ^  v  ^  v  ^  v   
  E  E  E  E  E  E  E  E     E  E  E  E  E  E  E  E   
--------------------------|--------------------------|
--9--9--9--9--7--7--7--7--|--------------------------|
--x--x--x--x--x--x--x--x--|--------------5--5--5--5--|
--5--5--5--5--5--5--5--5--|--1--1--1--1--5--5--5--5--|
--------------------------|--1--1--1--1--3--3--3--3--|
--------------------------|--1--1--1--1--------------|

  ^  v  ^  v  ^  v  ^  v                                                 
  E  E  E  E  E  E  E  E     H        E  E  Q       H        E  E  Q     
--------------------------|----------------------|----------------------|
--9--9--9--9--7--7--7--7--|-----------------2----|--4--------3--2--1----|
--x--x--x--x--x--x--x--x--|--------------2-------|--4-------------------|
--5--5--5--5--5--5--5--5--|-----------0----------|----------------------|
--------------------------|--1-------------------|----------------------|
--------------------------|--0-------------------|----------------------|

  H        E  E  Q       H        E  E  Q       H        E  E  Q     
----------------------|----------------------|----------------------|
-----------------2----|--4--------3--2--1----|-----------------2----|
--------------2-------|--4-------------------|--------------2-------|
-----------0----------|----------------------|-----------0----------|
--1-------------------|----------------------|--1-------------------|
--0-------------------|----------------------|--0-------------------|

  H        E  E  Q       H        E  E  Q       H        E  E  Q     
----------------------|----------------------|----------------------|
--4--------3--2--1----|-----------------2----|--4--------3--2--1----|
--4-------------------|--------------2-------|--4-------------------|
----------------------|-----------0----------|----------------------|
----------------------|--1-------------------|----------------------|
----------------------|--0-------------------|----------------------|

  H        E  E  Q       H        E  E  Q       H        E  E  Q     
----------------------|----------------------|----------------------|
-----------------2----|--4--------3--2--1----|-----------------2----|
--------------2-------|--4-------------------|--------------2-------|
-----------0----------|----------------------|-----------0----------|
--1-------------------|----------------------|--1-------------------|
--0-------------------|----------------------|--0-------------------|

  H        E  E  Q       H        E  E  Q       H        E  E  Q     
----------------------|----------------------|----------------------|
--4--------3--2--1----|-----------------2----|--4--------3--2--1----|
--4-------------------|--------------2-------|--4-------------------|
----------------------|-----------0----------|----------------------|
----------------------|--1-------------------|----------------------|
----------------------|--0-------------------|----------------------|

  H        E  E  Q       H        E  E  Q     
----------------------|----------------------|
-----------------2----|--4--------3--2--1----|
--------------2-------|--4-------------------|
-----------0----------|----------------------|
--1-------------------|----------------------|
--0-------------------|----------------------|

  S S S S S S S S S S S S S S S S    S S S S S S S S S S S S S S S S  
----------------------------------|----------------------------------|
----------------------------------|----------------------------------|
----------------------------------|----------------------------------|
--2-2-2-2-0-0-6-6-2-2-2-2-3-3-3-3-|--2-2-2-2-0-0-6-6-3-3-3-3-5-5-5-5-|
--2-2-2-2-0-0-6-6-2-2-2-2-3-3-3-3-|--2-2-2-2-0-0-6-6-3-3-3-3-5-5-5-5-|
--2-2-2-2-0-0-6-6-2-2-2-2-3-3-3-3-|--2-2-2-2-0-0-6-6-3-3-3-3-5-5-5-5-|

  S S S S S S S S S S S S S S S S    S S S S S S S S S S S S S S S S  
----------------------------------|----------------------------------|
----------------------------------|----------------------------------|
----------------------------------|----------------------------------|
--2-2-2-2-0-0-6-6-2-2-2-2-3-3-3-3-|--2-2-2-2-0-0-6-6-3-3-3-3-5-5-5-5-|
--2-2-2-2-0-0-6-6-2-2-2-2-3-3-3-3-|--2-2-2-2-0-0-6-6-3-3-3-3-5-5-5-5-|
--2-2-2-2-0-0-6-6-2-2-2-2-3-3-3-3-|--2-2-2-2-0-0-6-6-3-3-3-3-5-5-5-5-|

  S S S S S S S S S S S S S S S S    S S S S S S S S S S S S S S S S  
----------------------------------|----------------------------------|
----------------------------------|----------------------------------|
----------------------------------|----------------------------------|
--2-2-2-2-0-0-6-6-2-2-2-2-3-3-3-3-|--2-2-2-2-0-0-6-6-3-3-3-3-5-5-5-5-|
--2-2-2-2-0-0-6-6-2-2-2-2-3-3-3-3-|--2-2-2-2-0-0-6-6-3-3-3-3-5-5-5-5-|
--2-2-2-2-0-0-6-6-2-2-2-2-3-3-3-3-|--2-2-2-2-0-0-6-6-3-3-3-3-5-5-5-5-|

  S S S S S S S S S S S S S S S S    S S S S S S S S S S S S S S S S  
----------------------------------|----------------------------------|
----------------------------------|----------------------------------|
----------------------------------|----------------------------------|
--2-2-2-2-0-0-6-6-2-2-2-2-3-3-3-3-|--2-2-2-2-0-0-6-6-3-3-3-3-5-5-5-5-|
--2-2-2-2-0-0-6-6-2-2-2-2-3-3-3-3-|--2-2-2-2-0-0-6-6-3-3-3-3-5-5-5-5-|
--2-2-2-2-0-0-6-6-2-2-2-2-3-3-3-3-|--2-2-2-2-0-0-6-6-3-3-3-3-5-5-5-5-|

  S S S S S S S S S S S S S S S S    S S S S S S S S S S S S S S S S  
----------------------------------|----------------------------------|
----------------------------------|----------------------------------|
----------------------------------|----------------------------------|
--2-2-2-2-0-0-6-6-2-2-2-2-3-3-3-3-|--2-2-2-2-0-0-6-6-3-3-3-3-5-5-5-5-|
--2-2-2-2-0-0-6-6-2-2-2-2-3-3-3-3-|--2-2-2-2-0-0-6-6-3-3-3-3-5-5-5-5-|
--2-2-2-2-0-0-6-6-2-2-2-2-3-3-3-3-|--2-2-2-2-0-0-6-6-3-3-3-3-5-5-5-5-|

  S S S S S S S S S S S S S S S S    S S S S S S S S S S S S S S S S  
----------------------------------|----------------------------------|
----------------------------------|----------------------------------|
----------------------------------|----------------------------------|
--2-2-2-2-0-0-6-6-2-2-2-2-3-3-3-3-|--2-2-2-2-0-0-6-6-3-3-3-3-5-5-5-5-|
--2-2-2-2-0-0-6-6-2-2-2-2-3-3-3-3-|--2-2-2-2-0-0-6-6-3-3-3-3-5-5-5-5-|
--2-2-2-2-0-0-6-6-2-2-2-2-3-3-3-3-|--2-2-2-2-0-0-6-6-3-3-3-3-5-5-5-5-|

  S S S S S S S S S S S S S S S S    S S S S S S S S S S S S S S S S  
----------------------------------|----------------------------------|
----------------------------------|----------------------------------|
----------------------------------|----------------------------------|
--2-2-2-2-0-0-6-6-2-2-2-2-3-3-3-3-|--2-2-2-2-0-0-6-6-3-3-3-3-5-5-5-5-|
--2-2-2-2-0-0-6-6-2-2-2-2-3-3-3-3-|--2-2-2-2-0-0-6-6-3-3-3-3-5-5-5-5-|
--2-2-2-2-0-0-6-6-2-2-2-2-3-3-3-3-|--2-2-2-2-0-0-6-6-3-3-3-3-5-5-5-5-|

  S S S S S S S S S S S S S S S S    S S S S S S S S S S S S S S S S        
----------------------------------|----------------------------------|-----|
----------------------------------|----------------------------------|-----|
----------------------------------|----------------------------------|-----|
--2-2-2-2-0-0-6-6-2-2-2-2-3-3-3-3-|--2-2-2-2-0-0-6-6-3-3-3-3-5-5-5-5-|-----|
--2-2-2-2-0-0-6-6-2-2-2-2-3-3-3-3-|--2-2-2-2-0-0-6-6-3-3-3-3-5-5-5-5-|-----|
--2-2-2-2-0-0-6-6-2-2-2-2-3-3-3-3-|--2-2-2-2-0-0-6-6-3-3-3-3-5-5-5-5-|-----|

-----|-----|-----|-----|-----|-----|-----|-----|-----|-----|-----|-----|-----|
-----|-----|-----|-----|-----|-----|-----|-----|-----|-----|-----|-----|-----|
-----|-----|-----|-----|-----|-----|-----|-----|-----|-----|-----|-----|-----|
-----|-----|-----|-----|-----|-----|-----|-----|-----|-----|-----|-----|-----|
-----|-----|-----|-----|-----|-----|-----|-----|-----|-----|-----|-----|-----|
-----|-----|-----|-----|-----|-----|-----|-----|-----|-----|-----|-----|-----|

-----|-----|-----|-----|-----|-----|-----|-----|-----|-----|-----|-----|-----|
-----|-----|-----|-----|-----|-----|-----|-----|-----|-----|-----|-----|-----|
-----|-----|-----|-----|-----|-----|-----|-----|-----|-----|-----|-----|-----|
-----|-----|-----|-----|-----|-----|-----|-----|-----|-----|-----|-----|-----|
-----|-----|-----|-----|-----|-----|-----|-----|-----|-----|-----|-----|-----|
-----|-----|-----|-----|-----|-----|-----|-----|-----|-----|-----|-----|-----|

              PM PM PM PM PM PM          ^  v  ^  v  ^  v  ^  v   
              E  E  E  E  E  E  E  E     E  E  E  E  E  E  E  E   
-----|-----|--------------------------|--------------------------|
-----|-----|--------------------------|--------------------------|
-----|-----|--------------------------|--------------5--5--5--5--|
-----|-----|--------------------------|--1--1--1--1--5--5--5--5--|
-----|-----|--2--2--2--2--3--3--5--5--|--1--1--1--1--3--3--3--3--|
-----|-----|--2--2--2--2--3--3--5--5--|--1--1--1--1--------------|

  ^  v  ^  v  ^  v  ^  v     ^  v  ^  v  ^  v  ^  v   
  E  E  E  E  E  E  E  E     E  E  E  E  E  E  E  E   
--------------------------|--------------------------|
--9--9--9--9--7--7--7--7--|--------------------------|
--x--x--x--x--x--x--x--x--|--------------5--5--5--5--|
--5--5--5--5--5--5--5--5--|--1--1--1--1--5--5--5--5--|
--------------------------|--1--1--1--1--3--3--3--3--|
--------------------------|--1--1--1--1--------------|

  ^  v  ^  v  ^  v  ^  v     ^  v  ^  v  ^  v  ^  v   
  E  E  E  E  E  E  E  E     E  E  E  E  E  E  E  E   
--------------------------|--------------------------|
--9--9--9--9--7--7--7--7--|--------------------------|
--x--x--x--x--x--x--x--x--|--------------5--5--5--5--|
--5--5--5--5--5--5--5--5--|--1--1--1--1--5--5--5--5--|
--------------------------|--1--1--1--1--3--3--3--3--|
--------------------------|--1--1--1--1--------------|

  ^  v  ^  v  ^  v  ^  v     ^  v  ^  v  ^  v  ^  v   
  E  E  E  E  E  E  E  E     E  E  E  E  E  E  E  E   
--------------------------|--------------------------|
--9--9--9--9--7--7--7--7--|--------------------------|
--x--x--x--x--x--x--x--x--|--------------5--5--5--5--|
--5--5--5--5--5--5--5--5--|--1--1--1--1--5--5--5--5--|
--------------------------|--1--1--1--1--3--3--3--3--|
--------------------------|--1--1--1--1--------------|

  ^  v  ^  v  ^  v  ^  v                              
  E  E  E  E  E  E  E  E     E  E  E  E  E  E  E  E   
--------------------------|--------------------------|
--9--9--9--9--7--7--7--7--|--------------------------|
--x--x--x--x--x--x--x--x--|--------------5--5--5--5--|
--5--5--5--5--5--5--5--5--|--5--5--5--5--x--x--x--x--|
--------------------------|--2--2--2--2--2--2--2--2--|
--------------------------|--2--2--2--2--------------|

  E  E  E  E  E  E  E  E     E  E  E  E  E  E     E  E  E  E  E  E  Q     
--------------------------|--------------------|-------------------------|
--------------------------|--------------------|-------------------------|
--5--5--5--5--7--7--7--7--|--------------------|-------------------------|
--2--2--2--2--5--5--5--5--|--------------------|-------------------------|
--3--3--3--3--5--5--5--5--|--0--0-----0--0-----|--0--0-----0--0-----1----|
--------------5--5--5--5--|--0--0-----0--0-----|--0--0-----0--0-----1----|

  E  E  E  E  E  E  E  E     E  E  E  E  E  E  E  E     E  E  E  E  E  E  E   
--------------------------|--------------------------|-----------------------|
--------------------------|--------------------------|-----------------------|
--------------5--5--5--5--|--5--5--5--5--7--7--7--7--|-----------------------|
--5--5--5--5--x--x--x--x--|--2--2--2--2--5--5--5--5--|-----------------------|
--2--2--2--2--2--2--2--2--|--3--3--3--3--5--5--5--5--|--0--0-----0--0--------|
--2--2--2--2--------------|--------------5--5--5--5--|--0--0-----0--0--------|

  PM PM PM PM PM PM          ^  v  ^  v  ^  v  ^  v   
  E  E  E  E  E  E  E  E     E  E  E  E  E  E  E  E   
--------------------------|--------------------------|
--------------------------|--------------------------|
--------------------------|--------------5--5--5--5--|
--------------------------|--1--1--1--1--5--5--5--5--|
--2--2--2--2--3--3--5--5--|--1--1--1--1--3--3--3--3--|
--2--2--2--2--3--3--5--5--|--1--1--1--1--------------|

  ^  v  ^  v  ^  v  ^  v     ^  v  ^  v  ^  v  ^  v   
  E  E  E  E  E  E  E  E     E  E  E  E  E  E  E  E   
--------------------------|--------------------------|
--9--9--9--9--7--7--7--7--|--------------------------|
--x--x--x--x--x--x--x--x--|--------------5--5--5--5--|
--5--5--5--5--5--5--5--5--|--1--1--1--1--5--5--5--5--|
--------------------------|--1--1--1--1--3--3--3--3--|
--------------------------|--1--1--1--1--------------|

  ^  v  ^  v  ^  v  ^  v     ^  v  ^  v  ^  v  ^  v   
  E  E  E  E  E  E  E  E     E  E  E  E  E  E  E  E   
--------------------------|--------------------------|
--9--9--9--9--7--7--7--7--|--------------------------|
--x--x--x--x--x--x--x--x--|--------------5--5--5--5--|
--5--5--5--5--5--5--5--5--|--1--1--1--1--5--5--5--5--|
--------------------------|--1--1--1--1--3--3--3--3--|
--------------------------|--1--1--1--1--------------|

  ^  v  ^  v  ^  v  ^  v     ^  v  ^  v  ^  v  ^  v   
  E  E  E  E  E  E  E  E     E  E  E  E  E  E  E  E   
--------------------------|--------------------------|
--9--9--9--9--7--7--7--7--|--------------------------|
--x--x--x--x--x--x--x--x--|--------------5--5--5--5--|
--5--5--5--5--5--5--5--5--|--1--1--1--1--5--5--5--5--|
--------------------------|--1--1--1--1--3--3--3--3--|
--------------------------|--1--1--1--1--------------|

  ^  v  ^  v  ^  v  ^  v    
  E  E  E  E  E  E  E  E    
--------------------------||
--9--9--9--9--7--7--7--7--||
--x--x--x--x--x--x--x--x--||
--5--5--5--5--5--5--5--5--||
--------------------------||
--------------------------||

Rhythm Guitar

     ^  v  ^  v  ^  v  ^  v     ^  v  ^  v  ^  v  ^  v   
     E  E  E  E  E  E  E  E     E  E  E  E  E  E  E  E   
E||--------------------------|--------------------------|
B||--------------------------|--9--9--9--9--7--7--7--7--|
G||--------------5--5--5--5--|--x--x--x--x--x--x--x--x--|
D||--1--1--1--1--5--5--5--5--|--5--5--5--5--5--5--5--5--|
A||--1--1--1--1--3--3--3--3--|--------------------------|
E||--1--1--1--1--------------|--------------------------|

  ^  v  ^  v  ^  v  ^  v     ^  v  ^  v  ^  v  ^  v   
  E  E  E  E  E  E  E  E     E  E  E  E  E  E  E  E   
--------------------------|--------------------------|
--------------------------|--9--9--9--9--7--7--7--7--|
--------------5--5--5--5--|--x--x--x--x--x--x--x--x--|
--1--1--1--1--5--5--5--5--|--5--5--5--5--5--5--5--5--|
--1--1--1--1--3--3--3--3--|--------------------------|
--1--1--1--1--------------|--------------------------|

  ^  v  ^  v  ^  v  ^  v     ^  v  ^  v  ^  v  ^  v   
  E  E  E  E  E  E  E  E     E  E  E  E  E  E  E  E   
--------------------------|--------------------------|
--------------------------|--9--9--9--9--7--7--7--7--|
--------------5--5--5--5--|--x--x--x--x--x--x--x--x--|
--1--1--1--1--5--5--5--5--|--5--5--5--5--5--5--5--5--|
--1--1--1--1--3--3--3--3--|--------------------------|
--1--1--1--1--------------|--------------------------|

  ^  v  ^  v  ^  v  ^  v     ^  v  ^  v  ^  v  ^  v                           
  E  E  E  E  E  E  E  E     E  E  E  E  E  E  E  E     H        E  E  E  E   
--------------------------|--------------------------|-----------------------|
--------------------------|--9--9--9--9--7--7--7--7--|--9-----------------7--|
--------------5--5--5--5--|--x--x--x--x--x--x--x--x--|--x-----------------x--|
--1--1--1--1--5--5--5--5--|--5--5--5--5--5--5--5--5--|--5-----------------5--|
--1--1--1--1--3--3--3--3--|--------------------------|-----------------------|
--1--1--1--1--------------|--------------------------|-----------------------|

  H        E  E  E  E     H        E  E  E  E     H        E  E  E  E   
-----------------------|-----------------------|-----------------------|
--9-----------------7--|--9-----------------7--|--9-----------------7--|
--x-----------------x--|--x-----------------x--|--x-----------------x--|
--5-----------------5--|--5-----------------5--|--5-----------------5--|
-----------------------|-----------------------|-----------------------|
-----------------------|-----------------------|-----------------------|

  H        E  E  E  E     H        E  E  E  E     H        E  E  E  E   
-----------------------|-----------------------|-----------------------|
--9-----------------7--|--9-----------------7--|--9-----------------7--|
--x-----------------x--|--x-----------------x--|--x-----------------x--|
--5-----------------5--|--5-----------------5--|--5-----------------5--|
-----------------------|-----------------------|-----------------------|
-----------------------|-----------------------|-----------------------|

  H        E  E  E  E     H        E  E  E  E     H        E  E  E  E   
-----------------------|-----------------------|-----------------------|
--9-----------------7--|--9-----------------7--|--9-----------------7--|
--x-----------------x--|--x-----------------x--|--x-----------------x--|
--5-----------------5--|--5-----------------5--|--5-----------------5--|
-----------------------|-----------------------|-----------------------|
-----------------------|-----------------------|-----------------------|

  H        E  E  E  E     H        E  E  E  E     H        E  E  E  E   
-----------------------|-----------------------|-----------------------|
--9-----------------7--|--9-----------------7--|--9-----------------7--|
--x-----------------x--|--x-----------------x--|--x-----------------x--|
--5-----------------5--|--5-----------------5--|--5-----------------5--|
-----------------------|-----------------------|-----------------------|
-----------------------|-----------------------|-----------------------|

  H        E  E  E  E     H        E  E  E  E     H        E  E  E  E   
-----------------------|-----------------------|-----------------------|
--9-----------------7--|--9-----------------7--|--9-----------------7--|
--x-----------------x--|--x-----------------x--|--x-----------------x--|
--5-----------------5--|--5-----------------5--|--5-----------------5--|
-----------------------|-----------------------|-----------------------|
-----------------------|-----------------------|-----------------------|

  E  E  E  E  E  E  E  E     E  E  E  E  E  E  E  E     E  E  E  E  E  E  E   
--------------------------|--------------------------|-----------------------|
--------------------------|--------------------------|-----------------------|
--------------5--5--5--5--|--5--5--5--5--7--7--7--7--|-----------------------|
--5--5--5--5--x--x--x--x--|--2--2--2--2--5--5--5--5--|-----------------------|
--2--2--2--2--2--2--2--2--|--3--3--3--3--5--5--5--5--|--0--0-----0--0--------|
--2--2--2--2--------------|--------------5--5--5--5--|--0--0-----0--0--------|

  E  E  E  E  E  E  Q       E  E  E  E  E  E  E  E     E  E  E  E  E  E  E  E   
-------------------------|--------------------------|--------------------------|
-------------------------|--------------------------|--------------------------|
-------------------------|--------------5--5--5--5--|--5--5--5--5--7--7--7--7--|
-------------------------|--5--5--5--5--x--x--x--x--|--2--2--2--2--5--5--5--5--|
--0--0-----0--0-----1----|--2--2--2--2--2--2--2--2--|--3--3--3--3--5--5--5--5--|
--0--0-----0--0-----1----|--2--2--2--2--------------|--------------5--5--5--5--|

                          PM PM PM PM PM PM PM PM    ^  v  ^  v  ^  v  ^  v   
  E  E  E  E  E  E  E     E  E  E  E  E  E  E  E     E  E  E  E  E  E  E  E   
-----------------------|--------------------------|--------------------------|
-----------------------|--------------------------|--------------------------|
-----------------------|--------------------------|--------------5--5--5--5--|
-----------------------|--------------------------|--1--1--1--1--5--5--5--5--|
--0--0-----0--0--------|--2--2--2--2--3--3--5--5--|--1--1--1--1--3--3--3--3--|
--0--0-----0--0--------|--2--2--2--2--3--3--5--5--|--1--1--1--1--------------|

  ^  v  ^  v  ^  v  ^  v     ^  v  ^  v  ^  v  ^  v   
  E  E  E  E  E  E  E  E     E  E  E  E  E  E  E  E   
--------------------------|--------------------------|
--9--9--9--9--7--7--7--7--|--------------------------|
--x--x--x--x--x--x--x--x--|--------------5--5--5--5--|
--5--5--5--5--5--5--5--5--|--1--1--1--1--5--5--5--5--|
--------------------------|--1--1--1--1--3--3--3--3--|
--------------------------|--1--1--1--1--------------|

  ^  v  ^  v  ^  v  ^  v     ^  v  ^  v  ^  v  ^  v   
  E  E  E  E  E  E  E  E     E  E  E  E  E  E  E  E   
--------------------------|--------------------------|
--9--9--9--9--7--7--7--7--|--------------------------|
--x--x--x--x--x--x--x--x--|--------------5--5--5--5--|
--5--5--5--5--5--5--5--5--|--1--1--1--1--5--5--5--5--|
--------------------------|--1--1--1--1--3--3--3--3--|
--------------------------|--1--1--1--1--------------|

  ^  v  ^  v  ^  v  ^  v     ^  v  ^  v  ^  v  ^  v   
  E  E  E  E  E  E  E  E     E  E  E  E  E  E  E  E   
--------------------------|--------------------------|
--9--9--9--9--7--7--7--7--|--------------------------|
--x--x--x--x--x--x--x--x--|--------------5--5--5--5--|
--5--5--5--5--5--5--5--5--|--1--1--1--1--5--5--5--5--|
--------------------------|--1--1--1--1--3--3--3--3--|
--------------------------|--1--1--1--1--------------|

  ^  v  ^  v  ^  v  ^  v                                                   
  E  E  E  E  E  E  E  E     H        E  E  E  E     H        E  E  E  E   
--------------------------|-----------------------|-----------------------|
--9--9--9--9--7--7--7--7--|--9-----------------7--|--9-----------------7--|
--x--x--x--x--x--x--x--x--|--x-----------------x--|--x-----------------x--|
--5--5--5--5--5--5--5--5--|--5-----------------5--|--5-----------------5--|
--------------------------|-----------------------|-----------------------|
--------------------------|-----------------------|-----------------------|

  H        E  E  E  E     H        E  E  E  E     H        E  E  E  E   
-----------------------|-----------------------|-----------------------|
--9-----------------7--|--9-----------------7--|--9-----------------7--|
--x-----------------x--|--x-----------------x--|--x-----------------x--|
--5-----------------5--|--5-----------------5--|--5-----------------5--|
-----------------------|-----------------------|-----------------------|
-----------------------|-----------------------|-----------------------|

  H        E  E  E  E     H        E  E  E  E     H        E  E  E  E   
-----------------------|-----------------------|-----------------------|
--9-----------------7--|--9-----------------7--|--9-----------------7--|
--x-----------------x--|--x-----------------x--|--x-----------------x--|
--5-----------------5--|--5-----------------5--|--5-----------------5--|
-----------------------|-----------------------|-----------------------|
-----------------------|-----------------------|-----------------------|

  H        E  E  E  E     H        E  E  E  E     H        E  E  E  E   
-----------------------|-----------------------|-----------------------|
--9-----------------7--|--9-----------------7--|--9-----------------7--|
--x-----------------x--|--x-----------------x--|--x-----------------x--|
--5-----------------5--|--5-----------------5--|--5-----------------5--|
-----------------------|-----------------------|-----------------------|
-----------------------|-----------------------|-----------------------|

  H        E  E  E  E     H        E  E  E  E     H        E  E  E  E   
-----------------------|-----------------------|-----------------------|
--9-----------------7--|--9-----------------7--|--9-----------------7--|
--x-----------------x--|--x-----------------x--|--x-----------------x--|
--5-----------------5--|--5-----------------5--|--5-----------------5--|
-----------------------|-----------------------|-----------------------|
-----------------------|-----------------------|-----------------------|

  H        E  E  E  E     H        E  E  E  E     E  E  E  E  E  E  E  E   
-----------------------|-----------------------|--------------------------|
--9-----------------7--|--9-----------------7--|--------------------------|
--x-----------------x--|--x-----------------x--|--------------5--5--5--5--|
--5-----------------5--|--5-----------------5--|--5--5--5--5--x--x--x--x--|
-----------------------|-----------------------|--2--2--2--2--2--2--2--2--|
-----------------------|-----------------------|--2--2--2--2--------------|

  E  E  E  E  E  E  E  E     E  E  E  E  E  E     E  E  E  E  E  E  Q     
--------------------------|--------------------|-------------------------|
--------------------------|--------------------|-------------------------|
--5--5--5--5--7--7--7--7--|--------------------|-------------------------|
--2--2--2--2--5--5--5--5--|--------------------|-------------------------|
--3--3--3--3--5--5--5--5--|--0--0-----0--0-----|--0--0-----0--0-----1----|
--------------5--5--5--5--|--0--0-----0--0-----|--0--0-----0--0-----1----|

  E  E  E  E  E  E  E  E     E  E  E  E  E  E  E  E     E  E  E  E  E  E  E   
--------------------------|--------------------------|-----------------------|
--------------------------|--------------------------|-----------------------|
--------------5--5--5--5--|--5--5--5--5--7--7--7--7--|-----------------------|
--5--5--5--5--x--x--x--x--|--2--2--2--2--5--5--5--5--|-----------------------|
--2--2--2--2--2--2--2--2--|--3--3--3--3--5--5--5--5--|--0--0-----0--0--------|
--2--2--2--2--------------|--------------5--5--5--5--|--0--0-----0--0--------|

  PM PM PM PM PM PM          ^  v  ^  v  ^  v  ^  v   
  E  E  E  E  E  E  E  E     E  E  E  E  E  E  E  E   
--------------------------|--------------------------|
--------------------------|--------------------------|
--------------------------|--------------5--5--5--5--|
--------------------------|--1--1--1--1--5--5--5--5--|
--2--2--2--2--3--3--5--5--|--1--1--1--1--3--3--3--3--|
--2--2--2--2--3--3--5--5--|--1--1--1--1--------------|

  ^  v  ^  v  ^  v  ^  v     ^  v  ^  v  ^  v  ^  v   
  E  E  E  E  E  E  E  E     E  E  E  E  E  E  E  E   
--------------------------|--------------------------|
--9--9--9--9--7--7--7--7--|--------------------------|
--x--x--x--x--x--x--x--x--|--------------5--5--5--5--|
--5--5--5--5--5--5--5--5--|--1--1--1--1--5--5--5--5--|
--------------------------|--1--1--1--1--3--3--3--3--|
--------------------------|--1--1--1--1--------------|

  ^  v  ^  v  ^  v  ^  v     ^  v  ^  v  ^  v  ^  v   
  E  E  E  E  E  E  E  E     E  E  E  E  E  E  E  E   
--------------------------|--------------------------|
--9--9--9--9--7--7--7--7--|--------------------------|
--x--x--x--x--x--x--x--x--|--------------5--5--5--5--|
--5--5--5--5--5--5--5--5--|--1--1--1--1--5--5--5--5--|
--------------------------|--1--1--1--1--3--3--3--3--|
--------------------------|--1--1--1--1--------------|

  ^  v  ^  v  ^  v  ^  v     ^  v  ^  v  ^  v  ^  v   
  E  E  E  E  E  E  E  E     E  E  E  E  E  E  E  E   
--------------------------|--------------------------|
--9--9--9--9--7--7--7--7--|--------------------------|
--x--x--x--x--x--x--x--x--|--------------5--5--5--5--|
--5--5--5--5--5--5--5--5--|--1--1--1--1--5--5--5--5--|
--------------------------|--1--1--1--1--3--3--3--3--|
--------------------------|--1--1--1--1--------------|

  ^  v  ^  v  ^  v  ^  v                                           
  E  E  E  E  E  E  E  E     W                                     
--------------------------|-------------------|-------------------|
--9--9--9--9--7--7--7--7--|-------------------|-------------------|
--x--x--x--x--x--x--x--x--|-------------------|-------------------|
--5--5--5--5--5--5--5--5--|-------------------|-------------------|
--------------------------|--1----------------|-------------------|
--------------------------|--0----------------|-------------------|

  W                                       W                                     
-------------------|-------------------|-------------------|-------------------|
-------------------|-------------------|-------------------|-------------------|
-------------------|-------------------|-------------------|-------------------|
-------------------|-------------------|-------------------|-------------------|
--1----------------|-------------------|--1----------------|-------------------|
--0----------------|-------------------|--0----------------|-------------------|

  W                                       W                                     
-------------------|-------------------|-------------------|-------------------|
-------------------|-------------------|-------------------|-------------------|
-------------------|-------------------|-------------------|-------------------|
-------------------|-------------------|-------------------|-------------------|
--1----------------|-------------------|--1----------------|-------------------|
--0----------------|-------------------|--0----------------|-------------------|

  W                                       W                                     
-------------------|-------------------|-------------------|-------------------|
-------------------|-------------------|-------------------|-------------------|
-------------------|-------------------|-------------------|-------------------|
-------------------|-------------------|-------------------|-------------------|
--1----------------|-------------------|--1----------------|-------------------|
--0----------------|-------------------|--0----------------|-------------------|

  W                                       S S S S S S S S S S S S S S S S  
-------------------|-------------------|----------------------------------|
-------------------|-------------------|----------------------------------|
-------------------|-------------------|----------------------------------|
-------------------|-------------------|--2-2-2-2-0-0-6-6-2-2-2-2-3-3-3-3-|
--1----------------|-------------------|--2-2-2-2-0-0-6-6-2-2-2-2-3-3-3-3-|
--0----------------|-------------------|--2-2-2-2-0-0-6-6-2-2-2-2-3-3-3-3-|

  S S S S S S S S S S S S S S S S    S S S S S S S S S S S S S S S S  
----------------------------------|----------------------------------|
----------------------------------|----------------------------------|
----------------------------------|----------------------------------|
--2-2-2-2-0-0-6-6-3-3-3-3-5-5-5-5-|--2-2-2-2-0-0-6-6-2-2-2-2-3-3-3-3-|
--2-2-2-2-0-0-6-6-3-3-3-3-5-5-5-5-|--2-2-2-2-0-0-6-6-2-2-2-2-3-3-3-3-|
--2-2-2-2-0-0-6-6-3-3-3-3-5-5-5-5-|--2-2-2-2-0-0-6-6-2-2-2-2-3-3-3-3-|

  S S S S S S S S S S S S S S S S    S S S S S S S S S S S S S S S S  
----------------------------------|----------------------------------|
----------------------------------|----------------------------------|
----------------------------------|----------------------------------|
--2-2-2-2-0-0-6-6-3-3-3-3-5-5-5-5-|--2-2-2-2-0-0-6-6-2-2-2-2-3-3-3-3-|
--2-2-2-2-0-0-6-6-3-3-3-3-5-5-5-5-|--2-2-2-2-0-0-6-6-2-2-2-2-3-3-3-3-|
--2-2-2-2-0-0-6-6-3-3-3-3-5-5-5-5-|--2-2-2-2-0-0-6-6-2-2-2-2-3-3-3-3-|

  S S S S S S S S S S S S S S S S    S S S S S S S S S S S S S S S S  
----------------------------------|----------------------------------|
----------------------------------|----------------------------------|
----------------------------------|----------------------------------|
--2-2-2-2-0-0-6-6-3-3-3-3-5-5-5-5-|--2-2-2-2-0-0-6-6-2-2-2-2-3-3-3-3-|
--2-2-2-2-0-0-6-6-3-3-3-3-5-5-5-5-|--2-2-2-2-0-0-6-6-2-2-2-2-3-3-3-3-|
--2-2-2-2-0-0-6-6-3-3-3-3-5-5-5-5-|--2-2-2-2-0-0-6-6-2-2-2-2-3-3-3-3-|

  S S S S S S S S S S S S S S S S    S S S S S S S S S S S S S S S S  
----------------------------------|----------------------------------|
----------------------------------|----------------------------------|
----------------------------------|----------------------------------|
--2-2-2-2-0-0-6-6-3-3-3-3-5-5-5-5-|--2-2-2-2-0-0-6-6-2-2-2-2-3-3-3-3-|
--2-2-2-2-0-0-6-6-3-3-3-3-5-5-5-5-|--2-2-2-2-0-0-6-6-2-2-2-2-3-3-3-3-|
--2-2-2-2-0-0-6-6-3-3-3-3-5-5-5-5-|--2-2-2-2-0-0-6-6-2-2-2-2-3-3-3-3-|

  S S S S S S S S S S S S S S S S    S S S S S S S S S S S S S S S S  
----------------------------------|----------------------------------|
----------------------------------|----------------------------------|
----------------------------------|----------------------------------|
--2-2-2-2-0-0-6-6-3-3-3-3-5-5-5-5-|--2-2-2-2-0-0-6-6-2-2-2-2-3-3-3-3-|
--2-2-2-2-0-0-6-6-3-3-3-3-5-5-5-5-|--2-2-2-2-0-0-6-6-2-2-2-2-3-3-3-3-|
--2-2-2-2-0-0-6-6-3-3-3-3-5-5-5-5-|--2-2-2-2-0-0-6-6-2-2-2-2-3-3-3-3-|

  S S S S S S S S S S S S S S S S    S S S S S S S S S S S S S S S S  
----------------------------------|----------------------------------|
----------------------------------|----------------------------------|
----------------------------------|----------------------------------|
--2-2-2-2-0-0-6-6-3-3-3-3-5-5-5-5-|--2-2-2-2-0-0-6-6-2-2-2-2-3-3-3-3-|
--2-2-2-2-0-0-6-6-3-3-3-3-5-5-5-5-|--2-2-2-2-0-0-6-6-2-2-2-2-3-3-3-3-|
--2-2-2-2-0-0-6-6-3-3-3-3-5-5-5-5-|--2-2-2-2-0-0-6-6-2-2-2-2-3-3-3-3-|

  S S S S S S S S S S S S S S S S    S S S S S S S S S S S S S S S S  
----------------------------------|----------------------------------|
----------------------------------|----------------------------------|
----------------------------------|----------------------------------|
--2-2-2-2-0-0-6-6-3-3-3-3-5-5-5-5-|--2-2-2-2-0-0-6-6-2-2-2-2-3-3-3-3-|
--2-2-2-2-0-0-6-6-3-3-3-3-5-5-5-5-|--2-2-2-2-0-0-6-6-2-2-2-2-3-3-3-3-|
--2-2-2-2-0-0-6-6-3-3-3-3-5-5-5-5-|--2-2-2-2-0-0-6-6-2-2-2-2-3-3-3-3-|

  S S S S S S S S S S S S S S S S                                               
----------------------------------|----|----|----|----|----|----|----|----|----|
----------------------------------|----|----|----|----|----|----|----|----|----|
----------------------------------|----|----|----|----|----|----|----|----|----|
--2-2-2-2-0-0-6-6-3-3-3-3-5-5-5-5-|----|----|----|----|----|----|----|----|----|
--2-2-2-2-0-0-6-6-3-3-3-3-5-5-5-5-|----|----|----|----|----|----|----|----|----|
--2-2-2-2-0-0-6-6-3-3-3-3-5-5-5-5-|----|----|----|----|----|----|----|----|----|

----|----|----|----|----|----|----|----|----|----|----|----|----|----|----|----|
----|----|----|----|----|----|----|----|----|----|----|----|----|----|----|----|
----|----|----|----|----|----|----|----|----|----|----|----|----|----|----|----|
----|----|----|----|----|----|----|----|----|----|----|----|----|----|----|----|
----|----|----|----|----|----|----|----|----|----|----|----|----|----|----|----|
----|----|----|----|----|----|----|----|----|----|----|----|----|----|----|----|

                      PM PM PM PM PM PM          ^  v  ^  v  ^  v  ^  v   
                      E  E  E  E  E  E  E  E     E  E  E  E  E  E  E  E   
----|----|----|----|--------------------------|--------------------------|
----|----|----|----|--------------------------|--------------------------|
----|----|----|----|--------------------------|--------------5--5--5--5--|
----|----|----|----|--------------------------|--1--1--1--1--5--5--5--5--|
----|----|----|----|--2--2--2--2--3--3--5--5--|--1--1--1--1--3--3--3--3--|
----|----|----|----|--2--2--2--2--3--3--5--5--|--1--1--1--1--------------|

  ^  v  ^  v  ^  v  ^  v     ^  v  ^  v  ^  v  ^  v   
  E  E  E  E  E  E  E  E     E  E  E  E  E  E  E  E   
--------------------------|--------------------------|
--9--9--9--9--7--7--7--7--|--------------------------|
--x--x--x--x--x--x--x--x--|--------------5--5--5--5--|
--5--5--5--5--5--5--5--5--|--1--1--1--1--5--5--5--5--|
--------------------------|--1--1--1--1--3--3--3--3--|
--------------------------|--1--1--1--1--------------|

  ^  v  ^  v  ^  v  ^  v     ^  v  ^  v  ^  v  ^  v   
  E  E  E  E  E  E  E  E     E  E  E  E  E  E  E  E   
--------------------------|--------------------------|
--9--9--9--9--7--7--7--7--|--------------------------|
--x--x--x--x--x--x--x--x--|--------------5--5--5--5--|
--5--5--5--5--5--5--5--5--|--1--1--1--1--5--5--5--5--|
--------------------------|--1--1--1--1--3--3--3--3--|
--------------------------|--1--1--1--1--------------|

  ^  v  ^  v  ^  v  ^  v     ^  v  ^  v  ^  v  ^  v   
  E  E  E  E  E  E  E  E     E  E  E  E  E  E  E  E   
--------------------------|--------------------------|
--9--9--9--9--7--7--7--7--|--------------------------|
--x--x--x--x--x--x--x--x--|--------------5--5--5--5--|
--5--5--5--5--5--5--5--5--|--1--1--1--1--5--5--5--5--|
--------------------------|--1--1--1--1--3--3--3--3--|
--------------------------|--1--1--1--1--------------|

  ^  v  ^  v  ^  v  ^  v                              
  E  E  E  E  E  E  E  E     E  E  E  E  E  E  E  E   
--------------------------|--------------------------|
--9--9--9--9--7--7--7--7--|--------------------------|
--x--x--x--x--x--x--x--x--|--------------5--5--5--5--|
--5--5--5--5--5--5--5--5--|--5--5--5--5--x--x--x--x--|
--------------------------|--2--2--2--2--2--2--2--2--|
--------------------------|--2--2--2--2--------------|

  E  E  E  E  E  E  E  E     E  E  E  E  E  E     E  E  E  E  E  E  Q     
--------------------------|--------------------|-------------------------|
--------------------------|--------------------|-------------------------|
--5--5--5--5--7--7--7--7--|--------------------|-------------------------|
--2--2--2--2--5--5--5--5--|--------------------|-------------------------|
--3--3--3--3--5--5--5--5--|--0--0-----0--0-----|--0--0-----0--0-----1----|
--------------5--5--5--5--|--0--0-----0--0-----|--0--0-----0--0-----1----|

  E  E  E  E  E  E  E  E     E  E  E  E  E  E  E  E     E  E  E  E  E  E  E   
--------------------------|--------------------------|-----------------------|
--------------------------|--------------------------|-----------------------|
--------------5--5--5--5--|--5--5--5--5--7--7--7--7--|-----------------------|
--5--5--5--5--x--x--x--x--|--2--2--2--2--5--5--5--5--|-----------------------|
--2--2--2--2--2--2--2--2--|--3--3--3--3--5--5--5--5--|--0--0-----0--0--------|
--2--2--2--2--------------|--------------5--5--5--5--|--0--0-----0--0--------|

  PM PM PM PM PM PM          ^  v  ^  v  ^  v  ^  v   
  E  E  E  E  E  E  E  E     E  E  E  E  E  E  E  E   
--------------------------|--------------------------|
--------------------------|--------------------------|
--------------------------|--------------5--5--5--5--|
--------------------------|--1--1--1--1--5--5--5--5--|
--2--2--2--2--3--3--5--5--|--1--1--1--1--3--3--3--3--|
--2--2--2--2--3--3--5--5--|--1--1--1--1--------------|

  ^  v  ^  v  ^  v  ^  v     ^  v  ^  v  ^  v  ^  v   
  E  E  E  E  E  E  E  E     E  E  E  E  E  E  E  E   
--------------------------|--------------------------|
--9--9--9--9--7--7--7--7--|--------------------------|
--x--x--x--x--x--x--x--x--|--------------5--5--5--5--|
--5--5--5--5--5--5--5--5--|--1--1--1--1--5--5--5--5--|
--------------------------|--1--1--1--1--3--3--3--3--|
--------------------------|--1--1--1--1--------------|

  ^  v  ^  v  ^  v  ^  v     ^  v  ^  v  ^  v  ^  v   
  E  E  E  E  E  E  E  E     E  E  E  E  E  E  E  E   
--------------------------|--------------------------|
--9--9--9--9--7--7--7--7--|--------------------------|
--x--x--x--x--x--x--x--x--|--------------5--5--5--5--|
--5--5--5--5--5--5--5--5--|--1--1--1--1--5--5--5--5--|
--------------------------|--1--1--1--1--3--3--3--3--|
--------------------------|--1--1--1--1--------------|

  ^  v  ^  v  ^  v  ^  v     ^  v  ^  v  ^  v  ^  v   
  E  E  E  E  E  E  E  E     E  E  E  E  E  E  E  E   
--------------------------|--------------------------|
--9--9--9--9--7--7--7--7--|--------------------------|
--x--x--x--x--x--x--x--x--|--------------5--5--5--5--|
--5--5--5--5--5--5--5--5--|--1--1--1--1--5--5--5--5--|
--------------------------|--1--1--1--1--3--3--3--3--|
--------------------------|--1--1--1--1--------------|

  ^  v  ^  v  ^  v  ^  v    
  E  E  E  E  E  E  E  E    
--------------------------||
--9--9--9--9--7--7--7--7--||
--x--x--x--x--x--x--x--x--||
--5--5--5--5--5--5--5--5--||
--------------------------||
--------------------------||

==========(Per)Versions Of The Truth==========

Lead Guitar

                PM PM    PM PM    PM PM    PM PM  
             E  S  S  E  S  S  E  S  S  E  S  S   
D||-------|--------------------------------------|
A||-------|--------------------------------------|
F||-------|--------------------------------------|
C||-------|--------------------------------------|
G||-------|--0--0--0--1--0--0--0--0--0--1--0--0--|
C||-------|--0--0--0--1--0--0--0--0--0--1--0--0--|
B||-------|--0--0--0--1--0--0--0--0--0--1--0--0--|

     PM PM    PM PM    PM PM    PM PM       PM PM    PM PM    PM PM    PM PM  
  E  S  S  E  S  S  E  S  S  E  S  S     E  S  S  E  S  S  E  S  S  E  S  S   
--------------------------------------|--------------------------------------|
--------------------------------------|--------------------------------------|
--------------------------------------|--------------------------------------|
--------------------------------------|--------------------------------------|
--0--0--0--1--0--0--0--0--0--1--0--0--|--0--0--0--1--0--0--0--0--0--1--0--0--|
--0--0--0--1--0--0--0--0--0--1--0--0--|--0--0--0--1--0--0--0--0--0--1--0--0--|
--0--0--0--1--0--0--0--0--0--1--0--0--|--0--0--0--1--0--0--0--0--0--1--0--0--|

     PM PM    PM PM    PM PM    PM PM                        
  E  S  S  E  S  S  E  S  S  E  S  S      W                  
--------------------------------------|---------------------|
--------------------------------------|---------------------|
--------------------------------------|---------------------|
--------------------------------------|--11b----------------|
--0--0--0--1--0--0--0--0--0--1--0--0--|---x-----------------|
--0--0--0--1--0--0--0--0--0--1--0--0--|---9b----------------|
--0--0--0--1--0--0--0--0--0--1--0--0--|---0-----------------|

                          PM PM    PM PM    PM PM    PM PM  
  W                    E  S  S  E  S  S  E  S  S  E  S  S   
--------------------|--------------------------------------|
--------------------|--------------------------------------|
--------------------|--------------------------------------|
--9b----------------|--------------------------------------|
--x-----------------|--0--0--0--1--0--0--0--0--0--1--0--0--|
--7b----------------|--0--0--0--1--0--0--0--0--0--1--0--0--|
--0-----------------|--0--0--0--1--0--0--0--0--0--1--0--0--|

     PM PM    PM PM    PM PM    PM PM                        
  E  S  S  E  S  S  E  S  S  E  S  S      W                  
--------------------------------------|---------------------|
--------------------------------------|---------------------|
--------------------------------------|---------------------|
--------------------------------------|--11b----------------|
--0--0--0--1--0--0--0--0--0--1--0--0--|---x-----------------|
--0--0--0--1--0--0--0--0--0--1--0--0--|---9b----------------|
--0--0--0--1--0--0--0--0--0--1--0--0--|---0-----------------|

                          PM PM    PM PM    PM PM    PM PM  
  W                    E  S  S  E  S  S  E  S  S  E  S  S   
--------------------|--------------------------------------|
--------------------|--------------------------------------|
--------------------|--------------------------------------|
--9b----------------|--------------------------------------|
--x-----------------|--0--0--0--1--0--0--0--0--0--1--0--0--|
--7b----------------|--0--0--0--1--0--0--0--0--0--1--0--0--|
--0-----------------|--0--0--0--1--0--0--0--0--0--1--0--0--|

     PM PM    PM PM    PM PM    PM PM                        
  E  S  S  E  S  S  E  S  S  E  S  S      W                  
--------------------------------------|---------------------|
--------------------------------------|---------------------|
--------------------------------------|---------------------|
--------------------------------------|--11b----------------|
--0--0--0--1--0--0--0--0--0--1--0--0--|---x-----------------|
--0--0--0--1--0--0--0--0--0--1--0--0--|---9b----------------|
--0--0--0--1--0--0--0--0--0--1--0--0--|---0-----------------|

                          PM PM    PM PM    PM PM    PM PM  
  W                    E  S  S  E  S  S  E  S  S  E  S  S   
--------------------|--------------------------------------|
--------------------|--------------------------------------|
--------------------|--------------------------------------|
--9b----------------|--------------------------------------|
--x-----------------|--0--0--0--1--0--0--0--0--0--1--0--0--|
--7b----------------|--0--0--0--1--0--0--0--0--0--1--0--0--|
--0-----------------|--0--0--0--1--0--0--0--0--0--1--0--0--|

     PM PM    PM PM    PM PM    PM PM                        
  E  S  S  E  S  S  E  S  S  E  S  S      W                  
--------------------------------------|---------------------|
--------------------------------------|---------------------|
--------------------------------------|---------------------|
--------------------------------------|--11b----------------|
--0--0--0--1--0--0--0--0--0--1--0--0--|---x-----------------|
--0--0--0--1--0--0--0--0--0--1--0--0--|---9b----------------|
--0--0--0--1--0--0--0--0--0--1--0--0--|---0-----------------|

                          PM PM    PM PM    PM PM    PM PM  
  W                    E  S  S  E  S  S  E  S  S  E  S  S   
--------------------|--------------------------------------|
--------------------|--------------------------------------|
--------------------|--------------------------------------|
--9b----------------|--------------------------------------|
--x-----------------|--0--0--0--1--0--0--0--0--0--1--0--0--|
--7b----------------|--0--0--0--1--0--0--0--0--0--1--0--0--|
--0-----------------|--0--0--0--1--0--0--0--0--0--1--0--0--|

     PM PM    PM PM    PM PM    PM PM       PM PM    PM PM    PM PM    PM PM  
  E  S  S  E  S  S  E  S  S  E  S  S     E  S  S  E  S  S  E  S  S  E  S  S   
--------------------------------------|--------------------------------------|
--------------------------------------|--------------------------------------|
--------------------------------------|--------------------------------------|
--------------------------------------|--------------------------------------|
--0--0--0--1--0--0--0--0--0--1--0--0--|--0--0--0--1--0--0--0--0--0--1--0--0--|
--0--0--0--1--0--0--0--0--0--1--0--0--|--0--0--0--1--0--0--0--0--0--1--0--0--|
--0--0--0--1--0--0--0--0--0--1--0--0--|--0--0--0--1--0--0--0--0--0--1--0--0--|

     PM PM    PM PM    PM PM    PM PM                             
  E  S  S  E  S  S  E  S  S  E  S  S     E  E  E  E  E  E  E  E   
--------------------------------------|--------------------------|
--------------------------------------|--------------------------|
--------------------------------------|--------------------------|
--------------------------------------|--------------------------|
--0--0--0--1--0--0--0--0--0--1--0--0--|--------------------------|
--0--0--0--1--0--0--0--0--0--1--0--0--|--------------------------|
--0--0--0--1--0--0--0--0--0--1--0--0--|--2--2--2--2--0--0--1--1--|

  E  E  E  E  E  E  E  E     E  E  E  E  E  E  E  E   
--------------------------|--------------------------|
--------------------------|--------------------------|
--------------------------|--------------------------|
--------------------------|--------------------------|
--------------------------|--------------------------|
--------------------------|--------------------------|
--2--2--2--2--0--0--1--1--|--2--2--2--2--2--2--2--2--|

                             ^  v  ^  v  ^  v  ^  v   
  E  E  E  E  E  E  E  E     E  E  E  E  E  E  E  E   
--------------------------|--------------------------|
--------------------------|--------------------------|
--------------------------|--5--5--5--5--7--7--7--7--|
--------------------------|--x--x--x--x--x--x--x--x--|
--------------------------|--3--3--3--3--5--5--5--5--|
--------------------------|--------------------------|
--3--3--3--3--3--3--3--3--|--------------------------|

  ^  v  ^  v  ^  v  ^  v     ^  v  ^  v  ^  v  ^  v   
  E  E  E  E  E  E  E  E     E  E  E  E  E  E  E  E   
--------------------------|--------------------------|
--5--5--5--5--7--7--7--7--|--3--3--3--3--3--3--3--3--|
--x--x--x--x--x--x--x--x--|--0--0--0--0--0--0--0--0--|
--3--3--3--3--5--5--5--5--|--0--0--0--0--0--0--0--0--|
--------------------------|--2--2--2--2--2--2--2--2--|
--------------------------|--------------------------|
--------------------------|--------------------------|

  ^  v  ^  v  ^  v  ^  v     ^  v  ^  v  ^  v  ^  v   
  E  E  E  E  E  E  E  E     E  E  E  E  E  E  E  E   
--------------------------|--------------------------|
--3--3--3--3--------------|--------------------------|
--x--x--x--x--3--3--3--3--|--5--5--5--5--7--7--7--7--|
--1--1--1--1--x--x--x--x--|--x--x--x--x--x--x--x--x--|
--------------1--1--1--1--|--3--3--3--3--5--5--5--5--|
--------------------------|--------------------------|
--------------------------|--------------------------|

  ^  v  ^  v  ^  v  ^  v     ^  v  ^  v  ^  v  ^  v   
  E  E  E  E  E  E  E  E     E  E  E  E  E  E  E  E   
--------------------------|--------------------------|
--5--5--5--5--7--7--7--7--|--3--3--3--3--3--3--3--3--|
--x--x--x--x--x--x--x--x--|--0--0--0--0--0--0--0--0--|
--3--3--3--3--5--5--5--5--|--0--0--0--0--0--0--0--0--|
--------------------------|--2--2--2--2--2--2--2--2--|
--------------------------|--------------------------|
--------------------------|--------------------------|

  ^  v  ^  v  ^  v  ^  v     ^  v  ^  v  ^  v  ^  v     ^                 
  E  E  E  E  E  E  E  E     E  E  E  E  E  E  E  E     W                 
--------------------------|--------------------------|-------------------|
--3--3--3--3--3--3--3--3--|--3--3--3--3--3--3--3--3--|-------------------|
--0--0--0--0--0--0--0--0--|--x--x--x--x--x--x--x--x--|--3----------------|
--0--0--0--0--0--0--0--0--|--1--1--1--1--1--1--1--1--|--x----------------|
--2--2--2--2--2--2--2--2--|--------------------------|--1----------------|
--------------------------|--------------------------|--0----------------|
--------------------------|--------------------------|-------------------|

     PM PM    PM PM    PM PM    PM PM       PM PM    PM PM    PM PM    PM PM  
  E  S  S  E  S  S  E  S  S  E  S  S     E  S  S  E  S  S  E  S  S  E  S  S   
--------------------------------------|--------------------------------------|
--------------------------------------|--------------------------------------|
--------------------------------------|--------------------------------------|
--------------------------------------|--------------------------------------|
--0--0--0--1--0--0--0--0--0--1--0--0--|--0--0--0--1--0--0--0--0--0--1--0--0--|
--0--0--0--1--0--0--0--0--0--1--0--0--|--0--0--0--1--0--0--0--0--0--1--0--0--|
--0--0--0--1--0--0--0--0--0--1--0--0--|--0--0--0--1--0--0--0--0--0--1--0--0--|

     PM PM    PM PM    PM PM    PM PM       PM PM    PM PM    PM PM    PM PM  
  E  S  S  E  S  S  E  S  S  E  S  S     E  S  S  E  S  S  E  S  S  E  S  S   
--------------------------------------|--------------------------------------|
--------------------------------------|--------------------------------------|
--------------------------------------|--------------------------------------|
--------------------------------------|--------------------------------------|
--0--0--0--1--0--0--0--0--0--1--0--0--|--0--0--0--1--0--0--0--0--0--1--0--0--|
--0--0--0--1--0--0--0--0--0--1--0--0--|--0--0--0--1--0--0--0--0--0--1--0--0--|
--0--0--0--1--0--0--0--0--0--1--0--0--|--0--0--0--1--0--0--0--0--0--1--0--0--|

   W                    W                  
---------------------|--------------------|
---------------------|--------------------|
---------------------|--------------------|
--11b----------------|--9b----------------|
---x-----------------|--x-----------------|
---9b----------------|--7b----------------|
---0-----------------|--0-----------------|

     PM PM    PM PM    PM PM    PM PM       PM PM    PM PM    PM PM    PM PM  
  E  S  S  E  S  S  E  S  S  E  S  S     E  S  S  E  S  S  E  S  S  E  S  S   
--------------------------------------|--------------------------------------|
--------------------------------------|--------------------------------------|
--------------------------------------|--------------------------------------|
--------------------------------------|--------------------------------------|
--0--0--0--1--0--0--0--0--0--1--0--0--|--0--0--0--1--0--0--0--0--0--1--0--0--|
--0--0--0--1--0--0--0--0--0--1--0--0--|--0--0--0--1--0--0--0--0--0--1--0--0--|
--0--0--0--1--0--0--0--0--0--1--0--0--|--0--0--0--1--0--0--0--0--0--1--0--0--|

   W                    W                  
---------------------|--------------------|
---------------------|--------------------|
---------------------|--------------------|
--11b----------------|--9b----------------|
---x-----------------|--x-----------------|
---9b----------------|--7b----------------|
---0-----------------|--0-----------------|

     PM PM    PM PM    PM PM    PM PM       PM PM    PM PM    PM PM    PM PM  
  E  S  S  E  S  S  E  S  S  E  S  S     E  S  S  E  S  S  E  S  S  E  S  S   
--------------------------------------|--------------------------------------|
--------------------------------------|--------------------------------------|
--------------------------------------|--------------------------------------|
--------------------------------------|--------------------------------------|
--0--0--0--1--0--0--0--0--0--1--0--0--|--0--0--0--1--0--0--0--0--0--1--0--0--|
--0--0--0--1--0--0--0--0--0--1--0--0--|--0--0--0--1--0--0--0--0--0--1--0--0--|
--0--0--0--1--0--0--0--0--0--1--0--0--|--0--0--0--1--0--0--0--0--0--1--0--0--|

   W                    W                  
---------------------|--------------------|
---------------------|--------------------|
---------------------|--------------------|
--11b----------------|--9b----------------|
---x-----------------|--x-----------------|
---9b----------------|--7b----------------|
---0-----------------|--0-----------------|

     PM PM    PM PM    PM PM    PM PM       PM PM    PM PM    PM PM    PM PM  
  E  S  S  E  S  S  E  S  S  E  S  S     E  S  S  E  S  S  E  S  S  E  S  S   
--------------------------------------|--------------------------------------|
--------------------------------------|--------------------------------------|
--------------------------------------|--------------------------------------|
--------------------------------------|--------------------------------------|
--0--0--0--1--0--0--0--0--0--1--0--0--|--0--0--0--1--0--0--0--0--0--1--0--0--|
--0--0--0--1--0--0--0--0--0--1--0--0--|--0--0--0--1--0--0--0--0--0--1--0--0--|
--0--0--0--1--0--0--0--0--0--1--0--0--|--0--0--0--1--0--0--0--0--0--1--0--0--|

   W                    W                  
---------------------|--------------------|
---------------------|--------------------|
---------------------|--------------------|
--11b----------------|--9b----------------|
---x-----------------|--x-----------------|
---9b----------------|--7b----------------|
---0-----------------|--0-----------------|

     PM PM    PM PM    PM PM    PM PM       PM PM    PM PM    PM PM    PM PM  
  E  S  S  E  S  S  E  S  S  E  S  S     E  S  S  E  S  S  E  S  S  E  S  S   
--------------------------------------|--------------------------------------|
--------------------------------------|--------------------------------------|
--------------------------------------|--------------------------------------|
--------------------------------------|--------------------------------------|
--0--0--0--1--0--0--0--0--0--1--0--0--|--0--0--0--1--0--0--0--0--0--1--0--0--|
--0--0--0--1--0--0--0--0--0--1--0--0--|--0--0--0--1--0--0--0--0--0--1--0--0--|
--0--0--0--1--0--0--0--0--0--1--0--0--|--0--0--0--1--0--0--0--0--0--1--0--0--|

     PM PM    PM PM    PM PM    PM PM       PM PM    PM PM    PM PM    PM PM  
  E  S  S  E  S  S  E  S  S  E  S  S     E  S  S  E  S  S  E  S  S  E  S  S   
--------------------------------------|--------------------------------------|
--------------------------------------|--------------------------------------|
--------------------------------------|--------------------------------------|
--------------------------------------|--------------------------------------|
--0--0--0--1--0--0--0--0--0--1--0--0--|--0--0--0--1--0--0--0--0--0--1--0--0--|
--0--0--0--1--0--0--0--0--0--1--0--0--|--0--0--0--1--0--0--0--0--0--1--0--0--|
--0--0--0--1--0--0--0--0--0--1--0--0--|--0--0--0--1--0--0--0--0--0--1--0--0--|

  E  E  E  E  E  E  E  E     E  E  E  E  E  E  E  E   
--------------------------|--------------------------|
--------------------------|--------------------------|
--------------------------|--------------------------|
--------------------------|--------------------------|
--------------------------|--------------------------|
--------------------------|--------------------------|
--2--2--2--2--0--0--1--1--|--2--2--2--2--0--0--1--1--|

  E  E  E  E  E  E  E  E     E  E  E  E  E  E  E  E   
--------------------------|--------------------------|
--------------------------|--------------------------|
--------------------------|--------------------------|
--------------------------|--------------------------|
--------------------------|--------------------------|
--------------------------|--------------------------|
--2--2--2--2--2--2--2--2--|--3--3--3--3--3--3--3--3--|

  ^  v  ^  v  ^  v  ^  v     ^  v  ^  v  ^  v  ^  v   
  E  E  E  E  E  E  E  E     E  E  E  E  E  E  E  E   
--------------------------|--------------------------|
--------------------------|--5--5--5--5--7--7--7--7--|
--5--5--5--5--7--7--7--7--|--x--x--x--x--x--x--x--x--|
--x--x--x--x--x--x--x--x--|--3--3--3--3--5--5--5--5--|
--3--3--3--3--5--5--5--5--|--------------------------|
--------------------------|--------------------------|
--------------------------|--------------------------|

  ^  v  ^  v  ^  v  ^  v     ^  v  ^  v  ^  v  ^  v   
  E  E  E  E  E  E  E  E     E  E  E  E  E  E  E  E   
--------------------------|--------------------------|
--3--3--3--3--3--3--3--3--|--3--3--3--3--------------|
--0--0--0--0--0--0--0--0--|--x--x--x--x--3--3--3--3--|
--0--0--0--0--0--0--0--0--|--1--1--1--1--x--x--x--x--|
--2--2--2--2--2--2--2--2--|--------------1--1--1--1--|
--------------------------|--------------------------|
--------------------------|--------------------------|

  ^  v  ^  v  ^  v  ^  v     ^  v  ^  v  ^  v  ^  v   
  E  E  E  E  E  E  E  E     E  E  E  E  E  E  E  E   
--------------------------|--------------------------|
--------------------------|--5--5--5--5--7--7--7--7--|
--5--5--5--5--7--7--7--7--|--x--x--x--x--x--x--x--x--|
--x--x--x--x--x--x--x--x--|--3--3--3--3--5--5--5--5--|
--3--3--3--3--5--5--5--5--|--------------------------|
--------------------------|--------------------------|
--------------------------|--------------------------|

  ^  v  ^  v  ^  v  ^  v     ^  v  ^  v  ^  v  ^  v   
  E  E  E  E  E  E  E  E     E  E  E  E  E  E  E  E   
--------------------------|--------------------------|
--3--3--3--3--3--3--3--3--|--3--3--3--3--3--3--3--3--|
--0--0--0--0--0--0--0--0--|--0--0--0--0--0--0--0--0--|
--0--0--0--0--0--0--0--0--|--0--0--0--0--0--0--0--0--|
--2--2--2--2--2--2--2--2--|--2--2--2--2--2--2--2--2--|
--------------------------|--------------------------|
--------------------------|--------------------------|

  ^  v  ^  v  ^  v  ^  v     ^  v  ^  v  ^  v  ^  v   
  E  E  E  E  E  E  E  E     E  E  E  E  E  E  E  E   
--------------------------|--------------------------|
--3--3--3--3--3--3--3--3--|--------------------------|
--x--x--x--x--x--x--x--x--|--3--3--3--3--3--3--3--3--|
--1--1--1--1--1--1--1--1--|--x--x--x--x--x--x--x--x--|
--------------------------|--1--1--1--1--1--1--1--1--|
--------------------------|--------------------------|
--------------------------|--------------------------|

  ^  v  ^  v  ^  v  ^  v     ^  v  ^  v  ^  v  ^  v   
  E  E  E  E  E  E  E  E     E  E  E  E  E  E  E  E   
--------------------------|--------------------------|
--------------------------|--5--5--5--5--7--7--7--7--|
--5--5--5--5--7--7--7--7--|--x--x--x--x--x--x--x--x--|
--x--x--x--x--x--x--x--x--|--3--3--3--3--5--5--5--5--|
--3--3--3--3--5--5--5--5--|--------------------------|
--------------------------|--------------------------|
--------------------------|--------------------------|

  ^  v  ^  v  ^  v  ^  v     ^  v  ^  v  ^  v  ^  v   
  E  E  E  E  E  E  E  E     E  E  E  E  E  E  E  E   
--------------------------|--------------------------|
--3--3--3--3--3--3--3--3--|--3--3--3--3--------------|
--0--0--0--0--0--0--0--0--|--x--x--x--x--3--3--3--3--|
--0--0--0--0--0--0--0--0--|--1--1--1--1--x--x--x--x--|
--2--2--2--2--2--2--2--2--|--------------1--1--1--1--|
--------------------------|--------------------------|
--------------------------|--------------------------|

  ^  v  ^  v  ^  v  ^  v     ^  v  ^  v  ^  v  ^  v   
  E  E  E  E  E  E  E  E     E  E  E  E  E  E  E  E   
--------------------------|--------------------------|
--------------------------|--5--5--5--5--7--7--7--7--|
--5--5--5--5--7--7--7--7--|--x--x--x--x--x--x--x--x--|
--x--x--x--x--x--x--x--x--|--3--3--3--3--5--5--5--5--|
--3--3--3--3--5--5--5--5--|--------------------------|
--------------------------|--------------------------|
--------------------------|--------------------------|

  ^  v  ^  v  ^  v  ^  v     ^  v  ^  v  ^  v  ^  v   
  E  E  E  E  E  E  E  E     E  E  E  E  E  E  E  E   
--------------------------|--------------------------|
--3--3--3--3--3--3--3--3--|--3--3--3--3--3--3--3--3--|
--0--0--0--0--0--0--0--0--|--0--0--0--0--0--0--0--0--|
--0--0--0--0--0--0--0--0--|--0--0--0--0--0--0--0--0--|
--2--2--2--2--2--2--2--2--|--2--2--2--2--2--2--2--2--|
--------------------------|--------------------------|
--------------------------|--------------------------|

  ^  v  ^  v  ^  v  ^  v     ^                      PM PM    PM PM     
  E  E  E  E  E  E  E  E     W                   E  S  S  E  S  S  E   
--------------------------|-------------------|-----------------------|
--3--3--3--3--3--3--3--3--|-------------------|-----------------------|
--x--x--x--x--x--x--x--x--|--3----------------|-----------------------|
--1--1--1--1--1--1--1--1--|--x----------------|-----------------------|
--------------------------|--1----------------|--0--0--0--1--0--0--0--|
--------------------------|--0----------------|--0--0--0--1--0--0--0--|
--------------------------|-------------------|--0--0--0--1--0--0--0--|

     PM PM    PM PM          PM PM    PM PM    PM PM    PM PM  
  E  S  S  E  S  S  E     E  S  S  E  S  S  E  S  S  E  S  S   
-----------------------|--------------------------------------|
-----------------------|--------------------------------------|
-----------------------|--------------------------------------|
-----------------------|--------------------------------------|
--0--0--0--1--0--0--0--|--0--0--0--1--0--0--0--0--0--1--0--0--|
--0--0--0--1--0--0--0--|--0--0--0--1--0--0--0--0--0--1--0--0--|
--0--0--0--1--0--0--0--|--0--0--0--1--0--0--0--0--0--1--0--0--|

     PM PM                 PM PM    PM PM          PM PM    PM PM     
  E  S  S  S S S S S    E  S  S  E  S  S  E     E  S  S  E  S  S  E   
---------------------|-----------------------|-----------------------|
---------------------|-----------------------|-----------------------|
---------------------|-----------------------|-----------------------|
---------------------|-----------------------|-----------------------|
--0--0--0--1-1-1-1-0-|--0--0--0--1--0--0--0--|--0--0--0--1--0--0--0--|
--0--0--0--1-1-1-1-0-|--0--0--0--1--0--0--0--|--0--0--0--1--0--0--0--|
--0--0--0--1-1-1-1-0-|--0--0--0--1--0--0--0--|--0--0--0--1--0--0--0--|

     PM PM    PM PM    PM PM    PM PM       PM PM            
  E  S  S  E  S  S  E  S  S  E  S  S     E  S  S  S S S S S  
--------------------------------------|---------------------|
--------------------------------------|---------------------|
--------------------------------------|---------------------|
--------------------------------------|---------------------|
--0--0--0--1--0--0--0--0--0--1--0--0--|--0--0--0--1-1-1-1-0-|
--0--0--0--1--0--0--0--0--0--1--0--0--|--0--0--0--1-1-1-1-0-|
--0--0--0--1--0--0--0--0--0--1--0--0--|--0--0--0--1-1-1-1-0-|

     PM PM    PM PM          PM PM    PM PM     
  E  S  S  E  S  S  E     E  S  S  E  S  S  E   
-----------------------|-----------------------|
-----------------------|-----------------------|
-----------------------|-----------------------|
-----------------------|-----------------------|
--0--0--0--1--0--0--0--|--0--0--0--1--0--0--0--|
--0--0--0--1--0--0--0--|--0--0--0--1--0--0--0--|
--0--0--0--1--0--0--0--|--0--0--0--1--0--0--0--|

     PM PM    PM PM    PM PM    PM PM       PM PM            
  E  S  S  E  S  S  E  S  S  E  S  S     E  S  S  S S S S S  
--------------------------------------|---------------------|
--------------------------------------|---------------------|
--------------------------------------|---------------------|
--------------------------------------|---------------------|
--0--0--0--1--0--0--0--0--0--1--0--0--|--0--0--0--1-1-1-1-0-|
--0--0--0--1--0--0--0--0--0--1--0--0--|--0--0--0--1-1-1-1-0-|
--0--0--0--1--0--0--0--0--0--1--0--0--|--0--0--0--1-1-1-1-0-|

     PM PM    PM PM          PM PM    PM PM     
  E  S  S  E  S  S  E     E  S  S  E  S  S  E   
-----------------------|-----------------------|
-----------------------|-----------------------|
-----------------------|-----------------------|
-----------------------|-----------------------|
--0--0--0--1--0--0--0--|--0--0--0--1--0--0--0--|
--0--0--0--1--0--0--0--|--0--0--0--1--0--0--0--|
--0--0--0--1--0--0--0--|--0--0--0--1--0--0--0--|

     PM PM    PM PM    PM PM    PM PM       PM PM            
  E  S  S  E  S  S  E  S  S  E  S  S     E  S  S  S S S S S  
--------------------------------------|---------------------|
--------------------------------------|---------------------|
--------------------------------------|---------------------|
--------------------------------------|---------------------|
--0--0--0--1--0--0--0--0--0--1--0--0--|--0--0--0--1-1-1-1-0-|
--0--0--0--1--0--0--0--0--0--1--0--0--|--0--0--0--1-1-1-1-0-|
--0--0--0--1--0--0--0--0--0--1--0--0--|--0--0--0--1-1-1-1-0-|

  ^  v  ^  v                 ^  v  ^  v               
  E  E  E  E  E  E  E  E     E  E  E  E  E  E  E  E   
--------------------------|--------------------------|
--------------------------|--------------------------|
--------------------------|--------------------------|
--------------------------|--------------------------|
--2--2--2--2--x--x--x--x--|--2--2--2--2--x--x--x--x--|
--2--2--2--2--x--x--x--x--|--2--2--2--2--x--x--x--x--|
--0--0--0--0--x--x--x--x--|--0--0--0--0--x--x--x--x--|

  ^  v  ^  v                 ^  v  ^  v  ^  v  ^  v   
  E  E  E  E  E  E  E  E     E  E  E  E  E  E  E  E   
--------------------------|--------------------------|
--------------------------|--------------------------|
--------------------------|--------------------------|
--------------------------|--------------------------|
--5--5--5--5--x--x--x--x--|--5--5--5--5--7--7--7--7--|
--5--5--5--5--x--x--x--x--|--5--5--5--5--7--7--7--7--|
--3--3--3--3--x--x--x--x--|--3--3--3--3--5--5--5--5--|

  ^  v  ^  v                 ^  v  ^  v               
  E  E  E  E  E  E  E  E     E  E  E  E  E  E  E  E   
--------------------------|--------------------------|
--------------------------|--------------------------|
--------------------------|--------------------------|
--------------------------|--------------------------|
--2--2--2--2--x--x--x--x--|--2--2--2--2--x--x--x--x--|
--2--2--2--2--x--x--x--x--|--2--2--2--2--x--x--x--x--|
--0--0--0--0--x--x--x--x--|--0--0--0--0--x--x--x--x--|

  ^  v  ^  v                 ^  v  ^  v  ^  v  ^  v   
  E  E  E  E  E  E  E  E     E  E  E  E  E  E  E  E   
--------------------------|--------------------------|
--------------------------|--------------------------|
--------------------------|--------------------------|
--------------------------|--------------------------|
--5--5--5--5--x--x--x--x--|--5--5--5--5--3--3--3--3--|
--5--5--5--5--x--x--x--x--|--5--5--5--5--3--3--3--3--|
--3--3--3--3--x--x--x--x--|--3--3--3--3--1--1--1--1--|

  ^  v  ^  v                 ^  v  ^  v               
  E  E  E  E  E  E  E  E     E  E  E  E  E  E  E  E   
--------------------------|--------------------------|
--------------------------|--------------------------|
--------------------------|--------------------------|
--------------------------|--------------------------|
--2--2--2--2--x--x--x--x--|--2--2--2--2--x--x--x--x--|
--2--2--2--2--x--x--x--x--|--2--2--2--2--x--x--x--x--|
--0--0--0--0--x--x--x--x--|--0--0--0--0--x--x--x--x--|

  ^  v  ^  v                 ^  v  ^  v  ^  v  ^  v   
  E  E  E  E  E  E  E  E     E  E  E  E  E  E  E  E   
--------------------------|--------------------------|
--------------------------|--------------------------|
--------------------------|--------------------------|
--------------------------|--------------------------|
--5--5--5--5--x--x--x--x--|--5--5--5--5--7--7--7--7--|
--5--5--5--5--x--x--x--x--|--5--5--5--5--7--7--7--7--|
--3--3--3--3--x--x--x--x--|--3--3--3--3--5--5--5--5--|

  ^  v  ^  v                 ^  v  ^  v               
  E  E  E  E  E  E  E  E     E  E  E  E  E  E  E  E   
--------------------------|--------------------------|
--------------------------|--------------------------|
--------------------------|--------------------------|
--------------------------|--------------------------|
--2--2--2--2--x--x--x--x--|--2--2--2--2--x--x--x--x--|
--2--2--2--2--x--x--x--x--|--2--2--2--2--x--x--x--x--|
--0--0--0--0--x--x--x--x--|--0--0--0--0--x--x--x--x--|

  ^  v  ^  v                 ^  v  ^  v  ^  v  ^  v   
  E  E  E  E  E  E  E  E     E  E  E  E  E  E  E  E   
--------------------------|--------------------------|
--------------------------|--------------------------|
--------------------------|--------------------------|
--------------------------|--------------------------|
--5--5--5--5--x--x--x--x--|--5--5--5--5--3--3--3--3--|
--5--5--5--5--x--x--x--x--|--5--5--5--5--3--3--3--3--|
--3--3--3--3--x--x--x--x--|--3--3--3--3--1--1--1--1--|

  ^  v  ^  v  ^  v  ^  v     ^  v  ^  v  ^  v  ^  v   
  E  E  E  E  E  E  E  E     E  E  E  E  E  E  E  E   
--------------------------|--------------------------|
--------------------------|--5--5--5--5--7--7--7--7--|
--5--5--5--5--7--7--7--7--|--x--x--x--x--x--x--x--x--|
--x--x--x--x--x--x--x--x--|--3--3--3--3--5--5--5--5--|
--3--3--3--3--5--5--5--5--|--------------------------|
--------------------------|--------------------------|
--------------------------|--------------------------|

  ^  v  ^  v  ^  v  ^  v     ^  v  ^  v  ^  v  ^  v   
  E  E  E  E  E  E  E  E     E  E  E  E  E  E  E  E   
--------------------------|--------------------------|
--3--3--3--3--3--3--3--3--|--3--3--3--3--------------|
--0--0--0--0--0--0--0--0--|--x--x--x--x--3--3--3--3--|
--0--0--0--0--0--0--0--0--|--1--1--1--1--x--x--x--x--|
--2--2--2--2--2--2--2--2--|--------------1--1--1--1--|
--------------------------|--------------------------|
--------------------------|--------------------------|

  ^  v  ^  v  ^  v  ^  v     ^  v  ^  v  ^  v  ^  v   
  E  E  E  E  E  E  E  E     E  E  E  E  E  E  E  E   
--------------------------|--------------------------|
--------------------------|--5--5--5--5--7--7--7--7--|
--5--5--5--5--7--7--7--7--|--x--x--x--x--x--x--x--x--|
--x--x--x--x--x--x--x--x--|--3--3--3--3--5--5--5--5--|
--3--3--3--3--5--5--5--5--|--------------------------|
--------------------------|--------------------------|
--------------------------|--------------------------|

  ^  v  ^  v  ^  v  ^  v     ^  v  ^  v  ^  v  ^  v   
  E  E  E  E  E  E  E  E     E  E  E  E  E  E  E  E   
--------------------------|--------------------------|
--3--3--3--3--3--3--3--3--|--3--3--3--3--3--3--3--3--|
--0--0--0--0--0--0--0--0--|--0--0--0--0--0--0--0--0--|
--0--0--0--0--0--0--0--0--|--0--0--0--0--0--0--0--0--|
--2--2--2--2--2--2--2--2--|--2--2--2--2--2--2--2--2--|
--------------------------|--------------------------|
--------------------------|--------------------------|

  ^  v  ^  v  ^  v  ^  v     ^  v  ^  v  ^  v  ^  v   
  E  E  E  E  E  E  E  E     E  E  E  E  E  E  E  E   
--------------------------|--------------------------|
--3--3--3--3--3--3--3--3--|--------------------------|
--x--x--x--x--x--x--x--x--|--3--3--3--3--3--3--3--3--|
--1--1--1--1--1--1--1--1--|--x--x--x--x--x--x--x--x--|
--------------------------|--1--1--1--1--1--1--1--1--|
--------------------------|--------------------------|
--------------------------|--------------------------|

  ^  v  ^  v  ^  v  ^  v     ^  v  ^  v  ^  v  ^  v   
  E  E  E  E  E  E  E  E     E  E  E  E  E  E  E  E   
--------------------------|--------------------------|
--------------------------|--5--5--5--5--7--7--7--7--|
--5--5--5--5--7--7--7--7--|--x--x--x--x--x--x--x--x--|
--x--x--x--x--x--x--x--x--|--3--3--3--3--5--5--5--5--|
--3--3--3--3--5--5--5--5--|--------------------------|
--------------------------|--------------------------|
--------------------------|--------------------------|

  ^  v  ^  v  ^  v  ^  v     ^  v  ^  v  ^  v  ^  v   
  E  E  E  E  E  E  E  E     E  E  E  E  E  E  E  E   
--------------------------|--------------------------|
--3--3--3--3--3--3--3--3--|--3--3--3--3--------------|
--0--0--0--0--0--0--0--0--|--x--x--x--x--3--3--3--3--|
--0--0--0--0--0--0--0--0--|--1--1--1--1--x--x--x--x--|
--2--2--2--2--2--2--2--2--|--------------1--1--1--1--|
--------------------------|--------------------------|
--------------------------|--------------------------|

  ^  v  ^  v  ^  v  ^  v     ^  v  ^  v  ^  v  ^  v   
  E  E  E  E  E  E  E  E     E  E  E  E  E  E  E  E   
--------------------------|--------------------------|
--------------------------|--5--5--5--5--7--7--7--7--|
--5--5--5--5--7--7--7--7--|--x--x--x--x--x--x--x--x--|
--x--x--x--x--x--x--x--x--|--3--3--3--3--5--5--5--5--|
--3--3--3--3--5--5--5--5--|--------------------------|
--------------------------|--------------------------|
--------------------------|--------------------------|

  ^  v  ^  v  ^  v  ^  v     ^  v  ^  v  ^  v  ^  v   
  E  E  E  E  E  E  E  E     E  E  E  E  E  E  E  E   
--------------------------|--------------------------|
--3--3--3--3--3--3--3--3--|--3--3--3--3--3--3--3--3--|
--0--0--0--0--0--0--0--0--|--0--0--0--0--0--0--0--0--|
--0--0--0--0--0--0--0--0--|--0--0--0--0--0--0--0--0--|
--2--2--2--2--2--2--2--2--|--2--2--2--2--2--2--2--2--|
--------------------------|--------------------------|
--------------------------|--------------------------|

  ^  v  ^  v  ^  v  ^  v     ^                 
  E  E  E  E  E  E  E  E     W                 
--------------------------|-------------------|
--3--3--3--3--3--3--3--3--|-------------------|
--x--x--x--x--x--x--x--x--|--3----------------|
--1--1--1--1--1--1--1--1--|--x----------------|
--------------------------|--1----------------|
--------------------------|--0----------------|
--------------------------|-------------------|

     PM PM    PM PM    PM PM    PM PM       PM PM    PM PM    PM PM    PM PM  
  E  S  S  E  S  S  E  S  S  E  S  S     E  S  S  E  S  S  E  S  S  E  S  S   
--------------------------------------|--------------------------------------|
--------------------------------------|--------------------------------------|
--------------------------------------|--------------------------------------|
--------------------------------------|--------------------------------------|
--0--0--0--1--0--0--0--0--0--1--0--0--|--0--0--0--1--0--0--0--0--0--1--0--0--|
--0--0--0--1--0--0--0--0--0--1--0--0--|--0--0--0--1--0--0--0--0--0--1--0--0--|
--0--0--0--1--0--0--0--0--0--1--0--0--|--0--0--0--1--0--0--0--0--0--1--0--0--|

     PM PM    PM PM    PM PM    PM PM       PM PM    PM PM    PM PM    PM PM   
  E  S  S  E  S  S  E  S  S  E  S  S     E  S  S  E  S  S  E  S  S  E  S  S    
--------------------------------------|--------------------------------------||
--------------------------------------|--------------------------------------||
--------------------------------------|--------------------------------------||
--------------------------------------|--------------------------------------||
--0--0--0--1--0--0--0--0--0--1--0--0--|--0--0--0--1--0--0--0--0--0--1--0--0--||
--0--0--0--1--0--0--0--0--0--1--0--0--|--0--0--0--1--0--0--0--0--0--1--0--0--||
--0--0--0--1--0--0--0--0--0--1--0--0--|--0--0--0--1--0--0--0--0--0--1--0--0--||

Rhythm Guitar

                PM PM    PM PM    PM PM    PM PM  
             E  S  S  E  S  S  E  S  S  E  S  S   
D||-------|--------------------------------------|
A||-------|--------------------------------------|
F||-------|--------------------------------------|
C||-------|--------------------------------------|
G||-------|--0--0--0--1--0--0--0--0--0--1--0--0--|
C||-------|--0--0--0--1--0--0--0--0--0--1--0--0--|
B||-------|--0--0--0--1--0--0--0--0--0--1--0--0--|

     PM PM    PM PM    PM PM    PM PM       PM PM    PM PM    PM PM    PM PM  
  E  S  S  E  S  S  E  S  S  E  S  S     E  S  S  E  S  S  E  S  S  E  S  S   
--------------------------------------|--------------------------------------|
--------------------------------------|--------------------------------------|
--------------------------------------|--------------------------------------|
--------------------------------------|--------------------------------------|
--0--0--0--1--0--0--0--0--0--1--0--0--|--0--0--0--1--0--0--0--0--0--1--0--0--|
--0--0--0--1--0--0--0--0--0--1--0--0--|--0--0--0--1--0--0--0--0--0--1--0--0--|
--0--0--0--1--0--0--0--0--0--1--0--0--|--0--0--0--1--0--0--0--0--0--1--0--0--|

     PM PM    PM PM    PM PM    PM PM                                           
  E  S  S  E  S  S  E  S  S  E  S  S      W                   W                 
--------------------------------------|--------------------|-------------------|
--------------------------------------|--------------------|-------------------|
--------------------------------------|--------------------|-------------------|
--------------------------------------|--11----------------|--9----------------|
--0--0--0--1--0--0--0--0--0--1--0--0--|---x----------------|--x----------------|
--0--0--0--1--0--0--0--0--0--1--0--0--|---9----------------|--7----------------|
--0--0--0--1--0--0--0--0--0--1--0--0--|---0----------------|--0----------------|

     PM PM    PM PM    PM PM    PM PM       PM PM    PM PM    PM PM    PM PM  
  E  S  S  E  S  S  E  S  S  E  S  S     E  S  S  E  S  S  E  S  S  E  S  S   
--------------------------------------|--------------------------------------|
--------------------------------------|--------------------------------------|
--------------------------------------|--------------------------------------|
--------------------------------------|--------------------------------------|
--0--0--0--1--0--0--0--0--0--1--0--0--|--0--0--0--1--0--0--0--0--0--1--0--0--|
--0--0--0--1--0--0--0--0--0--1--0--0--|--0--0--0--1--0--0--0--0--0--1--0--0--|
--0--0--0--1--0--0--0--0--0--1--0--0--|--0--0--0--1--0--0--0--0--0--1--0--0--|

                                              PM PM    PM PM    PM PM    PM PM  
   W                   W                   E  S  S  E  S  S  E  S  S  E  S  S   
--------------------|-------------------|--------------------------------------|
--------------------|-------------------|--------------------------------------|
--------------------|-------------------|--------------------------------------|
--11----------------|--9----------------|--------------------------------------|
---x----------------|--x----------------|--0--0--0--1--0--0--0--0--0--1--0--0--|
---9----------------|--7----------------|--0--0--0--1--0--0--0--0--0--1--0--0--|
---0----------------|--0----------------|--0--0--0--1--0--0--0--0--0--1--0--0--|

     PM PM    PM PM    PM PM    PM PM                                           
  E  S  S  E  S  S  E  S  S  E  S  S      W                   W                 
--------------------------------------|--------------------|-------------------|
--------------------------------------|--------------------|-------------------|
--------------------------------------|--------------------|-------------------|
--------------------------------------|--11----------------|--9----------------|
--0--0--0--1--0--0--0--0--0--1--0--0--|---x----------------|--x----------------|
--0--0--0--1--0--0--0--0--0--1--0--0--|---9----------------|--7----------------|
--0--0--0--1--0--0--0--0--0--1--0--0--|---0----------------|--0----------------|

     PM PM    PM PM    PM PM    PM PM       PM PM    PM PM    PM PM    PM PM  
  E  S  S  E  S  S  E  S  S  E  S  S     E  S  S  E  S  S  E  S  S  E  S  S   
--------------------------------------|--------------------------------------|
--------------------------------------|--------------------------------------|
--------------------------------------|--------------------------------------|
--------------------------------------|--------------------------------------|
--0--0--0--1--0--0--0--0--0--1--0--0--|--0--0--0--1--0--0--0--0--0--1--0--0--|
--0--0--0--1--0--0--0--0--0--1--0--0--|--0--0--0--1--0--0--0--0--0--1--0--0--|
--0--0--0--1--0--0--0--0--0--1--0--0--|--0--0--0--1--0--0--0--0--0--1--0--0--|

                                              PM PM    PM PM    PM PM    PM PM  
   W                   W                   E  S  S  E  S  S  E  S  S  E  S  S   
--------------------|-------------------|--------------------------------------|
--------------------|-------------------|--------------------------------------|
--------------------|-------------------|--------------------------------------|
--11----------------|--9----------------|--------------------------------------|
---x----------------|--x----------------|--0--0--0--1--0--0--0--0--0--1--0--0--|
---9----------------|--7----------------|--0--0--0--1--0--0--0--0--0--1--0--0--|
---0----------------|--0----------------|--0--0--0--1--0--0--0--0--0--1--0--0--|

     PM PM    PM PM    PM PM    PM PM       PM PM    PM PM    PM PM    PM PM  
  E  S  S  E  S  S  E  S  S  E  S  S     E  S  S  E  S  S  E  S  S  E  S  S   
--------------------------------------|--------------------------------------|
--------------------------------------|--------------------------------------|
--------------------------------------|--------------------------------------|
--------------------------------------|--------------------------------------|
--0--0--0--1--0--0--0--0--0--1--0--0--|--0--0--0--1--0--0--0--0--0--1--0--0--|
--0--0--0--1--0--0--0--0--0--1--0--0--|--0--0--0--1--0--0--0--0--0--1--0--0--|
--0--0--0--1--0--0--0--0--0--1--0--0--|--0--0--0--1--0--0--0--0--0--1--0--0--|

     PM PM    PM PM    PM PM    PM PM                             
  E  S  S  E  S  S  E  S  S  E  S  S     E  E  E  E  E  E  E  E   
--------------------------------------|--------------------------|
--------------------------------------|--------------------------|
--------------------------------------|--------------------------|
--------------------------------------|--------------------------|
--0--0--0--1--0--0--0--0--0--1--0--0--|--------------------------|
--0--0--0--1--0--0--0--0--0--1--0--0--|--------------------------|
--0--0--0--1--0--0--0--0--0--1--0--0--|--2--2--2--2--0--0--1--1--|

  E  E  E  E  E  E  E  E     E  E  E  E  E  E  E  E   
--------------------------|--------------------------|
--------------------------|--------------------------|
--------------------------|--------------------------|
--------------------------|--------------------------|
--------------------------|--------------------------|
--------------------------|--------------------------|
--2--2--2--2--0--0--1--1--|--2--2--2--2--2--2--2--2--|

                             ^  v  ^  v  ^  v  ^  v   
  E  E  E  E  E  E  E  E     E  E  E  E  E  E  E  E   
--------------------------|--------------------------|
--------------------------|--------------------------|
--------------------------|--5--5--5--5--7--7--7--7--|
--------------------------|--x--x--x--x--x--x--x--x--|
--------------------------|--3--3--3--3--5--5--5--5--|
--------------------------|--------------------------|
--3--3--3--3--3--3--3--3--|--------------------------|

  ^  v  ^  v  ^  v  ^  v     ^  v  ^  v  ^  v  ^  v   
  E  E  E  E  E  E  E  E     E  E  E  E  E  E  E  E   
--------------------------|--------------------------|
--5--5--5--5--7--7--7--7--|--3--3--3--3--3--3--3--3--|
--x--x--x--x--x--x--x--x--|--0--0--0--0--0--0--0--0--|
--3--3--3--3--5--5--5--5--|--0--0--0--0--0--0--0--0--|
--------------------------|--2--2--2--2--2--2--2--2--|
--------------------------|--------------------------|
--------------------------|--------------------------|

  ^  v  ^  v  ^  v  ^  v     ^  v  ^  v  ^  v  ^  v   
  E  E  E  E  E  E  E  E     E  E  E  E  E  E  E  E   
--------------------------|--------------------------|
--3--3--3--3--------------|--------------------------|
--x--x--x--x--3--3--3--3--|--5--5--5--5--7--7--7--7--|
--1--1--1--1--x--x--x--x--|--x--x--x--x--x--x--x--x--|
--------------1--1--1--1--|--3--3--3--3--5--5--5--5--|
--------------------------|--------------------------|
--------------------------|--------------------------|

  ^  v  ^  v  ^  v  ^  v     ^  v  ^  v  ^  v  ^  v   
  E  E  E  E  E  E  E  E     E  E  E  E  E  E  E  E   
--------------------------|--------------------------|
--5--5--5--5--7--7--7--7--|--3--3--3--3--3--3--3--3--|
--x--x--x--x--x--x--x--x--|--0--0--0--0--0--0--0--0--|
--3--3--3--3--5--5--5--5--|--0--0--0--0--0--0--0--0--|
--------------------------|--2--2--2--2--2--2--2--2--|
--------------------------|--------------------------|
--------------------------|--------------------------|

  ^  v  ^  v  ^  v  ^  v     ^  v  ^  v  ^  v  ^  v     ^                 
  E  E  E  E  E  E  E  E     E  E  E  E  E  E  E  E     W                 
--------------------------|--------------------------|-------------------|
--3--3--3--3--3--3--3--3--|--3--3--3--3--3--3--3--3--|-------------------|
--0--0--0--0--0--0--0--0--|--x--x--x--x--x--x--x--x--|--3----------------|
--0--0--0--0--0--0--0--0--|--1--1--1--1--1--1--1--1--|--x----------------|
--2--2--2--2--2--2--2--2--|--------------------------|--1----------------|
--------------------------|--------------------------|--0----------------|
--------------------------|--------------------------|-------------------|

     PM PM    PM PM    PM PM    PM PM       PM PM    PM PM    PM PM    PM PM  
  E  S  S  E  S  S  E  S  S  E  S  S     E  S  S  E  S  S  E  S  S  E  S  S   
--------------------------------------|--------------------------------------|
--------------------------------------|--------------------------------------|
--------------------------------------|--------------------------------------|
--------------------------------------|--------------------------------------|
--0--0--0--1--0--0--0--0--0--1--0--0--|--0--0--0--1--0--0--0--0--0--1--0--0--|
--0--0--0--1--0--0--0--0--0--1--0--0--|--0--0--0--1--0--0--0--0--0--1--0--0--|
--0--0--0--1--0--0--0--0--0--1--0--0--|--0--0--0--1--0--0--0--0--0--1--0--0--|

     PM PM    PM PM    PM PM    PM PM       PM PM    PM PM    PM PM    PM PM  
  E  S  S  E  S  S  E  S  S  E  S  S     E  S  S  E  S  S  E  S  S  E  S  S   
--------------------------------------|--------------------------------------|
--------------------------------------|--------------------------------------|
--------------------------------------|--------------------------------------|
--------------------------------------|--------------------------------------|
--0--0--0--1--0--0--0--0--0--1--0--0--|--0--0--0--1--0--0--0--0--0--1--0--0--|
--0--0--0--1--0--0--0--0--0--1--0--0--|--0--0--0--1--0--0--0--0--0--1--0--0--|
--0--0--0--1--0--0--0--0--0--1--0--0--|--0--0--0--1--0--0--0--0--0--1--0--0--|

   W                    W                  
---------------------|--------------------|
---------------------|--------------------|
---------------------|--------------------|
--11b----------------|--9b----------------|
---x-----------------|--x-----------------|
---9b----------------|--7b----------------|
---0-----------------|--0-----------------|

     PM PM    PM PM    PM PM    PM PM       PM PM    PM PM    PM PM    PM PM  
  E  S  S  E  S  S  E  S  S  E  S  S     E  S  S  E  S  S  E  S  S  E  S  S   
--------------------------------------|--------------------------------------|
--------------------------------------|--------------------------------------|
--------------------------------------|--------------------------------------|
--------------------------------------|--------------------------------------|
--0--0--0--1--0--0--0--0--0--1--0--0--|--0--0--0--1--0--0--0--0--0--1--0--0--|
--0--0--0--1--0--0--0--0--0--1--0--0--|--0--0--0--1--0--0--0--0--0--1--0--0--|
--0--0--0--1--0--0--0--0--0--1--0--0--|--0--0--0--1--0--0--0--0--0--1--0--0--|

   W                    W                  
---------------------|--------------------|
---------------------|--------------------|
---------------------|--------------------|
--11b----------------|--9b----------------|
---x-----------------|--x-----------------|
---9b----------------|--7b----------------|
---0-----------------|--0-----------------|

     PM PM    PM PM    PM PM    PM PM       PM PM    PM PM    PM PM    PM PM  
  E  S  S  E  S  S  E  S  S  E  S  S     E  S  S  E  S  S  E  S  S  E  S  S   
--------------------------------------|--------------------------------------|
--------------------------------------|--------------------------------------|
--------------------------------------|--------------------------------------|
--------------------------------------|--------------------------------------|
--0--0--0--1--0--0--0--0--0--1--0--0--|--0--0--0--1--0--0--0--0--0--1--0--0--|
--0--0--0--1--0--0--0--0--0--1--0--0--|--0--0--0--1--0--0--0--0--0--1--0--0--|
--0--0--0--1--0--0--0--0--0--1--0--0--|--0--0--0--1--0--0--0--0--0--1--0--0--|

   W                    W                  
---------------------|--------------------|
---------------------|--------------------|
---------------------|--------------------|
--11b----------------|--9b----------------|
---x-----------------|--x-----------------|
---9b----------------|--7b----------------|
---0-----------------|--0-----------------|

     PM PM    PM PM    PM PM    PM PM       PM PM    PM PM    PM PM    PM PM  
  E  S  S  E  S  S  E  S  S  E  S  S     E  S  S  E  S  S  E  S  S  E  S  S   
--------------------------------------|--------------------------------------|
--------------------------------------|--------------------------------------|
--------------------------------------|--------------------------------------|
--------------------------------------|--------------------------------------|
--0--0--0--1--0--0--0--0--0--1--0--0--|--0--0--0--1--0--0--0--0--0--1--0--0--|
--0--0--0--1--0--0--0--0--0--1--0--0--|--0--0--0--1--0--0--0--0--0--1--0--0--|
--0--0--0--1--0--0--0--0--0--1--0--0--|--0--0--0--1--0--0--0--0--0--1--0--0--|

   W                    W                  
---------------------|--------------------|
---------------------|--------------------|
---------------------|--------------------|
--11b----------------|--9b----------------|
---x-----------------|--x-----------------|
---9b----------------|--7b----------------|
---0-----------------|--0-----------------|

     PM PM    PM PM    PM PM    PM PM       PM PM    PM PM    PM PM    PM PM  
  E  S  S  E  S  S  E  S  S  E  S  S     E  S  S  E  S  S  E  S  S  E  S  S   
--------------------------------------|--------------------------------------|
--------------------------------------|--------------------------------------|
--------------------------------------|--------------------------------------|
--------------------------------------|--------------------------------------|
--0--0--0--1--0--0--0--0--0--1--0--0--|--0--0--0--1--0--0--0--0--0--1--0--0--|
--0--0--0--1--0--0--0--0--0--1--0--0--|--0--0--0--1--0--0--0--0--0--1--0--0--|
--0--0--0--1--0--0--0--0--0--1--0--0--|--0--0--0--1--0--0--0--0--0--1--0--0--|

     PM PM    PM PM    PM PM    PM PM       PM PM    PM PM    PM PM    PM PM  
  E  S  S  E  S  S  E  S  S  E  S  S     E  S  S  E  S  S  E  S  S  E  S  S   
--------------------------------------|--------------------------------------|
--------------------------------------|--------------------------------------|
--------------------------------------|--------------------------------------|
--------------------------------------|--------------------------------------|
--0--0--0--1--0--0--0--0--0--1--0--0--|--0--0--0--1--0--0--0--0--0--1--0--0--|
--0--0--0--1--0--0--0--0--0--1--0--0--|--0--0--0--1--0--0--0--0--0--1--0--0--|
--0--0--0--1--0--0--0--0--0--1--0--0--|--0--0--0--1--0--0--0--0--0--1--0--0--|

  E  E  E  E  E  E  E  E     E  E  E  E  E  E  E  E   
--------------------------|--------------------------|
--------------------------|--------------------------|
--------------------------|--------------------------|
--------------------------|--------------------------|
--------------------------|--------------------------|
--------------------------|--------------------------|
--2--2--2--2--0--0--1--1--|--2--2--2--2--0--0--1--1--|

  E  E  E  E  E  E  E  E     E  E  E  E  E  E  E  E   
--------------------------|--------------------------|
--------------------------|--------------------------|
--------------------------|--------------------------|
--------------------------|--------------------------|
--------------------------|--------------------------|
--------------------------|--------------------------|
--2--2--2--2--2--2--2--2--|--3--3--3--3--3--3--3--3--|

  ^  v  ^  v  ^  v  ^  v     ^  v  ^  v  ^  v  ^  v   
  E  E  E  E  E  E  E  E     E  E  E  E  E  E  E  E   
--------------------------|--------------------------|
--------------------------|--5--5--5--5--7--7--7--7--|
--5--5--5--5--7--7--7--7--|--x--x--x--x--x--x--x--x--|
--x--x--x--x--x--x--x--x--|--3--3--3--3--5--5--5--5--|
--3--3--3--3--5--5--5--5--|--------------------------|
--------------------------|--------------------------|
--------------------------|--------------------------|

  ^  v  ^  v  ^  v  ^  v     ^  v  ^  v  ^  v  ^  v   
  E  E  E  E  E  E  E  E     E  E  E  E  E  E  E  E   
--------------------------|--------------------------|
--3--3--3--3--3--3--3--3--|--3--3--3--3--------------|
--0--0--0--0--0--0--0--0--|--x--x--x--x--3--3--3--3--|
--0--0--0--0--0--0--0--0--|--1--1--1--1--x--x--x--x--|
--2--2--2--2--2--2--2--2--|--------------1--1--1--1--|
--------------------------|--------------------------|
--------------------------|--------------------------|

  ^  v  ^  v  ^  v  ^  v     ^  v  ^  v  ^  v  ^  v   
  E  E  E  E  E  E  E  E     E  E  E  E  E  E  E  E   
--------------------------|--------------------------|
--------------------------|--5--5--5--5--7--7--7--7--|
--5--5--5--5--7--7--7--7--|--x--x--x--x--x--x--x--x--|
--x--x--x--x--x--x--x--x--|--3--3--3--3--5--5--5--5--|
--3--3--3--3--5--5--5--5--|--------------------------|
--------------------------|--------------------------|
--------------------------|--------------------------|

  ^  v  ^  v  ^  v  ^  v     ^  v  ^  v  ^  v  ^  v   
  E  E  E  E  E  E  E  E     E  E  E  E  E  E  E  E   
--------------------------|--------------------------|
--3--3--3--3--3--3--3--3--|--3--3--3--3--3--3--3--3--|
--0--0--0--0--0--0--0--0--|--0--0--0--0--0--0--0--0--|
--0--0--0--0--0--0--0--0--|--0--0--0--0--0--0--0--0--|
--2--2--2--2--2--2--2--2--|--2--2--2--2--2--2--2--2--|
--------------------------|--------------------------|
--------------------------|--------------------------|

  ^  v  ^  v  ^  v  ^  v     ^  v  ^  v  ^  v  ^  v   
  E  E  E  E  E  E  E  E     E  E  E  E  E  E  E  E   
--------------------------|--------------------------|
--3--3--3--3--3--3--3--3--|--------------------------|
--x--x--x--x--x--x--x--x--|--3--3--3--3--3--3--3--3--|
--1--1--1--1--1--1--1--1--|--x--x--x--x--x--x--x--x--|
--------------------------|--1--1--1--1--1--1--1--1--|
--------------------------|--------------------------|
--------------------------|--------------------------|

  ^  v  ^  v  ^  v  ^  v     ^  v  ^  v  ^  v  ^  v   
  E  E  E  E  E  E  E  E     E  E  E  E  E  E  E  E   
--------------------------|--------------------------|
--------------------------|--5--5--5--5--7--7--7--7--|
--5--5--5--5--7--7--7--7--|--x--x--x--x--x--x--x--x--|
--x--x--x--x--x--x--x--x--|--3--3--3--3--5--5--5--5--|
--3--3--3--3--5--5--5--5--|--------------------------|
--------------------------|--------------------------|
--------------------------|--------------------------|

  ^  v  ^  v  ^  v  ^  v     ^  v  ^  v  ^  v  ^  v   
  E  E  E  E  E  E  E  E     E  E  E  E  E  E  E  E   
--------------------------|--------------------------|
--3--3--3--3--3--3--3--3--|--3--3--3--3--------------|
--0--0--0--0--0--0--0--0--|--x--x--x--x--3--3--3--3--|
--0--0--0--0--0--0--0--0--|--1--1--1--1--x--x--x--x--|
--2--2--2--2--2--2--2--2--|--------------1--1--1--1--|
--------------------------|--------------------------|
--------------------------|--------------------------|

  ^  v  ^  v  ^  v  ^  v     ^  v  ^  v  ^  v  ^  v   
  E  E  E  E  E  E  E  E     E  E  E  E  E  E  E  E   
--------------------------|--------------------------|
--------------------------|--5--5--5--5--7--7--7--7--|
--5--5--5--5--7--7--7--7--|--x--x--x--x--x--x--x--x--|
--x--x--x--x--x--x--x--x--|--3--3--3--3--5--5--5--5--|
--3--3--3--3--5--5--5--5--|--------------------------|
--------------------------|--------------------------|
--------------------------|--------------------------|

  ^  v  ^  v  ^  v  ^  v     ^  v  ^  v  ^  v  ^  v   
  E  E  E  E  E  E  E  E     E  E  E  E  E  E  E  E   
--------------------------|--------------------------|
--3--3--3--3--3--3--3--3--|--3--3--3--3--3--3--3--3--|
--0--0--0--0--0--0--0--0--|--0--0--0--0--0--0--0--0--|
--0--0--0--0--0--0--0--0--|--0--0--0--0--0--0--0--0--|
--2--2--2--2--2--2--2--2--|--2--2--2--2--2--2--2--2--|
--------------------------|--------------------------|
--------------------------|--------------------------|

  ^  v  ^  v  ^  v  ^  v     ^                      PM PM    PM PM     
  E  E  E  E  E  E  E  E     W                   E  S  S  E  S  S  E   
--------------------------|-------------------|-----------------------|
--3--3--3--3--3--3--3--3--|-------------------|-----------------------|
--x--x--x--x--x--x--x--x--|--3----------------|-----------------------|
--1--1--1--1--1--1--1--1--|--x----------------|-----------------------|
--------------------------|--1----------------|--0--0--0--1--0--0--0--|
--------------------------|--0----------------|--0--0--0--1--0--0--0--|
--------------------------|-------------------|--0--0--0--1--0--0--0--|

     PM PM    PM PM          PM PM    PM PM    PM PM    PM PM  
  E  S  S  E  S  S  E     E  S  S  E  S  S  E  S  S  E  S  S   
-----------------------|--------------------------------------|
-----------------------|--------------------------------------|
-----------------------|--------------------------------------|
-----------------------|--------------------------------------|
--0--0--0--1--0--0--0--|--0--0--0--1--0--0--0--0--0--1--0--0--|
--0--0--0--1--0--0--0--|--0--0--0--1--0--0--0--0--0--1--0--0--|
--0--0--0--1--0--0--0--|--0--0--0--1--0--0--0--0--0--1--0--0--|

     PM PM                 PM PM    PM PM          PM PM    PM PM     
  E  S  S  S S S S S    E  S  S  E  S  S  E     E  S  S  E  S  S  E   
---------------------|-----------------------|-----------------------|
---------------------|-----------------------|-----------------------|
---------------------|-----------------------|-----------------------|
---------------------|-----------------------|-----------------------|
--0--0--0--1-1-1-1-0-|--0--0--0--1--0--0--0--|--0--0--0--1--0--0--0--|
--0--0--0--1-1-1-1-0-|--0--0--0--1--0--0--0--|--0--0--0--1--0--0--0--|
--0--0--0--1-1-1-1-0-|--0--0--0--1--0--0--0--|--0--0--0--1--0--0--0--|

     PM PM    PM PM    PM PM    PM PM       PM PM            
  E  S  S  E  S  S  E  S  S  E  S  S     E  S  S  S S S S S  
--------------------------------------|---------------------|
--------------------------------------|---------------------|
--------------------------------------|---------------------|
--------------------------------------|---------------------|
--0--0--0--1--0--0--0--0--0--1--0--0--|--0--0--0--1-1-1-1-0-|
--0--0--0--1--0--0--0--0--0--1--0--0--|--0--0--0--1-1-1-1-0-|
--0--0--0--1--0--0--0--0--0--1--0--0--|--0--0--0--1-1-1-1-0-|

     PM PM    PM PM          PM PM    PM PM     
  E  S  S  E  S  S  E     E  S  S  E  S  S  E   
-----------------------|-----------------------|
-----------------------|-----------------------|
-----------------------|-----------------------|
-----------------------|-----------------------|
--0--0--0--1--0--0--0--|--0--0--0--1--0--0--0--|
--0--0--0--1--0--0--0--|--0--0--0--1--0--0--0--|
--0--0--0--1--0--0--0--|--0--0--0--1--0--0--0--|

     PM PM    PM PM    PM PM    PM PM       PM PM            
  E  S  S  E  S  S  E  S  S  E  S  S     E  S  S  S S S S S  
--------------------------------------|---------------------|
--------------------------------------|---------------------|
--------------------------------------|---------------------|
--------------------------------------|---------------------|
--0--0--0--1--0--0--0--0--0--1--0--0--|--0--0--0--1-1-1-1-0-|
--0--0--0--1--0--0--0--0--0--1--0--0--|--0--0--0--1-1-1-1-0-|
--0--0--0--1--0--0--0--0--0--1--0--0--|--0--0--0--1-1-1-1-0-|

     PM PM    PM PM          PM PM    PM PM     
  E  S  S  E  S  S  E     E  S  S  E  S  S  E   
-----------------------|-----------------------|
-----------------------|-----------------------|
-----------------------|-----------------------|
-----------------------|-----------------------|
--0--0--0--1--0--0--0--|--0--0--0--1--0--0--0--|
--0--0--0--1--0--0--0--|--0--0--0--1--0--0--0--|
--0--0--0--1--0--0--0--|--0--0--0--1--0--0--0--|

     PM PM    PM PM    PM PM    PM PM       PM PM            
  E  S  S  E  S  S  E  S  S  E  S  S     E  S  S  S S S S S  
--------------------------------------|---------------------|
--------------------------------------|---------------------|
--------------------------------------|---------------------|
--------------------------------------|---------------------|
--0--0--0--1--0--0--0--0--0--1--0--0--|--0--0--0--1-1-1-1-0-|
--0--0--0--1--0--0--0--0--0--1--0--0--|--0--0--0--1-1-1-1-0-|
--0--0--0--1--0--0--0--0--0--1--0--0--|--0--0--0--1-1-1-1-0-|

  ^  v  ^  v                 ^  v  ^  v               
  E  E  E  E  E  E  E  E     E  E  E  E  E  E  E  E   
--------------------------|--------------------------|
--------------------------|--------------------------|
--------------------------|--------------------------|
--------------------------|--------------------------|
--2--2--2--2--x--x--x--x--|--2--2--2--2--x--x--x--x--|
--2--2--2--2--x--x--x--x--|--2--2--2--2--x--x--x--x--|
--0--0--0--0--x--x--x--x--|--0--0--0--0--x--x--x--x--|

  ^  v  ^  v                 ^  v  ^  v  ^  v  ^  v   
  E  E  E  E  E  E  E  E     E  E  E  E  E  E  E  E   
--------------------------|--------------------------|
--------------------------|--------------------------|
--------------------------|--------------------------|
--------------------------|--------------------------|
--5--5--5--5--x--x--x--x--|--5--5--5--5--7--7--7--7--|
--5--5--5--5--x--x--x--x--|--5--5--5--5--7--7--7--7--|
--3--3--3--3--x--x--x--x--|--3--3--3--3--5--5--5--5--|

  ^  v  ^  v                 ^  v  ^  v               
  E  E  E  E  E  E  E  E     E  E  E  E  E  E  E  E   
--------------------------|--------------------------|
--------------------------|--------------------------|
--------------------------|--------------------------|
--------------------------|--------------------------|
--2--2--2--2--x--x--x--x--|--2--2--2--2--x--x--x--x--|
--2--2--2--2--x--x--x--x--|--2--2--2--2--x--x--x--x--|
--0--0--0--0--x--x--x--x--|--0--0--0--0--x--x--x--x--|

  ^  v  ^  v                 ^  v  ^  v  ^  v  ^  v   
  E  E  E  E  E  E  E  E     E  E  E  E  E  E  E  E   
--------------------------|--------------------------|
--------------------------|--------------------------|
--------------------------|--------------------------|
--------------------------|--------------------------|
--5--5--5--5--x--x--x--x--|--5--5--5--5--3--3--3--3--|
--5--5--5--5--x--x--x--x--|--5--5--5--5--3--3--3--3--|
--3--3--3--3--x--x--x--x--|--3--3--3--3--1--1--1--1--|

  ^  v  ^  v                 ^  v  ^  v               
  E  E  E  E  E  E  E  E     E  E  E  E  E  E  E  E   
--------------------------|--------------------------|
--------------------------|--------------------------|
--------------------------|--------------------------|
--------------------------|--------------------------|
--2--2--2--2--x--x--x--x--|--2--2--2--2--x--x--x--x--|
--2--2--2--2--x--x--x--x--|--2--2--2--2--x--x--x--x--|
--0--0--0--0--x--x--x--x--|--0--0--0--0--x--x--x--x--|

  ^  v  ^  v                 ^  v  ^  v  ^  v  ^  v   
  E  E  E  E  E  E  E  E     E  E  E  E  E  E  E  E   
--------------------------|--------------------------|
--------------------------|--------------------------|
--------------------------|--------------------------|
--------------------------|--------------------------|
--5--5--5--5--x--x--x--x--|--5--5--5--5--7--7--7--7--|
--5--5--5--5--x--x--x--x--|--5--5--5--5--7--7--7--7--|
--3--3--3--3--x--x--x--x--|--3--3--3--3--5--5--5--5--|

  ^  v  ^  v                 ^  v  ^  v               
  E  E  E  E  E  E  E  E     E  E  E  E  E  E  E  E   
--------------------------|--------------------------|
--------------------------|--------------------------|
--------------------------|--------------------------|
--------------------------|--------------------------|
--2--2--2--2--x--x--x--x--|--2--2--2--2--x--x--x--x--|
--2--2--2--2--x--x--x--x--|--2--2--2--2--x--x--x--x--|
--0--0--0--0--x--x--x--x--|--0--0--0--0--x--x--x--x--|

  ^  v  ^  v                 ^  v  ^  v  ^  v  ^  v   
  E  E  E  E  E  E  E  E     E  E  E  E  E  E  E  E   
--------------------------|--------------------------|
--------------------------|--------------------------|
--------------------------|--------------------------|
--------------------------|--------------------------|
--5--5--5--5--x--x--x--x--|--5--5--5--5--3--3--3--3--|
--5--5--5--5--x--x--x--x--|--5--5--5--5--3--3--3--3--|
--3--3--3--3--x--x--x--x--|--3--3--3--3--1--1--1--1--|

  ^  v  ^  v  ^  v  ^  v     ^  v  ^  v  ^  v  ^  v   
  E  E  E  E  E  E  E  E     E  E  E  E  E  E  E  E   
--------------------------|--------------------------|
--------------------------|--5--5--5--5--7--7--7--7--|
--5--5--5--5--7--7--7--7--|--x--x--x--x--x--x--x--x--|
--x--x--x--x--x--x--x--x--|--3--3--3--3--5--5--5--5--|
--3--3--3--3--5--5--5--5--|--------------------------|
--------------------------|--------------------------|
--------------------------|--------------------------|

  ^  v  ^  v  ^  v  ^  v     ^  v  ^  v  ^  v  ^  v   
  E  E  E  E  E  E  E  E     E  E  E  E  E  E  E  E   
--------------------------|--------------------------|
--3--3--3--3--3--3--3--3--|--3--3--3--3--------------|
--0--0--0--0--0--0--0--0--|--x--x--x--x--3--3--3--3--|
--0--0--0--0--0--0--0--0--|--1--1--1--1--x--x--x--x--|
--2--2--2--2--2--2--2--2--|--------------1--1--1--1--|
--------------------------|--------------------------|
--------------------------|--------------------------|

  ^  v  ^  v  ^  v  ^  v     ^  v  ^  v  ^  v  ^  v   
  E  E  E  E  E  E  E  E     E  E  E  E  E  E  E  E   
--------------------------|--------------------------|
--------------------------|--5--5--5--5--7--7--7--7--|
--5--5--5--5--7--7--7--7--|--x--x--x--x--x--x--x--x--|
--x--x--x--x--x--x--x--x--|--3--3--3--3--5--5--5--5--|
--3--3--3--3--5--5--5--5--|--------------------------|
--------------------------|--------------------------|
--------------------------|--------------------------|

  ^  v  ^  v  ^  v  ^  v     ^  v  ^  v  ^  v  ^  v   
  E  E  E  E  E  E  E  E     E  E  E  E  E  E  E  E   
--------------------------|--------------------------|
--3--3--3--3--3--3--3--3--|--3--3--3--3--3--3--3--3--|
--0--0--0--0--0--0--0--0--|--0--0--0--0--0--0--0--0--|
--0--0--0--0--0--0--0--0--|--0--0--0--0--0--0--0--0--|
--2--2--2--2--2--2--2--2--|--2--2--2--2--2--2--2--2--|
--------------------------|--------------------------|
--------------------------|--------------------------|

  ^  v  ^  v  ^  v  ^  v     ^  v  ^  v  ^  v  ^  v   
  E  E  E  E  E  E  E  E     E  E  E  E  E  E  E  E   
--------------------------|--------------------------|
--3--3--3--3--3--3--3--3--|--------------------------|
--x--x--x--x--x--x--x--x--|--3--3--3--3--3--3--3--3--|
--1--1--1--1--1--1--1--1--|--x--x--x--x--x--x--x--x--|
--------------------------|--1--1--1--1--1--1--1--1--|
--------------------------|--------------------------|
--------------------------|--------------------------|

  ^  v  ^  v  ^  v  ^  v     ^  v  ^  v  ^  v  ^  v   
  E  E  E  E  E  E  E  E     E  E  E  E  E  E  E  E   
--------------------------|--------------------------|
--------------------------|--5--5--5--5--7--7--7--7--|
--5--5--5--5--7--7--7--7--|--x--x--x--x--x--x--x--x--|
--x--x--x--x--x--x--x--x--|--3--3--3--3--5--5--5--5--|
--3--3--3--3--5--5--5--5--|--------------------------|
--------------------------|--------------------------|
--------------------------|--------------------------|

  ^  v  ^  v  ^  v  ^  v     ^  v  ^  v  ^  v  ^  v   
  E  E  E  E  E  E  E  E     E  E  E  E  E  E  E  E   
--------------------------|--------------------------|
--3--3--3--3--3--3--3--3--|--3--3--3--3--------------|
--0--0--0--0--0--0--0--0--|--x--x--x--x--3--3--3--3--|
--0--0--0--0--0--0--0--0--|--1--1--1--1--x--x--x--x--|
--2--2--2--2--2--2--2--2--|--------------1--1--1--1--|
--------------------------|--------------------------|
--------------------------|--------------------------|

  ^  v  ^  v  ^  v  ^  v     ^  v  ^  v  ^  v  ^  v   
  E  E  E  E  E  E  E  E     E  E  E  E  E  E  E  E   
--------------------------|--------------------------|
--------------------------|--5--5--5--5--7--7--7--7--|
--5--5--5--5--7--7--7--7--|--x--x--x--x--x--x--x--x--|
--x--x--x--x--x--x--x--x--|--3--3--3--3--5--5--5--5--|
--3--3--3--3--5--5--5--5--|--------------------------|
--------------------------|--------------------------|
--------------------------|--------------------------|

  ^  v  ^  v  ^  v  ^  v     ^  v  ^  v  ^  v  ^  v   
  E  E  E  E  E  E  E  E     E  E  E  E  E  E  E  E   
--------------------------|--------------------------|
--3--3--3--3--3--3--3--3--|--3--3--3--3--3--3--3--3--|
--0--0--0--0--0--0--0--0--|--0--0--0--0--0--0--0--0--|
--0--0--0--0--0--0--0--0--|--0--0--0--0--0--0--0--0--|
--2--2--2--2--2--2--2--2--|--2--2--2--2--2--2--2--2--|
--------------------------|--------------------------|
--------------------------|--------------------------|

  ^  v  ^  v  ^  v  ^  v     ^                 
  E  E  E  E  E  E  E  E     W                 
--------------------------|-------------------|
--3--3--3--3--3--3--3--3--|-------------------|
--x--x--x--x--x--x--x--x--|--3----------------|
--1--1--1--1--1--1--1--1--|--x----------------|
--------------------------|--1----------------|
--------------------------|--0----------------|
--------------------------|-------------------|

     PM PM    PM PM    PM PM    PM PM       PM PM    PM PM    PM PM    PM PM  
  E  S  S  E  S  S  E  S  S  E  S  S     E  S  S  E  S  S  E  S  S  E  S  S   
--------------------------------------|--------------------------------------|
--------------------------------------|--------------------------------------|
--------------------------------------|--------------------------------------|
--------------------------------------|--------------------------------------|
--0--0--0--1--0--0--0--0--0--1--0--0--|--0--0--0--1--0--0--0--0--0--1--0--0--|
--0--0--0--1--0--0--0--0--0--1--0--0--|--0--0--0--1--0--0--0--0--0--1--0--0--|
--0--0--0--1--0--0--0--0--0--1--0--0--|--0--0--0--1--0--0--0--0--0--1--0--0--|

     PM PM    PM PM    PM PM    PM PM       PM PM    PM PM    PM PM    PM PM   
  E  S  S  E  S  S  E  S  S  E  S  S     E  S  S  E  S  S  E  S  S  E  S  S    
--------------------------------------|--------------------------------------||
--------------------------------------|--------------------------------------||
--------------------------------------|--------------------------------------||
--------------------------------------|--------------------------------------||
--0--0--0--1--0--0--0--0--0--1--0--0--|--0--0--0--1--0--0--0--0--0--1--0--0--||
--0--0--0--1--0--0--0--0--0--1--0--0--|--0--0--0--1--0--0--0--0--0--1--0--0--||
--0--0--0--1--0--0--0--0--0--1--0--0--|--0--0--0--1--0--0--0--0--0--1--0--0--||

==========Your Sideshow==========

Lead Guitar

     Q    E   E   S  S  Q       Q    E   E   E   Q     
D||--------------------------|------------------------|
A||--------------------------|------------------------|
F||--------------------------|------------------------|
C||--------------------------|------------------------|
G||--2----2--(2)--2h-3p-2----|--2----2--(2)--4s--5----|
C||--2----2--(2)--2h-3p-2----|--2----2--(2)--4s--5----|

  Q    E   E   S  S  Q       Q    E   E   E   Q       Q    E   E   S  S  Q     
--------------------------|------------------------|--------------------------|
--------------------------|------------------------|--------------------------|
--------------------------|------------------------|--------------------------|
--------------------------|------------------------|--------------------------|
--2----2--(2)--2h-3p-2----|--2----2--(2)--4s--5----|--2----2--(2)--2h-3p-2----|
--2----2--(2)--2h-3p-2----|--2----2--(2)--4s--5----|--2----2--(2)--2h-3p-2----|

  Q    E   E   E   Q       Q    E   E   S  S  Q       Q    E   E   E   Q     
------------------------|--------------------------|------------------------|
------------------------|--------------------------|------------------------|
------------------------|--------------------------|------------------------|
------------------------|--------------------------|------------------------|
--2----2--(2)--4s--5----|--2----2--(2)--2h-3p-2----|--2----2--(2)--4s--5----|
--2----2--(2)--4s--5----|--2----2--(2)--2h-3p-2----|--2----2--(2)--4s--5----|

  Q    E   E   S  S  Q       Q    E   E   E   Q       Q    E   E   S  S  Q     
--------------------------|------------------------|--------------------------|
--------------------------|------------------------|--------------------------|
--------------------------|------------------------|--------------------------|
--------------------------|------------------------|--------------------------|
--2----2--(2)--2h-3p-2----|--2----2--(2)--4s--5----|--2----2--(2)--2h-3p-2----|
--2----2--(2)--2h-3p-2----|--2----2--(2)--4s--5----|--2----2--(2)--2h-3p-2----|

  Q    E   E   E   Q       Q    E   E   S  S  Q       Q    E   E   E   Q     
------------------------|--------------------------|------------------------|
------------------------|--------------------------|------------------------|
------------------------|--------------------------|------------------------|
------------------------|--------------------------|------------------------|
--2----2--(2)--4s--5----|--2----2--(2)--2h-3p-2----|--2----2--(2)--4s--5----|
--2----2--(2)--4s--5----|--2----2--(2)--2h-3p-2----|--2----2--(2)--4s--5----|

  Q    E   E   S  S  Q       Q    E   E   E   Q       Q    E   E   S  S  Q     
--------------------------|------------------------|--------------------------|
--------------------------|------------------------|--------------------------|
--------------------------|------------------------|--------------------------|
--------------------------|------------------------|--------------------------|
--2----2--(2)--2h-3p-2----|--2----2--(2)--4s--5----|--2----2--(2)--2h-3p-2----|
--2----2--(2)--2h-3p-2----|--2----2--(2)--4s--5----|--2----2--(2)--2h-3p-2----|

  Q    E   E   E   Q       Q    E   E   S  S  Q       Q    E   E   E   Q     
------------------------|--------------------------|------------------------|
------------------------|--------------------------|------------------------|
------------------------|--------------------------|------------------------|
------------------------|--------------------------|------------------------|
--2----2--(2)--4s--5----|--2----2--(2)--2h-3p-2----|--2----2--(2)--4s--5----|
--2----2--(2)--4s--5----|--2----2--(2)--2h-3p-2----|--2----2--(2)--4s--5----|

  Q    E   E   S  S  Q       Q    E   E   E   Q     
--------------------------|------------------------|
--------------------------|------------------------|
--------------------------|------------------------|
--------------------------|------------------------|
--2----2--(2)--2h-3p-2----|--2----2--(2)--4s--5----|
--2----2--(2)--2h-3p-2----|--2----2--(2)--4s--5----|

   ^   v   ^   v  ^  v  ^  v     ^  v  ^  v  ^  v  ^  v   
   E   E   E   E  E  E  E  E     E  E  E  E  E  E  E  E   
------------------------------|--------------------------|
------------------------------|--------------------------|
------------------------------|--------------------------|
------------------------------|--------------------------|
--11--11--11--11--9--9--9--9--|--7--7--7--7--6--6--6--6--|
--11--11--11--11--9--9--9--9--|--7--7--7--7--6--6--6--6--|

  Q    E   E   S  S  Q       Q    E   E   E   Q       Q    E   E   S  S  Q     
--------------------------|------------------------|--------------------------|
--------------------------|------------------------|--------------------------|
--------------------------|------------------------|--------------------------|
--------------------------|------------------------|--------------------------|
--2----2--(2)--2h-3p-2----|--2----2--(2)--4s--5----|--2----2--(2)--2h-3p-2----|
--2----2--(2)--2h-3p-2----|--2----2--(2)--4s--5----|--2----2--(2)--2h-3p-2----|

  Q    E   E   E   Q       Q    E   E   S  S  Q       Q    E   E   E   Q     
------------------------|--------------------------|------------------------|
------------------------|--------------------------|------------------------|
------------------------|--------------------------|------------------------|
------------------------|--------------------------|------------------------|
--2----2--(2)--4s--5----|--2----2--(2)--2h-3p-2----|--2----2--(2)--4s--5----|
--2----2--(2)--4s--5----|--2----2--(2)--2h-3p-2----|--2----2--(2)--4s--5----|

   ^   v   ^   v  ^  v  ^  v     ^  v  ^  v  ^  v  ^  v   
   E   E   E   E  E  E  E  E     E  E  E  E  E  E  E  E   
------------------------------|--------------------------|
------------------------------|--------------------------|
------------------------------|--------------------------|
------------------------------|--------------------------|
--11--11--11--11--9--9--9--9--|--7--7--7--7--6--6--6--6--|
--11--11--11--11--9--9--9--9--|--7--7--7--7--6--6--6--6--|

  Q    E   E   S  S  Q       Q    E   E   E   Q       Q    E   E   S  S  Q     
--------------------------|------------------------|--------------------------|
--------------------------|------------------------|--------------------------|
--------------------------|------------------------|--------------------------|
--------------------------|------------------------|--------------------------|
--2----2--(2)--2h-3p-2----|--2----2--(2)--4s--5----|--2----2--(2)--2h-3p-2----|
--2----2--(2)--2h-3p-2----|--2----2--(2)--4s--5----|--2----2--(2)--2h-3p-2----|

  Q    E   E   E   Q       Q    E   E   S  S  Q       Q    E   E   E   Q     
------------------------|--------------------------|------------------------|
------------------------|--------------------------|------------------------|
------------------------|--------------------------|------------------------|
------------------------|--------------------------|------------------------|
--2----2--(2)--4s--5----|--2----2--(2)--2h-3p-2----|--2----2--(2)--4s--5----|
--2----2--(2)--4s--5----|--2----2--(2)--2h-3p-2----|--2----2--(2)--4s--5----|

   ^   v   ^   v  ^  v  ^  v     ^  v  ^  v  ^  v  ^  v                        
   E   E   E   E  E  E  E  E     E  E  E  E  E  E  E  E     W                  
------------------------------|--------------------------|--------------------|
------------------------------|--------------------------|--5s----------------|
------------------------------|--------------------------|--4s----------------|
------------------------------|--------------------------|--2s----------------|
--11--11--11--11--9--9--9--9--|--7--7--7--7--6--6--6--6--|--0s----------------|
--11--11--11--11--9--9--9--9--|--7--7--7--7--6--6--6--6--|--------------------|

   W                    W                     W                  
---------------------|--------------------|---------------------|
--(5)----------------|--3s----------------|--(3)----------------|
--(4)----------------|--3s----------------|--(3)----------------|
--(2)----------------|--1s----------------|--(1)----------------|
--(0)----------------|--0s----------------|--(0)----------------|
---------------------|--------------------|---------------------|

  E  E  E  E  E  E  E  E     E  E  E  E  E  E  E  E   
--------------------------|--------------------------|
--------------------------|--------------------------|
--5--5--5--5--5--5--5--5--|--5--5--5--5--3--3--3--3--|
--4--4--4--4--4--4--4--4--|--4--4--4--4--3--3--3--3--|
--2--2--2--2--2--2--2--2--|--2--2--2--2--1--1--1--1--|
--------------------------|--------------------------|

  E  E  E  E  E  E  E  E     E  E  E  E  E  E  E  E   
--------------------------|--------------------------|
--------------------------|--------------------------|
--2--2--2--2--2--2--2--2--|--2--2--2--2--6--6--6--6--|
--2--2--2--2--2--2--2--2--|--2--2--2--2--6--6--6--6--|
--0--0--0--0--0--0--0--0--|--0--0--0--0--4--4--4--4--|
--------------------------|--------------------------|

  E  E  E  E  E  E  E  E     E  E  E  E  E  E  E  E   
--------------------------|--------------------------|
--------------------------|--------------------------|
--5--5--5--5--5--5--5--5--|--5--5--5--5--3--3--3--3--|
--4--4--4--4--4--4--4--4--|--4--4--4--4--3--3--3--3--|
--2--2--2--2--2--2--2--2--|--2--2--2--2--1--1--1--1--|
--------------------------|--------------------------|

   ^   v   ^   v  ^  v  ^  v     ^  v  ^  v  ^  v  ^  v   
   E   E   E   E  E  E  E  E     E  E  E  E  E  E  E  E   
------------------------------|--------------------------|
------------------------------|--------------------------|
------------------------------|--------------------------|
------------------------------|--------------------------|
--11--11--11--11--9--9--9--9--|--7--7--7--7--6--6--6--6--|
--11--11--11--11--9--9--9--9--|--7--7--7--7--6--6--6--6--|

  E  E  E  E  E  E  E  E     E  E  E  E  E  E  E  E   
--------------------------|--------------------------|
--------------------------|--------------------------|
--5--5--5--5--5--5--5--5--|--5--5--5--5--3--3--3--3--|
--4--4--4--4--4--4--4--4--|--4--4--4--4--3--3--3--3--|
--2--2--2--2--2--2--2--2--|--2--2--2--2--1--1--1--1--|
--------------------------|--------------------------|

  E  E  E  E  E  E  E  E     E  E  E  E  E  E  E  E   
--------------------------|--------------------------|
--------------------------|--------------------------|
--2--2--2--2--2--2--2--2--|--2--2--2--2--6--6--6--6--|
--2--2--2--2--2--2--2--2--|--2--2--2--2--6--6--6--6--|
--0--0--0--0--0--0--0--0--|--0--0--0--0--4--4--4--4--|
--------------------------|--------------------------|

  E  E  E  E  E  E  E  E     E  E  E  E  E  E  E  E     W                 
--------------------------|--------------------------|-------------------|
--------------------------|--------------------------|-------------------|
--5--5--5--5--5--5--5--5--|--5--5--5--5--3--3--3--3--|--2----------------|
--4--4--4--4--4--4--4--4--|--4--4--4--4--3--3--3--3--|--2----------------|
--2--2--2--2--2--2--2--2--|--2--2--2--2--1--1--1--1--|--0----------------|
--------------------------|--------------------------|-------------------|

                      Q    E   E   S  S  Q       Q    E   E   E   Q     
-------------------|--------------------------|------------------------|
-------------------|--------------------------|------------------------|
-------------------|--------------------------|------------------------|
-------------------|--------------------------|------------------------|
-------------------|--2----2--(2)--2h-3p-2----|--2----2--(2)--4s--5----|
-------------------|--2----2--(2)--2h-3p-2----|--2----2--(2)--4s--5----|

  Q    E   E   S  S  Q       Q    E   E   E   Q       Q    E   E   S  S  Q     
--------------------------|------------------------|--------------------------|
--------------------------|------------------------|--------------------------|
--------------------------|------------------------|--------------------------|
--------------------------|------------------------|--------------------------|
--2----2--(2)--2h-3p-2----|--2----2--(2)--4s--5----|--2----2--(2)--2h-3p-2----|
--2----2--(2)--2h-3p-2----|--2----2--(2)--4s--5----|--2----2--(2)--2h-3p-2----|

                            ^   v   ^   v  ^  v  ^  v   
  Q    E   E   E   Q        E   E   E   E  E  E  E  E   
------------------------|------------------------------|
------------------------|------------------------------|
------------------------|------------------------------|
------------------------|------------------------------|
--2----2--(2)--4s--5----|--11--11--11--11--9--9--9--9--|
--2----2--(2)--4s--5----|--11--11--11--11--9--9--9--9--|

  ^  v  ^  v  ^  v  ^  v                                                       
  E  E  E  E  E  E  E  E     Q    E   E   S  S  Q       Q    E   E   E   Q     
--------------------------|--------------------------|------------------------|
--------------------------|--------------------------|------------------------|
--------------------------|--------------------------|------------------------|
--------------------------|--------------------------|------------------------|
--7--7--7--7--6--6--6--6--|--2----2--(2)--2h-3p-2----|--2----2--(2)--4s--5----|
--7--7--7--7--6--6--6--6--|--2----2--(2)--2h-3p-2----|--2----2--(2)--4s--5----|

  Q    E   E   S  S  Q       Q    E   E   E   Q       Q    E   E   S  S  Q     
--------------------------|------------------------|--------------------------|
--------------------------|------------------------|--------------------------|
--------------------------|------------------------|--------------------------|
--------------------------|------------------------|--------------------------|
--2----2--(2)--2h-3p-2----|--2----2--(2)--4s--5----|--2----2--(2)--2h-3p-2----|
--2----2--(2)--2h-3p-2----|--2----2--(2)--4s--5----|--2----2--(2)--2h-3p-2----|

                            ^   v   ^   v  ^  v  ^  v   
  Q    E   E   E   Q        E   E   E   E  E  E  E  E   
------------------------|------------------------------|
------------------------|------------------------------|
------------------------|------------------------------|
------------------------|------------------------------|
--2----2--(2)--4s--5----|--11--11--11--11--9--9--9--9--|
--2----2--(2)--4s--5----|--11--11--11--11--9--9--9--9--|

  ^  v  ^  v  ^  v  ^  v                                                       
  E  E  E  E  E  E  E  E     Q    E   E   S  S  Q       Q    E   E   E   Q     
--------------------------|--------------------------|------------------------|
--------------------------|--------------------------|------------------------|
--------------------------|--------------------------|------------------------|
--------------------------|--------------------------|------------------------|
--7--7--7--7--6--6--6--6--|--2----2--(2)--2h-3p-2----|--2----2--(2)--4s--5----|
--7--7--7--7--6--6--6--6--|--2----2--(2)--2h-3p-2----|--2----2--(2)--4s--5----|

  Q    E   E   S  S  Q       Q    E   E   E   Q       Q    E   E   S  S  Q     
--------------------------|------------------------|--------------------------|
--------------------------|------------------------|--------------------------|
--------------------------|------------------------|--------------------------|
--------------------------|------------------------|--------------------------|
--2----2--(2)--2h-3p-2----|--2----2--(2)--4s--5----|--2----2--(2)--2h-3p-2----|
--2----2--(2)--2h-3p-2----|--2----2--(2)--4s--5----|--2----2--(2)--2h-3p-2----|

                            ^   v   ^   v  ^  v  ^  v   
  Q    E   E   E   Q        E   E   E   E  E  E  E  E   
------------------------|------------------------------|
------------------------|------------------------------|
------------------------|------------------------------|
------------------------|------------------------------|
--2----2--(2)--4s--5----|--11--11--11--11--9--9--9--9--|
--2----2--(2)--4s--5----|--11--11--11--11--9--9--9--9--|

  ^  v  ^  v  ^  v  ^  v                                              
  E  E  E  E  E  E  E  E     W                     W                  
--------------------------|--------------------|---------------------|
--------------------------|--5s----------------|--(5)----------------|
--------------------------|--4s----------------|--(4)----------------|
--------------------------|--2s----------------|--(2)----------------|
--7--7--7--7--6--6--6--6--|--0s----------------|--(0)----------------|
--7--7--7--7--6--6--6--6--|--------------------|---------------------|

  W                     W                    E  E  E  E  E  E  E  E   
--------------------|---------------------|--------------------------|
--3s----------------|--(3)----------------|--------------------------|
--3s----------------|--(3)----------------|--5--5--5--5--5--5--5--5--|
--1s----------------|--(1)----------------|--4--4--4--4--4--4--4--4--|
--0s----------------|--(0)----------------|--2--2--2--2--2--2--2--2--|
--------------------|---------------------|--------------------------|

  E  E  E  E  E  E  E  E     E  E  E  E  E  E  E  E   
--------------------------|--------------------------|
--------------------------|--------------------------|
--5--5--5--5--3--3--3--3--|--2--2--2--2--2--2--2--2--|
--4--4--4--4--3--3--3--3--|--2--2--2--2--2--2--2--2--|
--2--2--2--2--1--1--1--1--|--0--0--0--0--0--0--0--0--|
--------------------------|--------------------------|

  E  E  E  E  E  E  E  E     E  E  E  E  E  E  E  E   
--------------------------|--------------------------|
--------------------------|--------------------------|
--2--2--2--2--6--6--6--6--|--5--5--5--5--5--5--5--5--|
--2--2--2--2--6--6--6--6--|--4--4--4--4--4--4--4--4--|
--0--0--0--0--4--4--4--4--|--2--2--2--2--2--2--2--2--|
--------------------------|--------------------------|

                              ^   v   ^   v  ^  v  ^  v   
  E  E  E  E  E  E  E  E      E   E   E   E  E  E  E  E   
--------------------------|------------------------------|
--------------------------|------------------------------|
--5--5--5--5--3--3--3--3--|------------------------------|
--4--4--4--4--3--3--3--3--|------------------------------|
--2--2--2--2--1--1--1--1--|--11--11--11--11--9--9--9--9--|
--------------------------|--11--11--11--11--9--9--9--9--|

  ^  v  ^  v  ^  v  ^  v                              
  E  E  E  E  E  E  E  E     E  E  E  E  E  E  E  E   
--------------------------|--------------------------|
--------------------------|--------------------------|
--------------------------|--5--5--5--5--5--5--5--5--|
--------------------------|--4--4--4--4--4--4--4--4--|
--7--7--7--7--6--6--6--6--|--2--2--2--2--2--2--2--2--|
--7--7--7--7--6--6--6--6--|--------------------------|

  E  E  E  E  E  E  E  E     E  E  E  E  E  E  E  E   
--------------------------|--------------------------|
--------------------------|--------------------------|
--5--5--5--5--3--3--3--3--|--2--2--2--2--2--2--2--2--|
--4--4--4--4--3--3--3--3--|--2--2--2--2--2--2--2--2--|
--2--2--2--2--1--1--1--1--|--0--0--0--0--0--0--0--0--|
--------------------------|--------------------------|

  E  E  E  E  E  E  E  E     E  E  E  E  E  E  E  E   
--------------------------|--------------------------|
--------------------------|--------------------------|
--2--2--2--2--6--6--6--6--|--5--5--5--5--5--5--5--5--|
--2--2--2--2--6--6--6--6--|--4--4--4--4--4--4--4--4--|
--0--0--0--0--4--4--4--4--|--2--2--2--2--2--2--2--2--|
--------------------------|--------------------------|

  E  E  E  E  E  E  E  E     W                                     
--------------------------|-------------------|-------------------|
--------------------------|-------------------|-------------------|
--5--5--5--5--3--3--3--3--|--2----------------|-------------------|
--4--4--4--4--3--3--3--3--|--2----------------|-------------------|
--2--2--2--2--1--1--1--1--|--0----------------|-------------------|
--------------------------|-------------------|-------------------|

  Q    E   E   S  S  Q       Q    E   E   E   Q       Q    E   E   S  S  Q      
--------------------------|------------------------|---------------------------|
--------------------------|------------------------|---------------------------|
--------------------------|------------------------|---------------------------|
--------------------------|------------------------|---------------------------|
--2----2--(2)--2h-3p-2----|--2----2--(2)--4s--5----|--2----2--(2)--2--3--2h----|
--2----2--(2)--2h-3p-2----|--2----2--(2)--4s--5----|--2----2--(2)--2h-3p-2-----|

  Q    E   E   E   Q       E  E  E  E  E  E  E  E     E  E  E  E  E   H         
------------------------|--------------------------|---------------------------|
------------------------|--------------------------|---------------------------|
------------------------|--------------------------|---------------------------|
------------------------|--------------------------|---------------------------|
--2----2--(2)--4s--5----|--2--2-----2--2--2-----2--|--2--2-----2--4s--5--------|
--2----2--(2)--4s--5----|--2--2-----2--2--2-----2--|--2--2-----2--4s--5--------|

  E  E  E  E  E  E  E  E     E  E  E  E  E   H         
--------------------------|---------------------------|
--------------------------|---------------------------|
--------------------------|---------------------------|
--------------------------|---------------------------|
--2--2-----2--2--2-----2--|--2--2-----2--4s--5--------|
--2--2-----2--2--2-----2--|--2--2-----2--4s--5--------|

  E  E  E  E  E  E  E  E     E  E  E  E  E  E  E  E   
--------------------------|--------------------------|
--------------------------|--------------------------|
--9--9--9--9--7--7--7--7--|--5--5--6--5--3--3--2--2--|
--------------------------|--------------------------|
--------------------------|--------------------------|
--------------------------|--------------------------|

   E   E   E   E   E   E   E   E      E   E   E   E   E   E   E   E   
----------------------------------|----------------------------------|
----------------------------------|----------------------------------|
--10--10--10--10--10--10--10--10--|--12--12--12--12--13--13--13--13--|
----------------------------------|----------------------------------|
----------------------------------|----------------------------------|
----------------------------------|----------------------------------|

   E   E  E   E   E   E  E   E      E   E  E   E   H         
--------------------------------|---------------------------|
--------------------------------|---------------------------|
--15--15-----15--15--15-----15--|--15--15-----15--17--------|
--------------------------------|---------------------------|
--------------------------------|---------------------------|
--------------------------------|---------------------------|

   E   E  E   E   E   E  E   E      E   E  E   E   H         
--------------------------------|---------------------------|
--------------------------------|-----------------15--------|
--15--15-----15--15--15-----15--|--15--15-----15------------|
--------------------------------|---------------------------|
--------------------------------|---------------------------|
--------------------------------|---------------------------|

  E  E  E  E  E  E  E  E     E  E  E  E  E  E  E  E   
--------------------------|--------------------------|
--------------------------|--------------------------|
--------------------------|--------------------------|
--8--8--8--8--8--8--8--8--|--5--5--5--5--5--5--5--5--|
--8--8--8--8--8--8--8--8--|--5--5--5--5--5--5--5--5--|
--8--8--8--8--8--8--8--8--|--5--5--5--5--5--5--5--5--|

  E  E  E  E  E  E  E  E     E  E  E  E  E  E  E  E   
--------------------------|--------------------------|
--------------------------|--------------------------|
--------------------------|--------------------------|
--3--3--3--3--3--3--3--3--|--0--0--0--0--1--1--1--1--|
--3--3--3--3--3--3--3--3--|--0--0--0--0--1--1--1--1--|
--3--3--3--3--3--3--3--3--|--0--0--0--0--1--1--1--1--|

  E  E  E  E  E  E  E  E     E  E  E  E  E  E  E  E   
--------------------------|--------------------------|
--------------------------|--------------------------|
--------------------------|--------------------------|
--8--8--8--8--8--8--8--8--|--5--5--5--5--5--5--5--5--|
--8--8--8--8--8--8--8--8--|--5--5--5--5--5--5--5--5--|
--8--8--8--8--8--8--8--8--|--5--5--5--5--5--5--5--5--|

  E  E  E  E  E  E  E  E     E  E  E  E  E  E  E  E   
--------------------------|--------------------------|
--------------------------|--------------------------|
--------------------------|--------------------------|
--3--3--3--3--3--3--3--3--|--0--0--0--0--1--1--1--1--|
--3--3--3--3--3--3--3--3--|--0--0--0--0--1--1--1--1--|
--3--3--3--3--3--3--3--3--|--0--0--0--0--1--1--1--1--|

  E  E  E  E  E  E  E  E     E  E  E  E  E  E  E  E   
--------------------------|--------------------------|
--------------------------|--------------------------|
--------------------------|--------------------------|
--8--8--8--8--8--8--8--8--|--5--5--5--5--5--5--5--5--|
--8--8--8--8--8--8--8--8--|--5--5--5--5--5--5--5--5--|
--8--8--8--8--8--8--8--8--|--5--5--5--5--5--5--5--5--|

  E  E  E  E  E  E  E  E     E  E  E  E  E  E  E  E   
--------------------------|--------------------------|
--------------------------|--------------------------|
--------------------------|--------------------------|
--3--3--3--3--3--3--3--3--|--0--0--0--0--1--1--1--1--|
--3--3--3--3--3--3--3--3--|--0--0--0--0--1--1--1--1--|
--3--3--3--3--3--3--3--3--|--0--0--0--0--1--1--1--1--|

  E  E  E  E  E  E  E  E     E  E  E  E  E  E  E  E   
--------------------------|--------------------------|
--------------------------|--------------------------|
--------------------------|--------------------------|
--8--8--8--8--8--8--8--8--|--5--5--5--5--5--5--5--5--|
--8--8--8--8--8--8--8--8--|--5--5--5--5--5--5--5--5--|
--8--8--8--8--8--8--8--8--|--5--5--5--5--5--5--5--5--|

  E  E  E  E  E  E  E  E     E  E  E  E  E  E  E  E   
--------------------------|--------------------------|
--------------------------|--------------------------|
--------------------------|--------------------------|
--3--3--3--3--3--3--3--3--|--0--0--0--0--1--1--1--1--|
--3--3--3--3--3--3--3--3--|--0--0--0--0--1--1--1--1--|
--3--3--3--3--3--3--3--3--|--0--0--0--0--1--1--1--1--|

  E  E  E  E  E  E  E  E     E  E  E  E  E  E  E  E   
--------------------------|--------------------------|
--------------------------|--------------------------|
--5--5--5--5--5--5--5--5--|--5--5--5--5--3--3--3--3--|
--4--4--4--4--4--4--4--4--|--4--4--4--4--3--3--3--3--|
--2--2--2--2--2--2--2--2--|--2--2--2--2--1--1--1--1--|
--------------------------|--------------------------|

  E  E  E  E  E  E  E  E     E  E  E  E  E  E  E  E   
--------------------------|--------------------------|
--------------------------|--------------------------|
--2--2--2--2--2--2--2--2--|--2--2--2--2--6--6--6--6--|
--2--2--2--2--2--2--2--2--|--2--2--2--2--6--6--6--6--|
--0--0--0--0--0--0--0--0--|--0--0--0--0--4--4--4--4--|
--------------------------|--------------------------|

  E  E  E  E  E  E  E  E     E  E  E  E  E  E  E  E   
--------------------------|--------------------------|
--------------------------|--------------------------|
--5--5--5--5--5--5--5--5--|--5--5--5--5--3--3--3--3--|
--4--4--4--4--4--4--4--4--|--4--4--4--4--3--3--3--3--|
--2--2--2--2--2--2--2--2--|--2--2--2--2--1--1--1--1--|
--------------------------|--------------------------|

   ^   v   ^   v  ^  v  ^  v     ^  v  ^  v  ^  v  ^  v   
   E   E   E   E  E  E  E  E     E  E  E  E  E  E  E  E   
------------------------------|--------------------------|
------------------------------|--------------------------|
------------------------------|--------------------------|
------------------------------|--------------------------|
--11--11--11--11--9--9--9--9--|--7--7--7--7--6--6--6--6--|
--11--11--11--11--9--9--9--9--|--7--7--7--7--6--6--6--6--|

  E  E  E  E  E  E  E  E     E  E  E  E  E  E  E  E   
--------------------------|--------------------------|
--------------------------|--------------------------|
--5--5--5--5--5--5--5--5--|--5--5--5--5--3--3--3--3--|
--4--4--4--4--4--4--4--4--|--4--4--4--4--3--3--3--3--|
--2--2--2--2--2--2--2--2--|--2--2--2--2--1--1--1--1--|
--------------------------|--------------------------|

  E  E  E  E  E  E  E  E     E  E  E  E  E  E  E  E   
--------------------------|--------------------------|
--------------------------|--------------------------|
--2--2--2--2--2--2--2--2--|--2--2--2--2--6--6--6--6--|
--2--2--2--2--2--2--2--2--|--2--2--2--2--6--6--6--6--|
--0--0--0--0--0--0--0--0--|--0--0--0--0--4--4--4--4--|
--------------------------|--------------------------|

  E  E  E  E  E  E  E  E     E  E  E  E  E  E  E  E   
--------------------------|--------------------------|
--------------------------|--------------------------|
--5--5--5--5--5--5--5--5--|--5--5--5--5--3--3--3--3--|
--4--4--4--4--4--4--4--4--|--4--4--4--4--3--3--3--3--|
--2--2--2--2--2--2--2--2--|--2--2--2--2--1--1--1--1--|
--------------------------|--------------------------|

  E  E  E  E  E  E  E  E     E  E  E  E  E  E  E  E   
--------------------------|--------------------------|
--------------------------|--------------------------|
--------------------------|--------------------------|
--------------------------|--------------------------|
--5--5--7--5--5--5--4--5--|--5--5--7--5--5--5--4--5--|
--5--5--7--5--5--5--4--5--|--5--5--7--5--5--5--4--5--|

  E  E  E  E  E  E  E  E     E  E  E  E  E  E  E  E    
--------------------------|--------------------------||
--------------------------|--------------------------||
--------------------------|--------------------------||
--------------------------|--------------------------||
--5--5--7--5--5--5--4--5--|--5--5--7--5--5--5--4--5--||
--5--5--7--5--5--5--4--5--|--5--5--7--5--5--5--4--5--||

Rhythm Guitar

D||-------|-------|-------|-------|-------|-------|-------|-------|
A||-------|-------|-------|-------|-------|-------|-------|-------|
F||-------|-------|-------|-------|-------|-------|-------|-------|
C||-------|-------|-------|-------|-------|-------|-------|-------|
G||-------|-------|-------|-------|-------|-------|-------|-------|
C||-------|-------|-------|-------|-------|-------|-------|-------|

  Q    E   E   S  S  Q       Q    E   E   E   Q       Q    E   E   S  S  Q     
--------------------------|------------------------|--------------------------|
--------------------------|------------------------|--------------------------|
--------------------------|------------------------|--------------------------|
--------------------------|------------------------|--------------------------|
--2----2--(2)--2h-3p-2----|--2----2--(2)--4s--5----|--2----2--(2)--2h-3p-2----|
--2----2--(2)--2h-3p-2----|--2----2--(2)--4s--5----|--2----2--(2)--2h-3p-2----|

  Q    E   E   E   Q       Q    E   E   S  S  Q       Q    E   E   E   Q     
------------------------|--------------------------|------------------------|
------------------------|--------------------------|------------------------|
------------------------|--------------------------|------------------------|
------------------------|--------------------------|------------------------|
--2----2--(2)--4s--5----|--2----2--(2)--2h-3p-2----|--2----2--(2)--4s--5----|
--2----2--(2)--4s--5----|--2----2--(2)--2h-3p-2----|--2----2--(2)--4s--5----|

  Q    E   E   S  S  Q       Q    E   E   E   Q       Q    E   E   S  S  Q     
--------------------------|------------------------|--------------------------|
--------------------------|------------------------|--------------------------|
--------------------------|------------------------|--------------------------|
--------------------------|------------------------|--------------------------|
--2----2--(2)--2h-3p-2----|--2----2--(2)--4s--5----|--2----2--(2)--2h-3p-2----|
--2----2--(2)--2h-3p-2----|--2----2--(2)--4s--5----|--2----2--(2)--2h-3p-2----|

  Q    E   E   E   Q       Q    E   E   S  S  Q       Q    E   E   E   Q     
------------------------|--------------------------|------------------------|
------------------------|--------------------------|------------------------|
------------------------|--------------------------|------------------------|
------------------------|--------------------------|------------------------|
--2----2--(2)--4s--5----|--2----2--(2)--2h-3p-2----|--2----2--(2)--4s--5----|
--2----2--(2)--4s--5----|--2----2--(2)--2h-3p-2----|--2----2--(2)--4s--5----|

  Q    E   E   S  S  Q       Q    E   E   E   Q     
--------------------------|------------------------|
--------------------------|------------------------|
--------------------------|------------------------|
--------------------------|------------------------|
--2----2--(2)--2h-3p-2----|--2----2--(2)--4s--5----|
--2----2--(2)--2h-3p-2----|--2----2--(2)--4s--5----|

   ^   v   ^   v  ^  v  ^  v     ^  v  ^  v  ^  v  ^  v   
   E   E   E   E  E  E  E  E     E  E  E  E  E  E  E  E   
------------------------------|--------------------------|
------------------------------|--------------------------|
------------------------------|--------------------------|
------------------------------|--------------------------|
--11--11--11--11--9--9--9--9--|--7--7--7--7--6--6--6--6--|
--11--11--11--11--9--9--9--9--|--7--7--7--7--6--6--6--6--|

  Q    E   E   S  S  Q       Q    E   E   E   Q       Q    E   E   S  S  Q     
--------------------------|------------------------|--------------------------|
--------------------------|------------------------|--------------------------|
--------------------------|------------------------|--------------------------|
--------------------------|------------------------|--------------------------|
--2----2--(2)--2h-3p-2----|--2----2--(2)--4s--5----|--2----2--(2)--2h-3p-2----|
--2----2--(2)--2h-3p-2----|--2----2--(2)--4s--5----|--2----2--(2)--2h-3p-2----|

  Q    E   E   E   Q       Q    E   E   S  S  Q       Q    E   E   E   Q     
------------------------|--------------------------|------------------------|
------------------------|--------------------------|------------------------|
------------------------|--------------------------|------------------------|
------------------------|--------------------------|------------------------|
--2----2--(2)--4s--5----|--2----2--(2)--2h-3p-2----|--2----2--(2)--4s--5----|
--2----2--(2)--4s--5----|--2----2--(2)--2h-3p-2----|--2----2--(2)--4s--5----|

   ^   v   ^   v  ^  v  ^  v     ^  v  ^  v  ^  v  ^  v   
   E   E   E   E  E  E  E  E     E  E  E  E  E  E  E  E   
------------------------------|--------------------------|
------------------------------|--------------------------|
------------------------------|--------------------------|
------------------------------|--------------------------|
--11--11--11--11--9--9--9--9--|--7--7--7--7--6--6--6--6--|
--11--11--11--11--9--9--9--9--|--7--7--7--7--6--6--6--6--|

  Q    E   E   S  S  Q       Q    E   E   E   Q       Q    E   E   S  S  Q     
--------------------------|------------------------|--------------------------|
--------------------------|------------------------|--------------------------|
--------------------------|------------------------|--------------------------|
--------------------------|------------------------|--------------------------|
--2----2--(2)--2h-3p-2----|--2----2--(2)--4s--5----|--2----2--(2)--2h-3p-2----|
--2----2--(2)--2h-3p-2----|--2----2--(2)--4s--5----|--2----2--(2)--2h-3p-2----|

  Q    E   E   E   Q       Q    E   E   S  S  Q       Q    E   E   E   Q     
------------------------|--------------------------|------------------------|
------------------------|--------------------------|------------------------|
------------------------|--------------------------|------------------------|
------------------------|--------------------------|------------------------|
--2----2--(2)--4s--5----|--2----2--(2)--2h-3p-2----|--2----2--(2)--4s--5----|
--2----2--(2)--4s--5----|--2----2--(2)--2h-3p-2----|--2----2--(2)--4s--5----|

   ^   v   ^   v  ^  v  ^  v     ^  v  ^  v  ^  v  ^  v   
   E   E   E   E  E  E  E  E     E  E  E  E  E  E  E  E   
------------------------------|--------------------------|
------------------------------|--------------------------|
------------------------------|--------------------------|
------------------------------|--------------------------|
--11--11--11--11--9--9--9--9--|--7--7--7--7--6--6--6--6--|
--11--11--11--11--9--9--9--9--|--7--7--7--7--6--6--6--6--|

  PM PM PM PM PM PM PM PM    PM PM PM PM PM PM PM PM  
  E  E  E  E  E  E  E  E     E  E  E  E  E  E  E  E   
--------------------------|--------------------------|
--------------------------|--------------------------|
--------------------------|--------------------------|
--------------------------|--------------------------|
--2--2--2--2--2--3--2--2--|--2--2--2--2--4--4--5--5--|
--2--2--2--2--2--3--2--2--|--2--2--2--2--4--4--5--5--|

  PM PM PM PM PM PM PM PM    PM PM PM PM PM PM PM PM  
  E  E  E  E  E  E  E  E     E  E  E  E  E  E  E  E   
--------------------------|--------------------------|
--------------------------|--------------------------|
--------------------------|--------------------------|
--------------------------|--------------------------|
--2--2--2--2--2--3--2--2--|--2--2--2--2--4--4--5--5--|
--2--2--2--2--2--3--2--2--|--2--2--2--2--4--4--5--5--|

  E  E  E  E  E  E  E  E     E  E  E  E  E  E  E  E   
--------------------------|--------------------------|
--------------------------|--------------------------|
--5--5--5--5--5--5--5--5--|--5--5--5--5--3--3--3--3--|
--4--4--4--4--4--4--4--4--|--4--4--4--4--3--3--3--3--|
--2--2--2--2--2--2--2--2--|--2--2--2--2--1--1--1--1--|
--------------------------|--------------------------|

  E  E  E  E  E  E  E  E     E  E  E  E  E  E  E  E   
--------------------------|--------------------------|
--------------------------|--------------------------|
--2--2--2--2--2--2--2--2--|--2--2--2--2--6--6--6--6--|
--2--2--2--2--2--2--2--2--|--2--2--2--2--6--6--6--6--|
--0--0--0--0--0--0--0--0--|--0--0--0--0--4--4--4--4--|
--------------------------|--------------------------|

  E  E  E  E  E  E  E  E     E  E  E  E  E  E  E  E   
--------------------------|--------------------------|
--------------------------|--------------------------|
--5--5--5--5--5--5--5--5--|--5--5--5--5--3--3--3--3--|
--4--4--4--4--4--4--4--4--|--4--4--4--4--3--3--3--3--|
--2--2--2--2--2--2--2--2--|--2--2--2--2--1--1--1--1--|
--------------------------|--------------------------|

   ^   v   ^   v  ^  v  ^  v     ^  v  ^  v  ^  v  ^  v   
   E   E   E   E  E  E  E  E     E  E  E  E  E  E  E  E   
------------------------------|--------------------------|
------------------------------|--------------------------|
------------------------------|--------------------------|
------------------------------|--------------------------|
--11--11--11--11--9--9--9--9--|--7--7--7--7--6--6--6--6--|
--11--11--11--11--9--9--9--9--|--7--7--7--7--6--6--6--6--|

  E  E  E  E  E  E  E  E     E  E  E  E  E  E  E  E   
--------------------------|--------------------------|
--------------------------|--------------------------|
--5--5--5--5--5--5--5--5--|--5--5--5--5--3--3--3--3--|
--4--4--4--4--4--4--4--4--|--4--4--4--4--3--3--3--3--|
--2--2--2--2--2--2--2--2--|--2--2--2--2--1--1--1--1--|
--------------------------|--------------------------|

  E  E  E  E  E  E  E  E     E  E  E  E  E  E  E  E   
--------------------------|--------------------------|
--------------------------|--------------------------|
--2--2--2--2--2--2--2--2--|--2--2--2--2--6--6--6--6--|
--2--2--2--2--2--2--2--2--|--2--2--2--2--6--6--6--6--|
--0--0--0--0--0--0--0--0--|--0--0--0--0--4--4--4--4--|
--------------------------|--------------------------|

  E  E  E  E  E  E  E  E     E  E  E  E  E  E  E  E     W                 
--------------------------|--------------------------|-------------------|
--------------------------|--------------------------|-------------------|
--5--5--5--5--5--5--5--5--|--5--5--5--5--3--3--3--3--|--2----------------|
--4--4--4--4--4--4--4--4--|--4--4--4--4--3--3--3--3--|--2----------------|
--2--2--2--2--2--2--2--2--|--2--2--2--2--1--1--1--1--|--0----------------|
--------------------------|--------------------------|-------------------|

                      Q    E   E   S  S  Q       Q    E   E   E   Q     
-------------------|--------------------------|------------------------|
-------------------|--------------------------|------------------------|
-------------------|--------------------------|------------------------|
-------------------|--------------------------|------------------------|
-------------------|--2----2--(2)--2h-3p-2----|--2----2--(2)--4s--5----|
-------------------|--2----2--(2)--2h-3p-2----|--2----2--(2)--4s--5----|

  Q    E   E   S  S  Q       Q    E   E   E   Q       Q    E   E   S  S  Q     
--------------------------|------------------------|--------------------------|
--------------------------|------------------------|--------------------------|
--------------------------|------------------------|--------------------------|
--------------------------|------------------------|--------------------------|
--2----2--(2)--2h-3p-2----|--2----2--(2)--4s--5----|--2----2--(2)--2h-3p-2----|
--2----2--(2)--2h-3p-2----|--2----2--(2)--4s--5----|--2----2--(2)--2h-3p-2----|

                            ^   v   ^   v  ^  v  ^  v   
  Q    E   E   E   Q        E   E   E   E  E  E  E  E   
------------------------|------------------------------|
------------------------|------------------------------|
------------------------|------------------------------|
------------------------|------------------------------|
--2----2--(2)--4s--5----|--11--11--11--11--9--9--9--9--|
--2----2--(2)--4s--5----|--11--11--11--11--9--9--9--9--|

  ^  v  ^  v  ^  v  ^  v                                                       
  E  E  E  E  E  E  E  E     Q    E   E   S  S  Q       Q    E   E   E   Q     
--------------------------|--------------------------|------------------------|
--------------------------|--------------------------|------------------------|
--------------------------|--------------------------|------------------------|
--------------------------|--------------------------|------------------------|
--7--7--7--7--6--6--6--6--|--2----2--(2)--2h-3p-2----|--2----2--(2)--4s--5----|
--7--7--7--7--6--6--6--6--|--2----2--(2)--2h-3p-2----|--2----2--(2)--4s--5----|

  Q    E   E   S  S  Q       Q    E   E   E   Q       Q    E   E   S  S  Q     
--------------------------|------------------------|--------------------------|
--------------------------|------------------------|--------------------------|
--------------------------|------------------------|--------------------------|
--------------------------|------------------------|--------------------------|
--2----2--(2)--2h-3p-2----|--2----2--(2)--4s--5----|--2----2--(2)--2h-3p-2----|
--2----2--(2)--2h-3p-2----|--2----2--(2)--4s--5----|--2----2--(2)--2h-3p-2----|

                            ^   v   ^   v  ^  v  ^  v   
  Q    E   E   E   Q        E   E   E   E  E  E  E  E   
------------------------|------------------------------|
------------------------|------------------------------|
------------------------|------------------------------|
------------------------|------------------------------|
--2----2--(2)--4s--5----|--11--11--11--11--9--9--9--9--|
--2----2--(2)--4s--5----|--11--11--11--11--9--9--9--9--|

  ^  v  ^  v  ^  v  ^  v                                                       
  E  E  E  E  E  E  E  E     Q    E   E   S  S  Q       Q    E   E   E   Q     
--------------------------|--------------------------|------------------------|
--------------------------|--------------------------|------------------------|
--------------------------|--------------------------|------------------------|
--------------------------|--------------------------|------------------------|
--7--7--7--7--6--6--6--6--|--2----2--(2)--2h-3p-2----|--2----2--(2)--4s--5----|
--7--7--7--7--6--6--6--6--|--2----2--(2)--2h-3p-2----|--2----2--(2)--4s--5----|

  Q    E   E   S  S  Q       Q    E   E   E   Q       Q    E   E   S  S  Q     
--------------------------|------------------------|--------------------------|
--------------------------|------------------------|--------------------------|
--------------------------|------------------------|--------------------------|
--------------------------|------------------------|--------------------------|
--2----2--(2)--2h-3p-2----|--2----2--(2)--4s--5----|--2----2--(2)--2h-3p-2----|
--2----2--(2)--2h-3p-2----|--2----2--(2)--4s--5----|--2----2--(2)--2h-3p-2----|

                            ^   v   ^   v  ^  v  ^  v   
  Q    E   E   E   Q        E   E   E   E  E  E  E  E   
------------------------|------------------------------|
------------------------|------------------------------|
------------------------|------------------------------|
------------------------|------------------------------|
--2----2--(2)--4s--5----|--11--11--11--11--9--9--9--9--|
--2----2--(2)--4s--5----|--11--11--11--11--9--9--9--9--|

  ^  v  ^  v  ^  v  ^  v     PM PM PM PM PM PM PM PM  
  E  E  E  E  E  E  E  E     E  E  E  E  E  E  E  E   
--------------------------|--------------------------|
--------------------------|--------------------------|
--------------------------|--------------------------|
--------------------------|--------------------------|
--7--7--7--7--6--6--6--6--|--2--2--2--2--2--3--2--2--|
--7--7--7--7--6--6--6--6--|--2--2--2--2--2--3--2--2--|

  PM PM PM PM PM PM PM PM    PM PM PM PM PM PM PM PM  
  E  E  E  E  E  E  E  E     E  E  E  E  E  E  E  E   
--------------------------|--------------------------|
--------------------------|--------------------------|
--------------------------|--------------------------|
--------------------------|--------------------------|
--2--2--2--2--4--4--5--5--|--2--2--2--2--2--3--2--2--|
--2--2--2--2--4--4--5--5--|--2--2--2--2--2--3--2--2--|

  PM PM PM PM PM PM PM PM                             
  E  E  E  E  E  E  E  E     E  E  E  E  E  E  E  E   
--------------------------|--------------------------|
--------------------------|--------------------------|
--------------------------|--5--5--5--5--5--5--5--5--|
--------------------------|--4--4--4--4--4--4--4--4--|
--2--2--2--2--4--4--5--5--|--2--2--2--2--2--2--2--2--|
--2--2--2--2--4--4--5--5--|--------------------------|

  E  E  E  E  E  E  E  E     E  E  E  E  E  E  E  E   
--------------------------|--------------------------|
--------------------------|--------------------------|
--5--5--5--5--3--3--3--3--|--2--2--2--2--2--2--2--2--|
--4--4--4--4--3--3--3--3--|--2--2--2--2--2--2--2--2--|
--2--2--2--2--1--1--1--1--|--0--0--0--0--0--0--0--0--|
--------------------------|--------------------------|

  E  E  E  E  E  E  E  E     E  E  E  E  E  E  E  E   
--------------------------|--------------------------|
--------------------------|--------------------------|
--2--2--2--2--6--6--6--6--|--5--5--5--5--5--5--5--5--|
--2--2--2--2--6--6--6--6--|--4--4--4--4--4--4--4--4--|
--0--0--0--0--4--4--4--4--|--2--2--2--2--2--2--2--2--|
--------------------------|--------------------------|

                              ^   v   ^   v  ^  v  ^  v   
  E  E  E  E  E  E  E  E      E   E   E   E  E  E  E  E   
--------------------------|------------------------------|
--------------------------|------------------------------|
--5--5--5--5--3--3--3--3--|------------------------------|
--4--4--4--4--3--3--3--3--|------------------------------|
--2--2--2--2--1--1--1--1--|--11--11--11--11--9--9--9--9--|
--------------------------|--11--11--11--11--9--9--9--9--|

  ^  v  ^  v  ^  v  ^  v                              
  E  E  E  E  E  E  E  E     E  E  E  E  E  E  E  E   
--------------------------|--------------------------|
--------------------------|--------------------------|
--------------------------|--5--5--5--5--5--5--5--5--|
--------------------------|--4--4--4--4--4--4--4--4--|
--7--7--7--7--6--6--6--6--|--2--2--2--2--2--2--2--2--|
--7--7--7--7--6--6--6--6--|--------------------------|

  E  E  E  E  E  E  E  E     E  E  E  E  E  E  E  E   
--------------------------|--------------------------|
--------------------------|--------------------------|
--5--5--5--5--3--3--3--3--|--2--2--2--2--2--2--2--2--|
--4--4--4--4--3--3--3--3--|--2--2--2--2--2--2--2--2--|
--2--2--2--2--1--1--1--1--|--0--0--0--0--0--0--0--0--|
--------------------------|--------------------------|

  E  E  E  E  E  E  E  E     E  E  E  E  E  E  E  E   
--------------------------|--------------------------|
--------------------------|--------------------------|
--2--2--2--2--6--6--6--6--|--5--5--5--5--5--5--5--5--|
--2--2--2--2--6--6--6--6--|--4--4--4--4--4--4--4--4--|
--0--0--0--0--4--4--4--4--|--2--2--2--2--2--2--2--2--|
--------------------------|--------------------------|

  E  E  E  E  E  E  E  E     W                                     
--------------------------|-------------------|-------------------|
--------------------------|-------------------|-------------------|
--5--5--5--5--3--3--3--3--|--2----------------|-------------------|
--4--4--4--4--3--3--3--3--|--2----------------|-------------------|
--2--2--2--2--1--1--1--1--|--0----------------|-------------------|
--------------------------|-------------------|-------------------|

  Q    E   E   S  S  Q       Q    E   E   E   Q       Q    E   E   S  S  Q     
--------------------------|------------------------|--------------------------|
--------------------------|------------------------|--------------------------|
--------------------------|------------------------|--------------------------|
--------------------------|------------------------|--------------------------|
--2----2--(2)--2--3--2----|--2----2--(2)--4s--5----|--2----2--(2)--2--3--2----|
--2----2--(2)--2h-3p-2----|--2----2--(2)--4s--5----|--2----2--(2)--2h-3p-2----|

  Q    E   E   E   Q       E  E  E  E  E  E  E  E     E  E  E  E  E   H         
------------------------|--------------------------|---------------------------|
------------------------|--------------------------|---------------------------|
------------------------|--------------------------|---------------------------|
------------------------|--------------------------|---------------------------|
--2----2--(2)--4s--5----|--2--2-----2--2--2-----2--|--2--2-----2--4s--5--------|
--2----2--(2)--4s--5----|--2--2-----2--2--2-----2--|--2--2-----2--4s--5--------|

  E  E  E  E  E  E  E  E     E  E  E  E  E   H         
--------------------------|---------------------------|
--------------------------|---------------------------|
--------------------------|---------------------------|
--------------------------|---------------------------|
--2--2-----2--2--2-----2--|--2--2-----2--4s--5--------|
--2--2-----2--2--2-----2--|--2--2-----2--4s--5--------|

  Q    E   E   S  S  Q       Q    E   E   E   Q       Q    E   E   S  S  Q     
--------------------------|------------------------|--------------------------|
--------------------------|------------------------|--------------------------|
--------------------------|------------------------|--------------------------|
--------------------------|------------------------|--------------------------|
--2----2--(2)--2--3--2----|--2----2--(2)--4s--5----|--2----2--(2)--2--3--2----|
--2----2--(2)--2h-3p-2----|--2----2--(2)--4s--5----|--2----2--(2)--2h-3p-2----|

  Q    E   E   E   Q       E  E  E  E  E  E  E  E     E  E  E  E  E   H         
------------------------|--------------------------|---------------------------|
------------------------|--------------------------|---------------------------|
------------------------|--------------------------|---------------------------|
------------------------|--------------------------|---------------------------|
--2----2--(2)--4s--5----|--2--2-----2--2--2-----2--|--2--2-----2--4s--5--------|
--2----2--(2)--4s--5----|--2--2-----2--2--2-----2--|--2--2-----2--4s--5--------|

  E  E  E  E  E  E  E  E     E  E  E  E  E   H         
--------------------------|---------------------------|
--------------------------|---------------------------|
--------------------------|---------------------------|
--------------------------|---------------------------|
--2--2-----2--2--2-----2--|--2--2-----2--4s--5--------|
--2--2-----2--2--2-----2--|--2--2-----2--4s--5--------|

  E  E  E  E  E  E  E  E     E  E  E  E  E  E  E  E   
--------------------------|--------------------------|
--------------------------|--------------------------|
--------------------------|--------------------------|
--8--8--8--8--8--8--8--8--|--5--5--5--5--5--5--5--5--|
--8--8--8--8--8--8--8--8--|--5--5--5--5--5--5--5--5--|
--8--8--8--8--8--8--8--8--|--5--5--5--5--5--5--5--5--|

  E  E  E  E  E  E  E  E     E  E  E  E  E  E  E  E   
--------------------------|--------------------------|
--------------------------|--------------------------|
--------------------------|--------------------------|
--3--3--3--3--3--3--3--3--|--0--0--0--0--1--1--1--1--|
--3--3--3--3--3--3--3--3--|--0--0--0--0--1--1--1--1--|
--3--3--3--3--3--3--3--3--|--0--0--0--0--1--1--1--1--|

  E  E  E  E  E  E  E  E     E  E  E  E  E  E  E  E   
--------------------------|--------------------------|
--------------------------|--------------------------|
--------------------------|--------------------------|
--8--8--8--8--8--8--8--8--|--5--5--5--5--5--5--5--5--|
--8--8--8--8--8--8--8--8--|--5--5--5--5--5--5--5--5--|
--8--8--8--8--8--8--8--8--|--5--5--5--5--5--5--5--5--|

  E  E  E  E  E  E  E  E     E  E  E  E  E  E  E  E   
--------------------------|--------------------------|
--------------------------|--------------------------|
--------------------------|--------------------------|
--3--3--3--3--3--3--3--3--|--0--0--0--0--1--1--1--1--|
--3--3--3--3--3--3--3--3--|--0--0--0--0--1--1--1--1--|
--3--3--3--3--3--3--3--3--|--0--0--0--0--1--1--1--1--|

  E  E  E  E  E  E  E  E     E  E  E  E  E  E  E  E   
--------------------------|--------------------------|
--------------------------|--------------------------|
--------------------------|--------------------------|
--8--8--8--8--8--8--8--8--|--5--5--5--5--5--5--5--5--|
--8--8--8--8--8--8--8--8--|--5--5--5--5--5--5--5--5--|
--8--8--8--8--8--8--8--8--|--5--5--5--5--5--5--5--5--|

  E  E  E  E  E  E  E  E     E  E  E  E  E  E  E  E   
--------------------------|--------------------------|
--------------------------|--------------------------|
--------------------------|--------------------------|
--3--3--3--3--3--3--3--3--|--0--0--0--0--1--1--1--1--|
--3--3--3--3--3--3--3--3--|--0--0--0--0--1--1--1--1--|
--3--3--3--3--3--3--3--3--|--0--0--0--0--1--1--1--1--|

  E  E  E  E  E  E  E  E     E  E  E  E  E  E  E  E   
--------------------------|--------------------------|
--------------------------|--------------------------|
--------------------------|--------------------------|
--8--8--8--8--8--8--8--8--|--5--5--5--5--5--5--5--5--|
--8--8--8--8--8--8--8--8--|--5--5--5--5--5--5--5--5--|
--8--8--8--8--8--8--8--8--|--5--5--5--5--5--5--5--5--|

  E  E  E  E  E  E  E  E     E  E  E  E  E  E  E  E   
--------------------------|--------------------------|
--------------------------|--------------------------|
--------------------------|--------------------------|
--3--3--3--3--3--3--3--3--|--0--0--0--0--1--1--1--1--|
--3--3--3--3--3--3--3--3--|--0--0--0--0--1--1--1--1--|
--3--3--3--3--3--3--3--3--|--0--0--0--0--1--1--1--1--|

  E  E  E  E  E  E  E  E     E  E  E  E  E  E  E  E   
--------------------------|--------------------------|
--------------------------|--------------------------|
--5--5--5--5--5--5--5--5--|--5--5--5--5--3--3--3--3--|
--4--4--4--4--4--4--4--4--|--4--4--4--4--3--3--3--3--|
--2--2--2--2--2--2--2--2--|--2--2--2--2--1--1--1--1--|
--------------------------|--------------------------|

  E  E  E  E  E  E  E  E     E  E  E  E  E  E  E  E   
--------------------------|--------------------------|
--------------------------|--------------------------|
--2--2--2--2--2--2--2--2--|--2--2--2--2--6--6--6--6--|
--2--2--2--2--2--2--2--2--|--2--2--2--2--6--6--6--6--|
--0--0--0--0--0--0--0--0--|--0--0--0--0--4--4--4--4--|
--------------------------|--------------------------|

  E  E  E  E  E  E  E  E     E  E  E  E  E  E  E  E   
--------------------------|--------------------------|
--------------------------|--------------------------|
--5--5--5--5--5--5--5--5--|--5--5--5--5--3--3--3--3--|
--4--4--4--4--4--4--4--4--|--4--4--4--4--3--3--3--3--|
--2--2--2--2--2--2--2--2--|--2--2--2--2--1--1--1--1--|
--------------------------|--------------------------|

   ^   v   ^   v  ^  v  ^  v     ^  v  ^  v  ^  v  ^  v   
   E   E   E   E  E  E  E  E     E  E  E  E  E  E  E  E   
------------------------------|--------------------------|
------------------------------|--------------------------|
------------------------------|--------------------------|
------------------------------|--------------------------|
--11--11--11--11--9--9--9--9--|--7--7--7--7--6--6--6--6--|
--11--11--11--11--9--9--9--9--|--7--7--7--7--6--6--6--6--|

  E  E  E  E  E  E  E  E     E  E  E  E  E  E  E  E   
--------------------------|--------------------------|
--------------------------|--------------------------|
--5--5--5--5--5--5--5--5--|--5--5--5--5--3--3--3--3--|
--4--4--4--4--4--4--4--4--|--4--4--4--4--3--3--3--3--|
--2--2--2--2--2--2--2--2--|--2--2--2--2--1--1--1--1--|
--------------------------|--------------------------|

  E  E  E  E  E  E  E  E     E  E  E  E  E  E  E  E   
--------------------------|--------------------------|
--------------------------|--------------------------|
--2--2--2--2--2--2--2--2--|--2--2--2--2--6--6--6--6--|
--2--2--2--2--2--2--2--2--|--2--2--2--2--6--6--6--6--|
--0--0--0--0--0--0--0--0--|--0--0--0--0--4--4--4--4--|
--------------------------|--------------------------|

  E  E  E  E  E  E  E  E     E  E  E  E  E  E  E  E   
--------------------------|--------------------------|
--------------------------|--------------------------|
--5--5--5--5--5--5--5--5--|--5--5--5--5--3--3--3--3--|
--4--4--4--4--4--4--4--4--|--4--4--4--4--3--3--3--3--|
--2--2--2--2--2--2--2--2--|--2--2--2--2--1--1--1--1--|
--------------------------|--------------------------|

  E  E  E  E  E  E  E  E     E  E  E  E  E  E  E  E   
--------------------------|--------------------------|
--------------------------|--------------------------|
--------------------------|--------------------------|
--------------------------|--------------------------|
--5--5--7--5--5--5--4--5--|--5--5--7--5--5--5--4--5--|
--5--5--7--5--5--5--4--5--|--5--5--7--5--5--5--4--5--|

  E  E  E  E  E  E  E  E     E  E  E  E  E  E  E  E    
--------------------------|--------------------------||
--------------------------|--------------------------||
--------------------------|--------------------------||
--------------------------|--------------------------||
--5--5--7--5--5--5--4--5--|--5--5--7--5--5--5--4--5--||
--5--5--7--5--5--5--4--5--|--5--5--7--5--5--5--4--5--||
comments
print report bad tab
I want to post or [tab]
guest
You may want to rate the tab now too:
select rating
Please do not post tabs as comments. Select "correction" instead!