Oops, an error
Loading. Please wait.

420 Proof - Heres Your Proof Part 2 Tab

490 views 1 this week
no commentswrite comment
1 2 3 4 5
excellent!
x 3
Autoscroll
+/-
esc
set tempo
stop
Contributor
Hey! There's an official Ultimate Guitar app which is ideal
for learning songs when you're away from computer. Get the app
WARNING: You are trying to view
                                    content from Ultimate-Guitar.com
                                    in an unauthorized application,
                                    which is prohibited.

                                    Please use an official Ultimate
                                    Guitar Tabs application for iPhone,
                                    iPad or Android to access legitimate
                                    chords, guitar, bass, and drum tabs
                                    from Ultimate-Guitar.com database.

                                    Type "ultimate guitar tabs" in Apple
                                    App Store's or Android Market's
                                    search to find the application.
==========My Life==========

Lead Guitar

     PM PM PM PM                PM PM PM PM              
     E  E  E  E  E  E  E  E     E  E  E  E  E  E  E  E   
D||--------------------------|--------------------------|
A||--------------3--3--3--3--|--------------7--7--7--7--|
F||--------------x--x--x--x--|--------------x--x--x--x--|
C||--------------2--2--2--2--|--------------5--5--5--5--|
G||--0--0--0--0--------------|--0--0--0--0--------------|
C||--0--0--0--0--------------|--0--0--0--0--------------|

  PM PM PM PM                PM PM PM PM              
  E  E  E  E  E  E  E  E     E  E  E  E  E  E  E  E   
--------------------------|--------------------------|
--------------5--5--5--5--|--------------5--5--5--5--|
--------------x--x--x--x--|--------------x--x--x--x--|
--------------3--3--3--3--|--------------3--3--3--3--|
--0--0--0--0--------------|--0--0--0--0--------------|
--0--0--0--0--------------|--0--0--0--0--------------|

  PM PM PM PM                PM PM PM PM              
  E  E  E  E  E  E  E  E     E  E  E  E  E  E  E  E   
--------------------------|--------------------------|
--------------3--3--3--3--|--------------3--3--3--3--|
--------------x--x--x--x--|--------------x--x--x--x--|
--------------2--2--2--2--|--------------2--2--2--2--|
--0--0--0--0--------------|--0--0--0--0--------------|
--0--0--0--0--------------|--0--0--0--0--------------|

  PM PM PM PM                PM PM PM PM              
  E  E  E  E  E  E  E  E     E  E  E  E  E  E  E  E   
--------------------------|--------------------------|
--------------3--3--3--3--|--------------3--3--3--3--|
--------------x--x--x--x--|--------------x--x--x--x--|
--------------2--2--2--2--|--------------2--2--2--2--|
--0--0--0--0--------------|--0--0--0--0--------------|
--0--0--0--0--------------|--0--0--0--0--------------|

  PM PM PM PM                PM PM PM PM              
  E  E  E  E  E  E  E  E     E  E  E  E  E  E  E  E   
--------------------------|--------------------------|
--------------3--3--3--3--|--------------7--7--7--7--|
--------------x--x--x--x--|--------------x--x--x--x--|
--------------2--2--2--2--|--------------5--5--5--5--|
--0--0--0--0--------------|--0--0--0--0--------------|
--0--0--0--0--------------|--0--0--0--0--------------|

  PM PM PM PM                PM PM PM PM              
  E  E  E  E  E  E  E  E     E  E  E  E  E  E  E  E   
--------------------------|--------------------------|
--------------5--5--5--5--|--------------5--5--5--5--|
--------------x--x--x--x--|--------------x--x--x--x--|
--------------3--3--3--3--|--------------3--3--3--3--|
--0--0--0--0--------------|--0--0--0--0--------------|
--0--0--0--0--------------|--0--0--0--0--------------|

  PM PM PM PM                PM PM PM PM              
  E  E  E  E  E  E  E  E     E  E  E  E  E  E  E  E   
--------------------------|--------------------------|
--------------3--3--3--3--|--------------3--3--3--3--|
--------------x--x--x--x--|--------------x--x--x--x--|
--------------2--2--2--2--|--------------2--2--2--2--|
--0--0--0--0--------------|--0--0--0--0--------------|
--0--0--0--0--------------|--0--0--0--0--------------|

  PM PM PM PM                PM PM PM PM              
  E  E  E  E  E  E  E  E     E  E  E  E  E  E  E  E   
--------------------------|--------------------------|
--------------3--3--3--3--|--------------3--3--3--3--|
--------------x--x--x--x--|--------------x--x--x--x--|
--------------2--2--2--2--|--------------2--2--2--2--|
--0--0--0--0--------------|--0--0--0--0--------------|
--0--0--0--0--------------|--0--0--0--0--------------|

  E  E  E  E  E  E  E  E     E  E  E  E  E  E  E  E   
--------------------------|--------------------------|
--------------------------|--------------------------|
--------------------------|--------------------------|
--2--2--0--2--7--7--7--7--|--9--9--9--9--7--7--7--7--|
--2--2--0--2--7--7--7--7--|--7--7--7--7--7--7--7--7--|
--2--2--0--2--7--7--7--7--|--7--7--7--7--7--7--7--7--|

  E  E  E  E  E  E  E  E     E  E  E  E  E  E  E  E   
--------------------------|--------------------------|
--------------------------|--------------------------|
--------------7--7--7--7--|--------------------------|
--5--5--5--5--x--x--x--x--|--5--5--5--5--4--4--4--4--|
--5--5--5--5--5--5--5--5--|--5--5--5--5--4--4--4--4--|
--5--5--5--5--------------|--5--5--5--5--4--4--4--4--|

  E  E  E  E  E  E  E  E     E  E  E  E  E  E  E  E   
--------------------------|--------------------------|
--------------------------|--------------------------|
--------------------------|--------------------------|
--3--3--3--3--5--5--5--5--|--3--3--3--3--2--2--2--2--|
--3--3--3--3--3--3--3--3--|--3--3--3--3--2--2--2--2--|
--3--3--3--3--3--3--3--3--|--3--3--3--3--2--2--2--2--|

  E  E  E  E  E  E  E  E     E  E  E  E  E  E  E  E   
--------------------------|--------------------------|
--------------------------|--------------------------|
--------------------------|--------------------------|
--0--0--0--0--1--1--0--0--|--0--0--0--0--1--1--0--0--|
--0--0--0--0--1--1--0--0--|--0--0--0--0--1--1--0--0--|
--0--0--0--0--1--1--0--0--|--0--0--0--0--1--1--0--0--|

  E  E  E  E  E  E  E  E     E  E  E  E  E  E  E  E   
--------------------------|--------------------------|
--------------------------|--------------------------|
--------------------------|--------------------------|
--2--2--0--2--7--7--7--7--|--9--9--9--9--7--7--7--7--|
--2--2--0--2--7--7--7--7--|--7--7--7--7--7--7--7--7--|
--2--2--0--2--7--7--7--7--|--7--7--7--7--7--7--7--7--|

  E  E  E  E  E  E  E  E     E  E  E  E  E  E  E  E   
--------------------------|--------------------------|
--------------------------|--------------------------|
--------------7--7--7--7--|--------------------------|
--5--5--5--5--x--x--x--x--|--5--5--5--5--4--4--4--4--|
--5--5--5--5--5--5--5--5--|--5--5--5--5--4--4--4--4--|
--5--5--5--5--------------|--5--5--5--5--4--4--4--4--|

  E  E  E  E  E  E  E  E     E  E  E  E  E  E  E  E   
--------------------------|--------------------------|
--------------------------|--------------------------|
--------------------------|--------------------------|
--3--3--3--3--5--5--5--5--|--3--3--3--3--2--2--2--2--|
--3--3--3--3--3--3--3--3--|--3--3--3--3--2--2--2--2--|
--3--3--3--3--3--3--3--3--|--3--3--3--3--2--2--2--2--|

  E  E  E  E  E  E  E  E     E  E  E  E  E  E  E  E   
--------------------------|--------------------------|
--------------------------|--------------------------|
--------------------------|--------------------------|
--0--0--0--0--1--1--0--0--|--0--0--0--0--1--1--0--0--|
--0--0--0--0--1--1--0--0--|--0--0--0--0--1--1--0--0--|
--0--0--0--0--1--1--0--0--|--0--0--0--0--1--1--0--0--|

  E  E  E  E  E  E  E  E     E  E  E  E  E  E  E  E   
--------------------------|--------------------------|
--------------------------|--------------------------|
--------------------------|--------------------------|
--0--0--0--0--1--1--0--0--|--0--0--0--0--1--1--0--0--|
--0--0--0--0--1--1--0--0--|--0--0--0--0--1--1--0--0--|
--0--0--0--0--1--1--0--0--|--0--0--0--0--1--1--0--0--|

  PM PM PM PM                PM PM PM PM              
  E  E  E  E  E  E  E  E     E  E  E  E  E  E  E  E   
--------------------------|--------------------------|
--------------3--3--3--3--|--------------7--7--7--7--|
--------------x--x--x--x--|--------------x--x--x--x--|
--------------2--2--2--2--|--------------5--5--5--5--|
--0--0--0--0--------------|--0--0--0--0--------------|
--0--0--0--0--------------|--0--0--0--0--------------|

  PM PM PM PM                PM PM PM PM              
  E  E  E  E  E  E  E  E     E  E  E  E  E  E  E  E   
--------------------------|--------------------------|
--------------5--5--5--5--|--------------5--5--5--5--|
--------------x--x--x--x--|--------------x--x--x--x--|
--------------3--3--3--3--|--------------3--3--3--3--|
--0--0--0--0--------------|--0--0--0--0--------------|
--0--0--0--0--------------|--0--0--0--0--------------|

  PM PM PM PM                PM PM PM PM              
  E  E  E  E  E  E  E  E     E  E  E  E  E  E  E  E   
--------------------------|--------------------------|
--------------3--3--3--3--|--------------3--3--3--3--|
--------------x--x--x--x--|--------------x--x--x--x--|
--------------2--2--2--2--|--------------2--2--2--2--|
--0--0--0--0--------------|--0--0--0--0--------------|
--0--0--0--0--------------|--0--0--0--0--------------|

  PM PM PM PM                PM PM PM PM              
  E  E  E  E  E  E  E  E     E  E  E  E  E  E  E  E   
--------------------------|--------------------------|
--------------3--3--3--3--|--------------3--3--3--3--|
--------------x--x--x--x--|--------------x--x--x--x--|
--------------2--2--2--2--|--------------2--2--2--2--|
--0--0--0--0--------------|--0--0--0--0--------------|
--0--0--0--0--------------|--0--0--0--0--------------|

  PM PM PM PM                PM PM PM PM              
  E  E  E  E  E  E  E  E     E  E  E  E  E  E  E  E   
--------------------------|--------------------------|
--------------3--3--3--3--|--------------7--7--7--7--|
--------------x--x--x--x--|--------------x--x--x--x--|
--------------2--2--2--2--|--------------5--5--5--5--|
--0--0--0--0--------------|--0--0--0--0--------------|
--0--0--0--0--------------|--0--0--0--0--------------|

  PM PM PM PM                PM PM PM PM              
  E  E  E  E  E  E  E  E     E  E  E  E  E  E  E  E   
--------------------------|--------------------------|
--------------5--5--5--5--|--------------5--5--5--5--|
--------------x--x--x--x--|--------------x--x--x--x--|
--------------3--3--3--3--|--------------3--3--3--3--|
--0--0--0--0--------------|--0--0--0--0--------------|
--0--0--0--0--------------|--0--0--0--0--------------|

  PM PM PM PM                PM PM PM PM              
  E  E  E  E  E  E  E  E     E  E  E  E  E  E  E  E   
--------------------------|--------------------------|
--------------3--3--3--3--|--------------3--3--3--3--|
--------------x--x--x--x--|--------------x--x--x--x--|
--------------2--2--2--2--|--------------2--2--2--2--|
--0--0--0--0--------------|--0--0--0--0--------------|
--0--0--0--0--------------|--0--0--0--0--------------|

  PM PM PM PM                PM PM PM PM              
  E  E  E  E  E  E  E  E     E  E  E  E  E  E  E  E   
--------------------------|--------------------------|
--------------3--3--3--3--|--------------3--3--3--3--|
--------------x--x--x--x--|--------------x--x--x--x--|
--------------2--2--2--2--|--------------2--2--2--2--|
--0--0--0--0--------------|--0--0--0--0--------------|
--0--0--0--0--------------|--0--0--0--0--------------|

  E  E  E  E  E  E  E  E     E  E  E  E  E  E  E  E   
--------------------------|--------------------------|
--------------------------|--------------------------|
--------------------------|--------------------------|
--2--2--0--2--7--7--7--7--|--9--9--9--9--7--7--7--7--|
--2--2--0--2--7--7--7--7--|--7--7--7--7--7--7--7--7--|
--2--2--0--2--7--7--7--7--|--7--7--7--7--7--7--7--7--|

  E  E  E  E  E  E  E  E     E  E  E  E  E  E  E  E   
--------------------------|--------------------------|
--------------------------|--------------------------|
--------------7--7--7--7--|--------------------------|
--5--5--5--5--x--x--x--x--|--5--5--5--5--4--4--4--4--|
--5--5--5--5--5--5--5--5--|--5--5--5--5--4--4--4--4--|
--5--5--5--5--------------|--5--5--5--5--4--4--4--4--|

  E  E  E  E  E  E  E  E     E  E  E  E  E  E  E  E   
--------------------------|--------------------------|
--------------------------|--------------------------|
--------------------------|--------------------------|
--3--3--3--3--5--5--5--5--|--3--3--3--3--2--2--2--2--|
--3--3--3--3--3--3--3--3--|--3--3--3--3--2--2--2--2--|
--3--3--3--3--3--3--3--3--|--3--3--3--3--2--2--2--2--|

  E  E  E  E  E  E  E  E     E  E  E  E  E  E  E  E   
--------------------------|--------------------------|
--------------------------|--------------------------|
--------------------------|--------------------------|
--0--0--0--0--1--1--0--0--|--0--0--0--0--1--1--0--0--|
--0--0--0--0--1--1--0--0--|--0--0--0--0--1--1--0--0--|
--0--0--0--0--1--1--0--0--|--0--0--0--0--1--1--0--0--|

  E  E  E  E  E  E  E  E     E  E  E  E  E  E  E  E   
--------------------------|--------------------------|
--------------------------|--------------------------|
--------------------------|--------------------------|
--2--2--0--2--7--7--7--7--|--9--9--9--9--7--7--7--7--|
--2--2--0--2--7--7--7--7--|--7--7--7--7--7--7--7--7--|
--2--2--0--2--7--7--7--7--|--7--7--7--7--7--7--7--7--|

  E  E  E  E  E  E  E  E     E  E  E  E  E  E  E  E   
--------------------------|--------------------------|
--------------------------|--------------------------|
--------------7--7--7--7--|--------------------------|
--5--5--5--5--x--x--x--x--|--5--5--5--5--4--4--4--4--|
--5--5--5--5--5--5--5--5--|--5--5--5--5--4--4--4--4--|
--5--5--5--5--------------|--5--5--5--5--4--4--4--4--|

  E  E  E  E  E  E  E  E     E  E  E  E  E  E  E  E   
--------------------------|--------------------------|
--------------------------|--------------------------|
--------------------------|--------------------------|
--3--3--3--3--5--5--5--5--|--3--3--3--3--2--2--2--2--|
--3--3--3--3--3--3--3--3--|--3--3--3--3--2--2--2--2--|
--3--3--3--3--3--3--3--3--|--3--3--3--3--2--2--2--2--|

  E  E  E  E  E  E  E  E     E  E  E  E  E  E  E  E   
--------------------------|--------------------------|
--------------------------|--------------------------|
--------------------------|--------------------------|
--0--0--0--0--1--1--0--0--|--0--0--0--0--1--1--0--0--|
--0--0--0--0--1--1--0--0--|--0--0--0--0--1--1--0--0--|
--0--0--0--0--1--1--0--0--|--0--0--0--0--1--1--0--0--|

  E  E  E  E  E  E  E  E     E  E  E  E  E  E  E  E   
--------------------------|--------------------------|
--------------------------|--------------------------|
--------------------------|--------------------------|
--0--0--0--0--1--1--0--0--|--0--0--0--0--1--1--0--0--|
--0--0--0--0--1--1--0--0--|--0--0--0--0--1--1--0--0--|
--0--0--0--0--1--1--0--0--|--0--0--0--0--1--1--0--0--|

  E  E  E  E  E  E  E  E     E  E  E  E  E  E  E  E   
--------------------------|--------------------------|
--------------------------|--------------------------|
--7--------7--7--7-----7--|--7--------7--7--7-----7--|
--7--------7--7--7-----7--|--7--------7--7--7-----7--|
--5--------5--5--5-----5--|--5--------5--5--5-----5--|
--------------------------|--------------------------|

  E  E  E  E  E  E  E  E     E  E  E  E  E  E  E  E   
--------------------------|--------------------------|
--------------------------|--------------------------|
--5--------5--5--5-----5--|--5--------5--5--5-----5--|
--5--------5--5--5-----5--|--5--------5--5--5-----5--|
--3--------3--3--3-----3--|--3--------3--3--3-----3--|
--------------------------|--------------------------|

  E  E  E  E  E  E  E  E     E  E  E  E  E  E  E  E   
--------------------------|--------------------------|
--------------------------|--------------------------|
--3--------3--3--3-----3--|--3--------3--3--3-----3--|
--3--------3--3--3-----3--|--3--------3--3--3-----3--|
--1--------1--1--1-----1--|--1--------1--1--1-----1--|
--------------------------|--------------------------|

  E  E  E  E  E  E  E  E     E  E  E  E  E  E  E  E   
--------------------------|--------------------------|
--------------------------|--------------------------|
--2--------2--2--2-----2--|--4--------4--4--4-----4--|
--2--------2--2--2-----2--|--4--------4--4--4-----4--|
--0--------0--0--0-----0--|--2--------2--2--2-----2--|
--------------------------|--------------------------|

  E  E  E  E  E  E  E  E     E  E  E  E  E  E  E  E   
--------------------------|--------------------------|
--------------------------|--------------------------|
--7--------7--7--7-----7--|--7--------7--7--7-----7--|
--7--------7--7--7-----7--|--7--------7--7--7-----7--|
--5--------5--5--5-----5--|--5--------5--5--5-----5--|
--------------------------|--------------------------|

  E  E  E  E  E  E  E  E     E  E  E  E  E  E  E  E   
--------------------------|--------------------------|
--------------------------|--------------------------|
--5--------5--5--5-----5--|--5--------5--5--5-----5--|
--5--------5--5--5-----5--|--5--------5--5--5-----5--|
--3--------3--3--3-----3--|--3--------3--3--3-----3--|
--------------------------|--------------------------|

  E  E  E  E  E  E  E  E     E  E  E  E  E  E  E  E   
--------------------------|--------------------------|
--------------------------|--------------------------|
--3--------3--3--3-----3--|--3--------3--3--3-----3--|
--3--------3--3--3-----3--|--3--------3--3--3-----3--|
--1--------1--1--1-----1--|--1--------1--1--1-----1--|
--------------------------|--------------------------|

  E  E  E  E  E  E  E  E     E  E  E  E  E  E  E  E   
--------------------------|--------------------------|
--------------------------|--------------------------|
--2--------2--2--2-----2--|--4--------4--4--4-----4--|
--2--------2--2--2-----2--|--4--------4--4--4-----4--|
--0--------0--0--0-----0--|--2--------2--2--2-----2--|
--------------------------|--------------------------|

  S S S S S S S S S S S S S S S S    S S S S S S S S S S S S S S S S  
----------------------------------|----------------------------------|
------------------9-7-6-5---------|------------------9-7-6-5---------|
----------2-4-7-5---------9-7-6-5-|----------2-4-7-5---------9-7-6-5-|
--2-0-2-4-------------------------|--2-0-2-4-------------------------|
----------------------------------|----------------------------------|
----------------------------------|----------------------------------|

  E  E  E  E  E  E  E  E     E  E  E  E  E  E  E  E   
--------------------------|--------------------------|
--9--7--6--5--------------|--------------------------|
--------------9--7--6--5--|--------------------------|
--------------------------|--9--7--6--5--------------|
--------------------------|--------------9--7--6--5--|
--------------------------|--------------------------|

  S S S S S S S S S S S S S S S S    S S S S S S S S S S S S S S S S  
----------------------------------|----------------------------------|
------------------9-7-6-5---------|------------------9-7-6-5---------|
----------2-4-7-5---------9-7-6-5-|----------2-4-7-5---------9-7-6-5-|
--2-0-2-4-------------------------|--2-0-2-4-------------------------|
----------------------------------|----------------------------------|
----------------------------------|----------------------------------|

  E  E  E  E  E  E  E  E     E  E  E  E  E  E  E  E   
--------------------------|--------------------------|
--9--7--6--5--------------|--------------------------|
--------------9--7--6--5--|--------------------------|
--------------------------|--9--7--6--5--------------|
--------------------------|--------------9--7--6--5--|
--------------------------|--------------------------|

  E  E  E  E  E  E  E  E     E  E  E  E  E  E  E  E   
--------------------------|--------------------------|
--------------------------|--------------------------|
--------------------------|--------------------------|
--2--2--0--2--7--7--7--7--|--9--9--9--9--7--7--7--7--|
--2--2--0--2--7--7--7--7--|--7--7--7--7--7--7--7--7--|
--2--2--0--2--7--7--7--7--|--7--7--7--7--7--7--7--7--|

  E  E  E  E  E  E  E  E     E  E  E  E  E  E  E  E   
--------------------------|--------------------------|
--------------------------|--------------------------|
--------------7--7--7--7--|--------------------------|
--5--5--5--5--x--x--x--x--|--5--5--5--5--4--4--4--4--|
--5--5--5--5--5--5--5--5--|--5--5--5--5--4--4--4--4--|
--5--5--5--5--------------|--5--5--5--5--4--4--4--4--|

  E  E  E  E  E  E  E  E     E  E  E  E  E  E  E  E   
--------------------------|--------------------------|
--------------------------|--------------------------|
--------------------------|--------------------------|
--3--3--3--3--5--5--5--5--|--3--3--3--3--2--2--2--2--|
--3--3--3--3--3--3--3--3--|--3--3--3--3--2--2--2--2--|
--3--3--3--3--3--3--3--3--|--3--3--3--3--2--2--2--2--|

  E  E  E  E  E  E  E  E     E  E  E  E  E  E  E  E   
--------------------------|--------------------------|
--------------------------|--------------------------|
--------------------------|--------------------------|
--0--0--0--0--1--1--0--0--|--0--0--0--0--1--1--0--0--|
--0--0--0--0--1--1--0--0--|--0--0--0--0--1--1--0--0--|
--0--0--0--0--1--1--0--0--|--0--0--0--0--1--1--0--0--|

  E  E  E  E  E  E  E  E     E  E  E  E  E  E  E  E   
--------------------------|--------------------------|
--------------------------|--------------------------|
--------------------------|--------------------------|
--2--2--0--2--7--7--7--7--|--9--9--9--9--7--7--7--7--|
--2--2--0--2--7--7--7--7--|--7--7--7--7--7--7--7--7--|
--2--2--0--2--7--7--7--7--|--7--7--7--7--7--7--7--7--|

  E  E  E  E  E  E  E  E     E  E  E  E  E  E  E  E   
--------------------------|--------------------------|
--------------------------|--------------------------|
--------------7--7--7--7--|--------------------------|
--5--5--5--5--x--x--x--x--|--5--5--5--5--4--4--4--4--|
--5--5--5--5--5--5--5--5--|--5--5--5--5--4--4--4--4--|
--5--5--5--5--------------|--5--5--5--5--4--4--4--4--|

  E  E  E  E  E  E  E  E     E  E  E  E  E  E  E  E   
--------------------------|--------------------------|
--------------------------|--------------------------|
--------------------------|--------------------------|
--3--3--3--3--5--5--5--5--|--3--3--3--3--2--2--2--2--|
--3--3--3--3--3--3--3--3--|--3--3--3--3--2--2--2--2--|
--3--3--3--3--3--3--3--3--|--3--3--3--3--2--2--2--2--|

  E  E  E  E  E  E  E  E     E  E  E  E  E  E  E  E   
--------------------------|--------------------------|
--------------------------|--------------------------|
--------------------------|--------------------------|
--0--0--0--0--1--1--0--0--|--0--0--0--0--1--1--0--0--|
--0--0--0--0--1--1--0--0--|--0--0--0--0--1--1--0--0--|
--0--0--0--0--1--1--0--0--|--0--0--0--0--1--1--0--0--|

  E  E  E  E  E  E  E  E     E  E  E  E  E  E  E  E   
--------------------------|--------------------------|
--------------------------|--------------------------|
--------------------------|--------------------------|
--0--0--0--0--1--1--0--0--|--0--0--0--0--1--1--0--0--|
--0--0--0--0--1--1--0--0--|--0--0--0--0--1--1--0--0--|
--0--0--0--0--1--1--0--0--|--0--0--0--0--1--1--0--0--|

  E  E  E  E  E  E  E  E     E  E  E  E  E  E  E  E   
--------------------------|--------------------------|
--------------3--3--3--3--|--------------7--7--7--7--|
--------------x--x--x--x--|--------------x--x--x--x--|
--------------2--2--2--2--|--------------5--5--5--5--|
--0--0--0--0--------------|--0--0--0--0--------------|
--0--0--0--0--------------|--0--0--0--0--------------|

  E  E  E  E  E  E  E  E     E  E  E  E  E  E  E  E   
--------------------------|--------------------------|
--------------5--5--5--5--|--------------5--5--5--5--|
--------------x--x--x--x--|--------------x--x--x--x--|
--------------3--3--3--3--|--------------3--3--3--3--|
--0--0--0--0--------------|--0--0--0--0--------------|
--0--0--0--0--------------|--0--0--0--0--------------|

  E  E  E  E  E  E  E  E     E  E  E  E  E  E  E  E   
--------------------------|--------------------------|
--------------3--3--3--3--|--------------3--3--3--3--|
--------------x--x--x--x--|--------------x--x--x--x--|
--------------2--2--2--2--|--------------2--2--2--2--|
--0--0--0--0--------------|--0--0--0--0--------------|
--0--0--0--0--------------|--0--0--0--0--------------|

  E  E  E  E  E  E  E  E     E  E  E  E  E  E  E  E   
--------------------------|--------------------------|
--------------3--3--3--3--|--------------3--3--3--3--|
--------------x--x--x--x--|--------------x--x--x--x--|
--------------2--2--2--2--|--------------2--2--2--2--|
--0--0--0--0--------------|--0--0--0--0--------------|
--0--0--0--0--------------|--0--0--0--0--------------|

  E  E  E  E  E  E  E  E     E  E  E  E  E  E  E  E   
--------------------------|--------------------------|
--------------3--3--3--3--|--------------7--7--7--7--|
--------------x--x--x--x--|--------------x--x--x--x--|
--------------2--2--2--2--|--------------5--5--5--5--|
--0--0--0--0--------------|--0--0--0--0--------------|
--0--0--0--0--------------|--0--0--0--0--------------|

  E  E  E  E  E  E  E  E     E  E  E  E  E  E  E  E   
--------------------------|--------------------------|
--------------5--5--5--5--|--------------5--5--5--5--|
--------------x--x--x--x--|--------------x--x--x--x--|
--------------3--3--3--3--|--------------3--3--3--3--|
--0--0--0--0--------------|--0--0--0--0--------------|
--0--0--0--0--------------|--0--0--0--0--------------|

  E  E  E  E  E  E  E  E     E  E  E  E  E  E  E  E   
--------------------------|--------------------------|
--------------3--3--3--3--|--------------3--3--3--3--|
--------------x--x--x--x--|--------------x--x--x--x--|
--------------2--2--2--2--|--------------2--2--2--2--|
--0--0--0--0--------------|--0--0--0--0--------------|
--0--0--0--0--------------|--0--0--0--0--------------|

  E  E  E  E  E  E  E  E     E  E  E  E  E  E  E  E    
--------------------------|--------------------------||
--------------3--3--3--3--|--------------3--3--3--3--||
--------------x--x--x--x--|--------------x--x--x--x--||
--------------2--2--2--2--|--------------2--2--2--2--||
--0--0--0--0--------------|--0--0--0--0--------------||
--0--0--0--0--------------|--0--0--0--0--------------||

Rhythm Guitar

     PM PM PM PM                PM PM PM PM              
     E  E  E  E  E  E  E  E     E  E  E  E  E  E  E  E   
E||--------------------------|--------------------------|
B||--------------3--3--3--3--|--------------7--7--7--7--|
G||--------------x--x--x--x--|--------------x--x--x--x--|
D||--------------2--2--2--2--|--------------5--5--5--5--|
A||--0--0--0--0--------------|--0--0--0--0--------------|
E||--0--0--0--0--------------|--0--0--0--0--------------|

  PM PM PM PM                PM PM PM PM              
  E  E  E  E  E  E  E  E     E  E  E  E  E  E  E  E   
--------------------------|--------------------------|
--------------5--5--5--5--|--------------5--5--5--5--|
--------------x--x--x--x--|--------------x--x--x--x--|
--------------3--3--3--3--|--------------3--3--3--3--|
--0--0--0--0--------------|--0--0--0--0--------------|
--0--0--0--0--------------|--0--0--0--0--------------|

  PM PM PM PM                PM PM PM PM              
  E  E  E  E  E  E  E  E     E  E  E  E  E  E  E  E   
--------------------------|--------------------------|
--------------3--3--3--3--|--------------3--3--3--3--|
--------------x--x--x--x--|--------------x--x--x--x--|
--------------2--2--2--2--|--------------2--2--2--2--|
--0--0--0--0--------------|--0--0--0--0--------------|
--0--0--0--0--------------|--0--0--0--0--------------|

  PM PM PM PM                PM PM PM PM              
  E  E  E  E  E  E  E  E     E  E  E  E  E  E  E  E   
--------------------------|--------------------------|
--------------3--3--3--3--|--------------3--3--3--3--|
--------------x--x--x--x--|--------------x--x--x--x--|
--------------2--2--2--2--|--------------2--2--2--2--|
--0--0--0--0--------------|--0--0--0--0--------------|
--0--0--0--0--------------|--0--0--0--0--------------|

  PM PM PM PM                PM PM PM PM              
  E  E  E  E  E  E  E  E     E  E  E  E  E  E  E  E   
--------------------------|--------------------------|
--------------3--3--3--3--|--------------7--7--7--7--|
--------------x--x--x--x--|--------------x--x--x--x--|
--------------2--2--2--2--|--------------5--5--5--5--|
--0--0--0--0--------------|--0--0--0--0--------------|
--0--0--0--0--------------|--0--0--0--0--------------|

  PM PM PM PM                PM PM PM PM              
  E  E  E  E  E  E  E  E     E  E  E  E  E  E  E  E   
--------------------------|--------------------------|
--------------5--5--5--5--|--------------5--5--5--5--|
--------------x--x--x--x--|--------------x--x--x--x--|
--------------3--3--3--3--|--------------3--3--3--3--|
--0--0--0--0--------------|--0--0--0--0--------------|
--0--0--0--0--------------|--0--0--0--0--------------|

  PM PM PM PM                PM PM PM PM              
  E  E  E  E  E  E  E  E     E  E  E  E  E  E  E  E   
--------------------------|--------------------------|
--------------3--3--3--3--|--------------3--3--3--3--|
--------------x--x--x--x--|--------------x--x--x--x--|
--------------2--2--2--2--|--------------2--2--2--2--|
--0--0--0--0--------------|--0--0--0--0--------------|
--0--0--0--0--------------|--0--0--0--0--------------|

  PM PM PM PM                PM PM PM PM              
  E  E  E  E  E  E  E  E     E  E  E  E  E  E  E  E   
--------------------------|--------------------------|
--------------3--3--3--3--|--------------3--3--3--3--|
--------------x--x--x--x--|--------------x--x--x--x--|
--------------2--2--2--2--|--------------2--2--2--2--|
--0--0--0--0--------------|--0--0--0--0--------------|
--0--0--0--0--------------|--0--0--0--0--------------|

  E  E  E  E  E  E  E  E     E  E  E  E  E  E  E  E   
--------------------------|--------------------------|
--------------------------|--------------------------|
--------------------------|--------------------------|
--2--2--0--2--7--7--7--7--|--9--9--9--9--7--7--7--7--|
--2--2--0--2--7--7--7--7--|--7--7--7--7--7--7--7--7--|
--2--2--0--2--7--7--7--7--|--7--7--7--7--7--7--7--7--|

  E  E  E  E  E  E  E  E     E  E  E  E  E  E  E  E   
--------------------------|--------------------------|
--------------------------|--------------------------|
--------------7--7--7--7--|--------------------------|
--5--5--5--5--x--x--x--x--|--5--5--5--5--4--4--4--4--|
--5--5--5--5--5--5--5--5--|--5--5--5--5--4--4--4--4--|
--5--5--5--5--------------|--5--5--5--5--4--4--4--4--|

  E  E  E  E  E  E  E  E     E  E  E  E  E  E  E  E   
--------------------------|--------------------------|
--------------------------|--------------------------|
--------------------------|--------------------------|
--3--3--3--3--5--5--5--5--|--3--3--3--3--2--2--2--2--|
--3--3--3--3--3--3--3--3--|--3--3--3--3--2--2--2--2--|
--3--3--3--3--3--3--3--3--|--3--3--3--3--2--2--2--2--|

  E  E  E  E  E  E  E  E     E  E  E  E  E  E  E  E   
--------------------------|--------------------------|
--------------------------|--------------------------|
--------------------------|--------------------------|
--0--0--0--0--1--1--0--0--|--0--0--0--0--1--1--0--0--|
--0--0--0--0--1--1--0--0--|--0--0--0--0--1--1--0--0--|
--0--0--0--0--1--1--0--0--|--0--0--0--0--1--1--0--0--|

  E  E  E  E  E  E  E  E     E  E  E  E  E  E  E  E   
--------------------------|--------------------------|
--------------------------|--------------------------|
--------------------------|--------------------------|
--2--2--0--2--7--7--7--7--|--9--9--9--9--7--7--7--7--|
--2--2--0--2--7--7--7--7--|--7--7--7--7--7--7--7--7--|
--2--2--0--2--7--7--7--7--|--7--7--7--7--7--7--7--7--|

  E  E  E  E  E  E  E  E     E  E  E  E  E  E  E  E   
--------------------------|--------------------------|
--------------------------|--------------------------|
--------------7--7--7--7--|--------------------------|
--5--5--5--5--x--x--x--x--|--5--5--5--5--4--4--4--4--|
--5--5--5--5--5--5--5--5--|--5--5--5--5--4--4--4--4--|
--5--5--5--5--------------|--5--5--5--5--4--4--4--4--|

  E  E  E  E  E  E  E  E     E  E  E  E  E  E  E  E   
--------------------------|--------------------------|
--------------------------|--------------------------|
--------------------------|--------------------------|
--3--3--3--3--5--5--5--5--|--3--3--3--3--2--2--2--2--|
--3--3--3--3--3--3--3--3--|--3--3--3--3--2--2--2--2--|
--3--3--3--3--3--3--3--3--|--3--3--3--3--2--2--2--2--|

  E  E  E  E  E  E  E  E     E  E  E  E  E  E  E  E   
--------------------------|--------------------------|
--------------------------|--------------------------|
--------------------------|--------------------------|
--0--0--0--0--1--1--0--0--|--0--0--0--0--1--1--0--0--|
--0--0--0--0--1--1--0--0--|--0--0--0--0--1--1--0--0--|
--0--0--0--0--1--1--0--0--|--0--0--0--0--1--1--0--0--|

  E  E  E  E  E  E  E  E     E  E  E  E  E  E  E  E   
--------------------------|--------------------------|
--------------------------|--------------------------|
--------------------------|--------------------------|
--0--0--0--0--1--1--0--0--|--0--0--0--0--1--1--0--0--|
--0--0--0--0--1--1--0--0--|--0--0--0--0--1--1--0--0--|
--0--0--0--0--1--1--0--0--|--0--0--0--0--1--1--0--0--|

  PM PM PM PM                PM PM PM PM              
  E  E  E  E  E  E  E  E     E  E  E  E  E  E  E  E   
--------------------------|--------------------------|
--------------3--3--3--3--|--------------7--7--7--7--|
--------------x--x--x--x--|--------------x--x--x--x--|
--------------2--2--2--2--|--------------5--5--5--5--|
--0--0--0--0--------------|--0--0--0--0--------------|
--0--0--0--0--------------|--0--0--0--0--------------|

  PM PM PM PM                PM PM PM PM              
  E  E  E  E  E  E  E  E     E  E  E  E  E  E  E  E   
--------------------------|--------------------------|
--------------5--5--5--5--|--------------5--5--5--5--|
--------------x--x--x--x--|--------------x--x--x--x--|
--------------3--3--3--3--|--------------3--3--3--3--|
--0--0--0--0--------------|--0--0--0--0--------------|
--0--0--0--0--------------|--0--0--0--0--------------|

  PM PM PM PM                PM PM PM PM              
  E  E  E  E  E  E  E  E     E  E  E  E  E  E  E  E   
--------------------------|--------------------------|
--------------3--3--3--3--|--------------3--3--3--3--|
--------------x--x--x--x--|--------------x--x--x--x--|
--------------2--2--2--2--|--------------2--2--2--2--|
--0--0--0--0--------------|--0--0--0--0--------------|
--0--0--0--0--------------|--0--0--0--0--------------|

  PM PM PM PM                PM PM PM PM              
  E  E  E  E  E  E  E  E     E  E  E  E  E  E  E  E   
--------------------------|--------------------------|
--------------3--3--3--3--|--------------3--3--3--3--|
--------------x--x--x--x--|--------------x--x--x--x--|
--------------2--2--2--2--|--------------2--2--2--2--|
--0--0--0--0--------------|--0--0--0--0--------------|
--0--0--0--0--------------|--0--0--0--0--------------|

  PM PM PM PM                PM PM PM PM              
  E  E  E  E  E  E  E  E     E  E  E  E  E  E  E  E   
--------------------------|--------------------------|
--------------3--3--3--3--|--------------7--7--7--7--|
--------------x--x--x--x--|--------------x--x--x--x--|
--------------2--2--2--2--|--------------5--5--5--5--|
--0--0--0--0--------------|--0--0--0--0--------------|
--0--0--0--0--------------|--0--0--0--0--------------|

  PM PM PM PM                PM PM PM PM              
  E  E  E  E  E  E  E  E     E  E  E  E  E  E  E  E   
--------------------------|--------------------------|
--------------5--5--5--5--|--------------5--5--5--5--|
--------------x--x--x--x--|--------------x--x--x--x--|
--------------3--3--3--3--|--------------3--3--3--3--|
--0--0--0--0--------------|--0--0--0--0--------------|
--0--0--0--0--------------|--0--0--0--0--------------|

  PM PM PM PM                PM PM PM PM              
  E  E  E  E  E  E  E  E     E  E  E  E  E  E  E  E   
--------------------------|--------------------------|
--------------3--3--3--3--|--------------3--3--3--3--|
--------------x--x--x--x--|--------------x--x--x--x--|
--------------2--2--2--2--|--------------2--2--2--2--|
--0--0--0--0--------------|--0--0--0--0--------------|
--0--0--0--0--------------|--0--0--0--0--------------|

  PM PM PM PM                PM PM PM PM              
  E  E  E  E  E  E  E  E     E  E  E  E  E  E  E  E   
--------------------------|--------------------------|
--------------3--3--3--3--|--------------3--3--3--3--|
--------------x--x--x--x--|--------------x--x--x--x--|
--------------2--2--2--2--|--------------2--2--2--2--|
--0--0--0--0--------------|--0--0--0--0--------------|
--0--0--0--0--------------|--0--0--0--0--------------|

  E  E  E  E  E  E  E  E     E  E  E  E  E  E  E  E   
--------------------------|--------------------------|
--------------------------|--------------------------|
--------------------------|--------------------------|
--2--2--0--2--7--7--7--7--|--9--9--9--9--7--7--7--7--|
--2--2--0--2--7--7--7--7--|--7--7--7--7--7--7--7--7--|
--2--2--0--2--7--7--7--7--|--7--7--7--7--7--7--7--7--|

  E  E  E  E  E  E  E  E     E  E  E  E  E  E  E  E   
--------------------------|--------------------------|
--------------------------|--------------------------|
--------------7--7--7--7--|--------------------------|
--5--5--5--5--x--x--x--x--|--5--5--5--5--4--4--4--4--|
--5--5--5--5--5--5--5--5--|--5--5--5--5--4--4--4--4--|
--5--5--5--5--------------|--5--5--5--5--4--4--4--4--|

  E  E  E  E  E  E  E  E     E  E  E  E  E  E  E  E   
--------------------------|--------------------------|
--------------------------|--------------------------|
--------------------------|--------------------------|
--3--3--3--3--5--5--5--5--|--3--3--3--3--2--2--2--2--|
--3--3--3--3--3--3--3--3--|--3--3--3--3--2--2--2--2--|
--3--3--3--3--3--3--3--3--|--3--3--3--3--2--2--2--2--|

  E  E  E  E  E  E  E  E     E  E  E  E  E  E  E  E   
--------------------------|--------------------------|
--------------------------|--------------------------|
--------------------------|--------------------------|
--0--0--0--0--1--1--0--0--|--0--0--0--0--1--1--0--0--|
--0--0--0--0--1--1--0--0--|--0--0--0--0--1--1--0--0--|
--0--0--0--0--1--1--0--0--|--0--0--0--0--1--1--0--0--|

  E  E  E  E  E  E  E  E     E  E  E  E  E  E  E  E   
--------------------------|--------------------------|
--------------------------|--------------------------|
--------------------------|--------------------------|
--2--2--0--2--7--7--7--7--|--9--9--9--9--7--7--7--7--|
--2--2--0--2--7--7--7--7--|--7--7--7--7--7--7--7--7--|
--2--2--0--2--7--7--7--7--|--7--7--7--7--7--7--7--7--|

  E  E  E  E  E  E  E  E     E  E  E  E  E  E  E  E   
--------------------------|--------------------------|
--------------------------|--------------------------|
--------------7--7--7--7--|--------------------------|
--5--5--5--5--x--x--x--x--|--5--5--5--5--4--4--4--4--|
--5--5--5--5--5--5--5--5--|--5--5--5--5--4--4--4--4--|
--5--5--5--5--------------|--5--5--5--5--4--4--4--4--|

  E  E  E  E  E  E  E  E     E  E  E  E  E  E  E  E   
--------------------------|--------------------------|
--------------------------|--------------------------|
--------------------------|--------------------------|
--3--3--3--3--5--5--5--5--|--3--3--3--3--2--2--2--2--|
--3--3--3--3--3--3--3--3--|--3--3--3--3--2--2--2--2--|
--3--3--3--3--3--3--3--3--|--3--3--3--3--2--2--2--2--|

  E  E  E  E  E  E  E  E     E  E  E  E  E  E  E  E   
--------------------------|--------------------------|
--------------------------|--------------------------|
--------------------------|--------------------------|
--0--0--0--0--1--1--0--0--|--0--0--0--0--1--1--0--0--|
--0--0--0--0--1--1--0--0--|--0--0--0--0--1--1--0--0--|
--0--0--0--0--1--1--0--0--|--0--0--0--0--1--1--0--0--|

  E  E  E  E  E  E  E  E     E  E  E  E  E  E  E  E     W                 
--------------------------|--------------------------|-------------------|
--------------------------|--------------------------|-------------------|
--------------------------|--------------------------|--7----------------|
--0--0--0--0--1--1--0--0--|--0--0--0--0--1--1--0--0--|--7----------------|
--0--0--0--0--1--1--0--0--|--0--0--0--0--1--1--0--0--|--5----------------|
--0--0--0--0--1--1--0--0--|--0--0--0--0--1--1--0--0--|-------------------|

  W                   W                   W                   W                 
-------------------|-------------------|-------------------|-------------------|
-------------------|-------------------|-------------------|-------------------|
--7----------------|--5----------------|--5----------------|--3----------------|
--7----------------|--5----------------|--5----------------|--3----------------|
--5----------------|--3----------------|--3----------------|--1----------------|
-------------------|-------------------|-------------------|-------------------|

  W                   W                   W                   W                 
-------------------|-------------------|-------------------|-------------------|
-------------------|-------------------|-------------------|-------------------|
--3----------------|--2----------------|--4----------------|--7----------------|
--3----------------|--2----------------|--4----------------|--7----------------|
--1----------------|--0----------------|--2----------------|--5----------------|
-------------------|-------------------|-------------------|-------------------|

  W                   W                   W                   W                 
-------------------|-------------------|-------------------|-------------------|
-------------------|-------------------|-------------------|-------------------|
--7----------------|--5----------------|--5----------------|--3----------------|
--7----------------|--5----------------|--5----------------|--3----------------|
--5----------------|--3----------------|--3----------------|--1----------------|
-------------------|-------------------|-------------------|-------------------|

  W                   W                   W                 
-------------------|-------------------|-------------------|
-------------------|-------------------|-------------------|
--3----------------|--2----------------|--4----------------|
--3----------------|--2----------------|--4----------------|
--1----------------|--0----------------|--2----------------|
-------------------|-------------------|-------------------|

  E  E  E  E  E  E  E  E     E  E  E  E  E  E  E  E   
--------------------------|--------------------------|
--------------------------|--------------------------|
--7--7--7--7--7--7--7--7--|--9--9--9--9--9--9--9--9--|
--7--7--7--7--7--7--7--7--|--9--9--9--9--9--9--9--9--|
--5--5--5--5--5--5--5--5--|--7--7--7--7--7--7--7--7--|
--------------------------|--------------------------|

   E   E   E   E   E   E   E   E      E   E   E   E   E   E   E   E   
----------------------------------|----------------------------------|
----------------------------------|----------------------------------|
--10--10--10--10--10--10--10--10--|--10--10--10--10--10--10--10--10--|
--10--10--10--10--10--10--10--10--|--10--10--10--10--10--10--10--10--|
---8---8---8---8---8---8---8---8--|---8---8---8---8---8---8---8---8--|
----------------------------------|----------------------------------|

  E  E  E  E  E  E  E  E     E  E  E  E  E  E  E  E   
--------------------------|--------------------------|
--------------------------|--------------------------|
--7--7--7--7--7--7--7--7--|--9--9--9--9--9--9--9--9--|
--7--7--7--7--7--7--7--7--|--9--9--9--9--9--9--9--9--|
--5--5--5--5--5--5--5--5--|--7--7--7--7--7--7--7--7--|
--5--5--5--5--5--5--5--5--|--7--7--7--7--7--7--7--7--|

   E   E   E   E   E   E   E   E      E   E   E   E   E   E   E   E   
----------------------------------|----------------------------------|
----------------------------------|----------------------------------|
--10--10--10--10--10--10--10--10--|--10--10--10--10--10--10--10--10--|
--10--10--10--10--10--10--10--10--|--10--10--10--10--10--10--10--10--|
---8---8---8---8---8---8---8---8--|---8---8---8---8---8---8---8---8--|
---8---8---8---8---8---8---8---8--|---8---8---8---8---8---8---8---8--|

  E  E  E  E  E  E  E  E     E  E  E  E  E  E  E  E   
--------------------------|--------------------------|
--------------------------|--------------------------|
--------------------------|--------------------------|
--2--2--0--2--7--7--7--7--|--9--9--9--9--7--7--7--7--|
--2--2--0--2--7--7--7--7--|--7--7--7--7--7--7--7--7--|
--2--2--0--2--7--7--7--7--|--7--7--7--7--7--7--7--7--|

  E  E  E  E  E  E  E  E     E  E  E  E  E  E  E  E   
--------------------------|--------------------------|
--------------------------|--------------------------|
--------------7--7--7--7--|--------------------------|
--5--5--5--5--x--x--x--x--|--5--5--5--5--4--4--4--4--|
--5--5--5--5--5--5--5--5--|--5--5--5--5--4--4--4--4--|
--5--5--5--5--------------|--5--5--5--5--4--4--4--4--|

  E  E  E  E  E  E  E  E     E  E  E  E  E  E  E  E   
--------------------------|--------------------------|
--------------------------|--------------------------|
--------------------------|--------------------------|
--3--3--3--3--5--5--5--5--|--3--3--3--3--2--2--2--2--|
--3--3--3--3--3--3--3--3--|--3--3--3--3--2--2--2--2--|
--3--3--3--3--3--3--3--3--|--3--3--3--3--2--2--2--2--|

  E  E  E  E  E  E  E  E     E  E  E  E  E  E  E  E   
--------------------------|--------------------------|
--------------------------|--------------------------|
--------------------------|--------------------------|
--0--0--0--0--1--1--0--0--|--0--0--0--0--1--1--0--0--|
--0--0--0--0--1--1--0--0--|--0--0--0--0--1--1--0--0--|
--0--0--0--0--1--1--0--0--|--0--0--0--0--1--1--0--0--|

  E  E  E  E  E  E  E  E     E  E  E  E  E  E  E  E   
--------------------------|--------------------------|
--------------------------|--------------------------|
--------------------------|--------------------------|
--2--2--0--2--7--7--7--7--|--9--9--9--9--7--7--7--7--|
--2--2--0--2--7--7--7--7--|--7--7--7--7--7--7--7--7--|
--2--2--0--2--7--7--7--7--|--7--7--7--7--7--7--7--7--|

  E  E  E  E  E  E  E  E     E  E  E  E  E  E  E  E   
--------------------------|--------------------------|
--------------------------|--------------------------|
--------------7--7--7--7--|--------------------------|
--5--5--5--5--x--x--x--x--|--5--5--5--5--4--4--4--4--|
--5--5--5--5--5--5--5--5--|--5--5--5--5--4--4--4--4--|
--5--5--5--5--------------|--5--5--5--5--4--4--4--4--|

  E  E  E  E  E  E  E  E     E  E  E  E  E  E  E  E   
--------------------------|--------------------------|
--------------------------|--------------------------|
--------------------------|--------------------------|
--3--3--3--3--5--5--5--5--|--3--3--3--3--2--2--2--2--|
--3--3--3--3--3--3--3--3--|--3--3--3--3--2--2--2--2--|
--3--3--3--3--3--3--3--3--|--3--3--3--3--2--2--2--2--|

  E  E  E  E  E  E  E  E     E  E  E  E  E  E  E  E   
--------------------------|--------------------------|
--------------------------|--------------------------|
--------------------------|--------------------------|
--0--0--0--0--1--1--0--0--|--0--0--0--0--1--1--0--0--|
--0--0--0--0--1--1--0--0--|--0--0--0--0--1--1--0--0--|
--0--0--0--0--1--1--0--0--|--0--0--0--0--1--1--0--0--|

  E  E  E  E  E  E  E  E     E  E  E  E  E  E  E  E   
--------------------------|--------------------------|
--------------------------|--------------------------|
--------------------------|--------------------------|
--0--0--0--0--1--1--0--0--|--0--0--0--0--1--1--0--0--|
--0--0--0--0--1--1--0--0--|--0--0--0--0--1--1--0--0--|
--0--0--0--0--1--1--0--0--|--0--0--0--0--1--1--0--0--|

  E  E  E  E  E  E  E  E     E  E  E  E  E  E  E  E   
--------------------------|--------------------------|
--------------3--3--3--3--|--------------7--7--7--7--|
--------------x--x--x--x--|--------------x--x--x--x--|
--------------2--2--2--2--|--------------5--5--5--5--|
--0--0--0--0--------------|--0--0--0--0--------------|
--0--0--0--0--------------|--0--0--0--0--------------|

  E  E  E  E  E  E  E  E     E  E  E  E  E  E  E  E   
--------------------------|--------------------------|
--------------5--5--5--5--|--------------5--5--5--5--|
--------------x--x--x--x--|--------------x--x--x--x--|
--------------3--3--3--3--|--------------3--3--3--3--|
--0--0--0--0--------------|--0--0--0--0--------------|
--0--0--0--0--------------|--0--0--0--0--------------|

  E  E  E  E  E  E  E  E     E  E  E  E  E  E  E  E   
--------------------------|--------------------------|
--------------3--3--3--3--|--------------3--3--3--3--|
--------------x--x--x--x--|--------------x--x--x--x--|
--------------2--2--2--2--|--------------2--2--2--2--|
--0--0--0--0--------------|--0--0--0--0--------------|
--0--0--0--0--------------|--0--0--0--0--------------|

  E  E  E  E  E  E  E  E     E  E  E  E  E  E  E  E   
--------------------------|--------------------------|
--------------3--3--3--3--|--------------3--3--3--3--|
--------------x--x--x--x--|--------------x--x--x--x--|
--------------2--2--2--2--|--------------2--2--2--2--|
--0--0--0--0--------------|--0--0--0--0--------------|
--0--0--0--0--------------|--0--0--0--0--------------|

  E  E  E  E  E  E  E  E     E  E  E  E  E  E  E  E   
--------------------------|--------------------------|
--------------3--3--3--3--|--------------7--7--7--7--|
--------------x--x--x--x--|--------------x--x--x--x--|
--------------2--2--2--2--|--------------5--5--5--5--|
--0--0--0--0--------------|--0--0--0--0--------------|
--0--0--0--0--------------|--0--0--0--0--------------|

  E  E  E  E  E  E  E  E     E  E  E  E  E  E  E  E   
--------------------------|--------------------------|
--------------5--5--5--5--|--------------5--5--5--5--|
--------------x--x--x--x--|--------------x--x--x--x--|
--------------3--3--3--3--|--------------3--3--3--3--|
--0--0--0--0--------------|--0--0--0--0--------------|
--0--0--0--0--------------|--0--0--0--0--------------|

  E  E  E  E  E  E  E  E     E  E  E  E  E  E  E  E   
--------------------------|--------------------------|
--------------3--3--3--3--|--------------3--3--3--3--|
--------------x--x--x--x--|--------------x--x--x--x--|
--------------2--2--2--2--|--------------2--2--2--2--|
--0--0--0--0--------------|--0--0--0--0--------------|
--0--0--0--0--------------|--0--0--0--0--------------|

  E  E  E  E  E  E  E  E     E  E  E  E  E  E  E  E    
--------------------------|--------------------------||
--------------3--3--3--3--|--------------3--3--3--3--||
--------------x--x--x--x--|--------------x--x--x--x--||
--------------2--2--2--2--|--------------2--2--2--2--||
--0--0--0--0--------------|--0--0--0--0--------------||
--0--0--0--0--------------|--0--0--0--0--------------||

==========Love Song==========

     S S S S S S S S S S S S S S S S    S S S S S S S S S S S S S S S S  
D||----------------------------------|----------------------------------|
A||----------------------------------|----------------------------------|
F||--5-5-5-5-5-5-5-5-5-5-5-5-5-5-5-5-|--5-5-5-5-5-5-5-5-5-5-5-5-5-5-5-5-|
C||--x-x-x-x-x-x-x-x-x-x-x-x-x-x-x-x-|--x-x-x-x-x-x-x-x-x-x-x-x-x-x-x-x-|
G||--4-4-4-4-3-3-3-3-2-2-2-2-3-3-3-3-|--4-4-4-4-3-3-3-3-2-2-2-2-3-3-3-3-|
C||----------------------------------|----------------------------------|

  S S S S S S S S S S S S S S S S    S S S S S S S S S S S S  S  S  S  S  
----------------------------------|--------------------------------------|
----------------------------------|--------------------------------------|
--5-5-5-5-5-5-5-5-5-5-5-5-5-5-5-5-|--7-7-7-7-7-7-7-7-9-9-9-9-10-10-10-10-|
--x-x-x-x-x-x-x-x-x-x-x-x-x-x-x-x-|--x-x-x-x-x-x-x-x-x-x-x-x--x--x--x--x-|
--4-4-4-4-3-3-3-3-2-2-2-2-3-3-3-3-|--5-5-5-5-5-5-5-5-7-7-7-7--8--8--8--8-|
----------------------------------|--------------------------------------|

  S S S S S S S S S S S S S S S S    S S S S S S S S S S S S S S S S  
----------------------------------|----------------------------------|
----------------------------------|----------------------------------|
----------------------------------|----------------------------------|
--4-4-4-4-3-3-3-3-2-2-2-2-3-3-3-3-|--4-4-4-4-3-3-3-3-2-2-2-2-3-3-3-3-|
--4-4-4-4-3-3-3-3-2-2-2-2-3-3-3-3-|--4-4-4-4-3-3-3-3-2-2-2-2-3-3-3-3-|
--4-4-4-4-3-3-3-3-2-2-2-2-3-3-3-3-|--4-4-4-4-3-3-3-3-2-2-2-2-3-3-3-3-|

  S S S S S S S S S S S S S S S S    S S S S S S S S S S S S S S S S  
----------------------------------|----------------------------------|
----------------------------------|----------------------------------|
----------------------------------|----------------------------------|
--4-4-4-4-3-3-3-3-2-2-2-2-3-3-3-3-|--5-5-5-5-5-5-5-5-7-7-7-7-8-8-8-8-|
--4-4-4-4-3-3-3-3-2-2-2-2-3-3-3-3-|--5-5-5-5-5-5-5-5-7-7-7-7-8-8-8-8-|
--4-4-4-4-3-3-3-3-2-2-2-2-3-3-3-3-|--5-5-5-5-5-5-5-5-7-7-7-7-8-8-8-8-|

  S S S S S S S S S S S S S S S S    S S S S S S S S S S S S S S S S  
----------------------------------|----------------------------------|
----------------------------------|----------------------------------|
----------------------------------|----------------------------------|
--4-4-4-4-3-3-3-3-2-2-2-2-3-3-3-3-|--4-4-4-4-3-3-3-3-2-2-2-2-3-3-3-3-|
--4-4-4-4-3-3-3-3-2-2-2-2-3-3-3-3-|--4-4-4-4-3-3-3-3-2-2-2-2-3-3-3-3-|
--4-4-4-4-3-3-3-3-2-2-2-2-3-3-3-3-|--4-4-4-4-3-3-3-3-2-2-2-2-3-3-3-3-|

  S S S S S S S S S S S S S S S S    S S S S S S S S S S S S S S S S            
----------------------------------|----------------------------------|----|----|
----------------------------------|----------------------------------|----|----|
----------------------------------|----------------------------------|----|----|
--4-4-4-4-3-3-3-3-2-2-2-2-3-3-3-3-|--5-5-5-5-5-5-5-5-7-7-7-7-8-8-8-8-|----|----|
--4-4-4-4-3-3-3-3-2-2-2-2-3-3-3-3-|--5-5-5-5-5-5-5-5-7-7-7-7-8-8-8-8-|----|----|
--4-4-4-4-3-3-3-3-2-2-2-2-3-3-3-3-|--5-5-5-5-5-5-5-5-7-7-7-7-8-8-8-8-|----|----|

            S S S S S S S S S S S S S S S S    S S S S S S S S S S S S S S S S  
----|----|----------------------------------|----------------------------------|
----|----|----------------------------------|----------------------------------|
----|----|----------------------------------|----------------------------------|
----|----|--2-2-2-2-0-0-3-3-2-2-2-2-5-5-5-5-|--2-2-2-2-0-0-3-3-2-2-2-2-5-5-5-5-|
----|----|--2-2-2-2-0-0-3-3-2-2-2-2-5-5-5-5-|--2-2-2-2-0-0-3-3-2-2-2-2-5-5-5-5-|
----|----|--2-2-2-2-0-0-3-3-2-2-2-2-5-5-5-5-|--2-2-2-2-0-0-3-3-2-2-2-2-5-5-5-5-|

  S S S S S S S S S S S S S S S S    S S S S S S S S S S S S S S S S  
----------------------------------|----------------------------------|
----------------------------------|----------------------------------|
----------------------------------|----------------------------------|
--2-2-2-2-0-0-3-3-2-2-2-2-5-5-5-5-|--5-5-5-5-5-5-5-5-7-7-7-7-8-8-8-8-|
--2-2-2-2-0-0-3-3-2-2-2-2-5-5-5-5-|--5-5-5-5-5-5-5-5-7-7-7-7-8-8-8-8-|
--2-2-2-2-0-0-3-3-2-2-2-2-5-5-5-5-|--5-5-5-5-5-5-5-5-7-7-7-7-8-8-8-8-|

  E  E  E  E  E  E  E  E     E  E  E  E  E  E  E  E   
--------------------------|--------------------------|
--------------------------|--------------------------|
--------------------------|--------------------------|
--------------------------|--------------------------|
--0--0-----0--0-----0--0--|-----0--0--0--1--1--1--1--|
--0--0-----0--0-----0--0--|-----0--0--0--1--1--1--1--|

  E  E  E  E  E  E  E  E     E  E  E  E  E  E  E  E   
--------------------------|--------------------------|
--------------------------|--------------------------|
--------------------------|--------------------------|
--------------------------|--------------------------|
--0--0-----0--0-----0--0--|-----0--0--0--1--1--1--1--|
--0--0-----0--0-----0--0--|-----0--0--0--1--1--1--1--|

  E  E  E  E  E  E  E  E     E  E  E  E  E  E  E  E   
--------------------------|--------------------------|
--------------------------|--------------------------|
--------------------------|--------------------------|
--------------------------|--------------------------|
--0--0-----0--0-----0--0--|-----0--0--0--1--1--1--1--|
--0--0-----0--0-----0--0--|-----0--0--0--1--1--1--1--|

  E  E  E  E  E  E  E  E     E  E  E  E  E  E  E  E     W                       
--------------------------|--------------------------|-------------------|-----|
--------------------------|--------------------------|-------------------|-----|
--------------------------|--------------------------|-------------------|-----|
--------------------------|--------------------------|-------------------|-----|
--0--0-----0--0-----0--0--|-----0--0--0--1--1--1--1--|--0----------------|-----|
--0--0-----0--0-----0--0--|-----0--0--0--1--1--1--1--|--0----------------|-----|

  S S S S S S S S S S S S S S S S    S S S S S S S S S S S S S S S S  
----------------------------------|----------------------------------|
----------------------------------|----------------------------------|
----------------------------------|----------------------------------|
--4-4-4-4-3-3-3-3-2-2-2-2-3-3-3-3-|--4-4-4-4-3-3-3-3-2-2-2-2-3-3-3-3-|
--4-4-4-4-3-3-3-3-2-2-2-2-3-3-3-3-|--4-4-4-4-3-3-3-3-2-2-2-2-3-3-3-3-|
--4-4-4-4-3-3-3-3-2-2-2-2-3-3-3-3-|--4-4-4-4-3-3-3-3-2-2-2-2-3-3-3-3-|

  S S S S S S S S S S S S S S S S    S S S S S S S S S S S S S S S S  
----------------------------------|----------------------------------|
----------------------------------|----------------------------------|
----------------------------------|----------------------------------|
--4-4-4-4-3-3-3-3-2-2-2-2-3-3-3-3-|--5-5-5-5-5-5-5-5-7-7-7-7-8-8-8-8-|
--4-4-4-4-3-3-3-3-2-2-2-2-3-3-3-3-|--5-5-5-5-5-5-5-5-7-7-7-7-8-8-8-8-|
--4-4-4-4-3-3-3-3-2-2-2-2-3-3-3-3-|--5-5-5-5-5-5-5-5-7-7-7-7-8-8-8-8-|

  S S S S S S S S S S S S S S S S    S S S S S S S S S S S S S S S S  
----------------------------------|----------------------------------|
----------------------------------|----------------------------------|
----------------------------------|----------------------------------|
--4-4-4-4-3-3-3-3-2-2-2-2-3-3-3-3-|--4-4-4-4-3-3-3-3-2-2-2-2-3-3-3-3-|
--4-4-4-4-3-3-3-3-2-2-2-2-3-3-3-3-|--4-4-4-4-3-3-3-3-2-2-2-2-3-3-3-3-|
--4-4-4-4-3-3-3-3-2-2-2-2-3-3-3-3-|--4-4-4-4-3-3-3-3-2-2-2-2-3-3-3-3-|

  S S S S S S S S S S S S S S S S    S S S S S S S S S S S S S S S S  
----------------------------------|----------------------------------|
----------------------------------|----------------------------------|
----------------------------------|----------------------------------|
--4-4-4-4-3-3-3-3-2-2-2-2-3-3-3-3-|--5-5-5-5-5-5-5-5-7-7-7-7-8-8-8-8-|
--4-4-4-4-3-3-3-3-2-2-2-2-3-3-3-3-|--5-5-5-5-5-5-5-5-7-7-7-7-8-8-8-8-|
--4-4-4-4-3-3-3-3-2-2-2-2-3-3-3-3-|--5-5-5-5-5-5-5-5-7-7-7-7-8-8-8-8-|

  S S S S S S S S S S S S S S S S    S S S S S S S S S S S S S S S S  
----------------------------------|----------------------------------|
----------------------------------|----------------------------------|
----------------------------------|----------------------------------|
--4-4-4-4-3-3-3-3-2-2-2-2-3-3-3-3-|--4-4-4-4-3-3-3-3-2-2-2-2-3-3-3-3-|
--4-4-4-4-3-3-3-3-2-2-2-2-3-3-3-3-|--4-4-4-4-3-3-3-3-2-2-2-2-3-3-3-3-|
--4-4-4-4-3-3-3-3-2-2-2-2-3-3-3-3-|--4-4-4-4-3-3-3-3-2-2-2-2-3-3-3-3-|

  S S S S S S S S S S S S S S S S    S S S S S S S S S S S S S S S S            
----------------------------------|----------------------------------|----|----|
----------------------------------|----------------------------------|----|----|
----------------------------------|----------------------------------|----|----|
--4-4-4-4-3-3-3-3-2-2-2-2-3-3-3-3-|--5-5-5-5-5-5-5-5-7-7-7-7-8-8-8-8-|----|----|
--4-4-4-4-3-3-3-3-2-2-2-2-3-3-3-3-|--5-5-5-5-5-5-5-5-7-7-7-7-8-8-8-8-|----|----|
--4-4-4-4-3-3-3-3-2-2-2-2-3-3-3-3-|--5-5-5-5-5-5-5-5-7-7-7-7-8-8-8-8-|----|----|

            S S S S S S S S S S S S S S S S    S S S S S S S S S S S S S S S S  
----|----|----------------------------------|----------------------------------|
----|----|----------------------------------|----------------------------------|
----|----|----------------------------------|----------------------------------|
----|----|--2-2-2-2-0-0-3-3-2-2-2-2-5-5-5-5-|--2-2-2-2-0-0-3-3-2-2-2-2-5-5-5-5-|
----|----|--2-2-2-2-0-0-3-3-2-2-2-2-5-5-5-5-|--2-2-2-2-0-0-3-3-2-2-2-2-5-5-5-5-|
----|----|--2-2-2-2-0-0-3-3-2-2-2-2-5-5-5-5-|--2-2-2-2-0-0-3-3-2-2-2-2-5-5-5-5-|

  S S S S S S S S S S S S S S S S    S S S S S S S S S S S S S S S S  
----------------------------------|----------------------------------|
----------------------------------|----------------------------------|
----------------------------------|----------------------------------|
--2-2-2-2-0-0-3-3-2-2-2-2-5-5-5-5-|--5-5-5-5-5-5-5-5-7-7-7-7-8-8-8-8-|
--2-2-2-2-0-0-3-3-2-2-2-2-5-5-5-5-|--5-5-5-5-5-5-5-5-7-7-7-7-8-8-8-8-|
--2-2-2-2-0-0-3-3-2-2-2-2-5-5-5-5-|--5-5-5-5-5-5-5-5-7-7-7-7-8-8-8-8-|

  E  E  E  E  E  E  E  E     E  E  E  E  E  E  E  E   
--------------------------|--------------------------|
--------------------------|--------------------------|
--------------------------|--------------------------|
--------------------------|--------------------------|
--0--0-----0--0-----0--0--|-----0--0--0--1--1--1--1--|
--0--0-----0--0-----0--0--|-----0--0--0--1--1--1--1--|

  E  E  E  E  E  E  E  E     E  E  E  E  E  E  E  E   
--------------------------|--------------------------|
--------------------------|--------------------------|
--------------------------|--------------------------|
--------------------------|--------------------------|
--0--0-----0--0-----0--0--|-----0--0--0--1--1--1--1--|
--0--0-----0--0-----0--0--|-----0--0--0--1--1--1--1--|

  E  E  E  E  E  E  E  E     E  E  E  E  E  E  E  E   
--------------------------|--------------------------|
--------------------------|--------------------------|
--------------------------|--------------------------|
--------------------------|--------------------------|
--0--0-----0--0-----0--0--|-----0--0--0--1--1--1--1--|
--0--0-----0--0-----0--0--|-----0--0--0--1--1--1--1--|

  E  E  E  E  E  E  E  E     E  E  E  E  E  E  E  E   
--------------------------|--------------------------|
--------------------------|--------------------------|
--------------------------|--------------------------|
--------------------------|--------------------------|
--0--0-----0--0-----0--0--|-----0--0--0--1--1--1--1--|
--0--0-----0--0-----0--0--|-----0--0--0--1--1--1--1--|

  E  E  E  E  E  E  E  E     E  E  E  E  E  E  E  E   
--------------------------|--------------------------|
--------------------------|--------------------------|
--------------------------|--------------------------|
--------------------------|--------------------------|
--0--0-----0--0-----0--0--|-----0--0--0--1--1--1--1--|
--0--0-----0--0-----0--0--|-----0--0--0--1--1--1--1--|

  E  E  E  E  E  E  E  E     E  E  E  E  E  E  E  E   
--------------------------|--------------------------|
--------------------------|--------------------------|
--------------------------|--------------------------|
--------------------------|--------------------------|
--0--0-----0--0-----0--0--|-----0--0--0--1--1--1--1--|
--0--0-----0--0-----0--0--|-----0--0--0--1--1--1--1--|

  E  E  E  E  E  E  E  E     E  E  E  E  E  E  E  E   
--------------------------|--------------------------|
--------------------------|--------------------------|
--------------------------|--------------------------|
--------------------------|--------------------------|
--0--0-----0--0-----0--0--|-----0--0--0--1--1--1--1--|
--0--0-----0--0-----0--0--|-----0--0--0--1--1--1--1--|

  E  E  E  E  E  E  E  E     E  E  E  E  E  E  E  E     W                 
--------------------------|--------------------------|-------------------|
--------------------------|--------------------------|-------------------|
--------------------------|--------------------------|-------------------|
--------------------------|--------------------------|-------------------|
--0--0-----0--0-----0--0--|-----0--0--0--1--1--1--1--|--0----------------|
--0--0-----0--0-----0--0--|-----0--0--0--1--1--1--1--|--0----------------|

                      E  E  E  E  E  E  E  E     E  E  E  E  E  E  E  E   
-------------------|--------------------------|--------------------------|
-------------------|--------------------------|--------------------------|
-------------------|--------------------------|--------------------------|
-------------------|--------------------------|--------------------------|
-------------------|--5--0--0--0--2--0--0--0--|--4--0--0--0--3--0--3--0--|
-------------------|--------------------------|--------------------------|

  E  E  E  E  E  E  E  E     E  E  E  E  E  E  E  E   
--------------------------|--------------------------|
--------------------------|--------------------------|
--------------------------|--------------------------|
--------------------------|--------------------------|
--5--0--0--0--2--0--0--0--|--4--0--0--0--3--0--3--0--|
--------------------------|--------------------------|

  E  E  E  E  E  E  E  E     E  E  E  E  E  E  E  E   
--------------------------|--------------------------|
--------------------------|--------------------------|
--------------------------|--------------------------|
--------------------------|--------------------------|
--5--0--0--0--2--0--0--0--|--4--0--0--0--3--0--3--0--|
--------------------------|--------------------------|

  E  E  E  E  E  E  E  E     E  E  E  E  E     E  E  E  E  E  E  E  E   
--------------------------|-----------------|--------------------------|
--------------------------|-----------------|--------------------------|
--------------------------|-----------------|--------------------------|
--------------------------|-----------------|--------------------------|
--5--0--0--0--2--0--0--0--|--4--0--0--0--3--|--5--0--0--0--2--0--0--0--|
--------------------------|--------------3--|--5--0--0--0--2--0--0--0--|

  E  E  E  E  E  E  E  E     E  E  E  E  E  E  E  E   
--------------------------|--------------------------|
--------------------------|--------------------------|
--------------------------|--------------------------|
--------------------------|--------------------------|
--4--0--0--0--3--0--3--0--|--5--0--0--0--2--0--0--0--|
--4--0--0--0--3--0--3--0--|--5--0--0--0--2--0--0--0--|

  E  E  E  E  E  E  E  E     E  E  E  E  E  E  E  E   
--------------------------|--------------------------|
--------------------------|--------------------------|
--------------------------|--------------------------|
--------------------------|--------------------------|
--4--0--0--0--3--0--3--0--|--5--0--0--0--2--0--0--0--|
--4--0--0--0--3--0--3--0--|--5--0--0--0--2--0--0--0--|

  E  E  E  E  E  E  E  E     E  E  E  E  E  E  E  E   
--------------------------|--------------------------|
--------------------------|--------------------------|
--------------------------|--------------------------|
--------------------------|--------------------------|
--4--0--0--0--3--0--3--0--|--5--0--0--0--2--0--0--0--|
--4--0--0--0--3--0--3--0--|--5--0--0--0--2--0--0--0--|

  E  E  E  E  E  E  E  E     E  E  E  E  E  E  E  E   
--------------------------|--------------------------|
--------------------------|--------------------------|
--------------------------|--------------------------|
--------------------------|--------------------------|
--4--0--0--0--3--0--3--0--|--5--0--0--0--2--0--0--0--|
--4--0--0--0--3--0--3--0--|--5--0--0--0--2--0--0--0--|

  E  E  E  E  E  E  E  E     E  E  E  E  E  E  E  E   
--------------------------|--------------------------|
--------------------------|--------------------------|
--------------------------|--------------------------|
--------------------------|--------------------------|
--4--0--0--0--3--0--3--0--|--5--0--0--0--2--0--0--0--|
--4--0--0--0--3--0--3--0--|--5--0--0--0--2--0--0--0--|

  E  E  E  E  E  E  E  E     E  E  E  E  E  E  E  E   
--------------------------|--------------------------|
--------------------------|--------------------------|
--------------------------|--------------------------|
--------------------------|--------------------------|
--4--0--0--0--3--0--3--0--|--5--0--0--0--2--0--0--0--|
--4--0--0--0--3--0--3--0--|--5--0--0--0--2--0--0--0--|

  E  E  E  E  E  E  E  E     E  E  E  E  E  E  E  E   
--------------------------|--------------------------|
--------------------------|--------------------------|
--------------------------|--------------------------|
--------------------------|--------------------------|
--4--0--0--0--3--0--3--0--|--5--0--0--0--2--0--0--0--|
--4--0--0--0--3--0--3--0--|--5--0--0--0--2--0--0--0--|

  E  E  E  E  E  E  E  E     W                                     
--------------------------|--0----------------|-------------------|
--------------------------|--1----------------|-------------------|
--------------------------|--0----------------|-------------------|
--------------------------|--2----------------|-------------------|
--4--0--0--0--3--0--3--0--|--3----------------|-------------------|
--4--0--0--0--3--0--3--0--|-------------------|-------------------|

  E  E  E  E  E  E  E  E     E  E  E  E  E  E  E  E   
--------------------------|--------------------------|
--------------------------|--------------------------|
--------------------------|--------------------------|
--------------------------|--------------------------|
--0--0-----0--0-----0--0--|-----0--0--0--1--1--1--1--|
--0--0-----0--0-----0--0--|-----0--0--0--1--1--1--1--|

  E  E  E  E  E  E  E  E     E  E  E  E  E  E  E  E   
--------------------------|--------------------------|
--------------------------|--------------------------|
--------------------------|--------------------------|
--------------------------|--------------------------|
--0--0-----0--0-----0--0--|-----0--0--0--1--1--1--1--|
--0--0-----0--0-----0--0--|-----0--0--0--1--1--1--1--|

  E  E  E  E  E  E  E  E     E  E  E  E  E  E  E  E   
--------------------------|--------------------------|
--------------------------|--------------------------|
--------------------------|--------------------------|
--------------------------|--------------------------|
--0--0-----0--0-----0--0--|-----0--0--0--1--1--1--1--|
--0--0-----0--0-----0--0--|-----0--0--0--1--1--1--1--|

  E  E  E  E  E  E  E  E     E  E  E  E  E  E  E  E   
--------------------------|--------------------------|
--------------------------|--------------------------|
--------------------------|--------------------------|
--------------------------|--------------------------|
--0--0-----0--0-----0--0--|-----0--0--0--1--1--1--1--|
--0--0-----0--0-----0--0--|-----0--0--0--1--1--1--1--|

  E  E  E  E  E  E  E  E     E  E  E  E  E  E  E  E   
--------------------------|--------------------------|
--------------------------|--------------------------|
--------------------------|--------------------------|
--------------------------|--------------------------|
--0--0-----0--0-----0--0--|-----0--0--0--1--1--1--1--|
--0--0-----0--0-----0--0--|-----0--0--0--1--1--1--1--|

  E  E  E  E  E  E  E  E     E  E  E  E  E  E  E  E   
--------------------------|--------------------------|
--------------------------|--------------------------|
--------------------------|--------------------------|
--------------------------|--------------------------|
--0--0-----0--0-----0--0--|-----0--0--0--1--1--1--1--|
--0--0-----0--0-----0--0--|-----0--0--0--1--1--1--1--|

  E  E  E  E  E  E  E  E     E  E  E  E  E  E  E  E   
--------------------------|--------------------------|
--------------------------|--------------------------|
--------------------------|--------------------------|
--------------------------|--------------------------|
--0--0-----0--0-----0--0--|-----0--0--0--1--1--1--1--|
--0--0-----0--0-----0--0--|-----0--0--0--1--1--1--1--|

  E  E  E  E  E  E  E  E     E  E  E  E  E  E  E  E   
--------------------------|--------------------------|
--------------------------|--------------------------|
--------------------------|--------------------------|
--------------------------|--------------------------|
--0--0-----0--0-----0--0--|-----0--0--0--1--1--1--1--|
--0--0-----0--0-----0--0--|-----0--0--0--1--1--1--1--|

  E  E  E  E  E  E  E  E     E  E  E  E  E  E  E  E   
--------------------------|--------------------------|
--------------------------|--------------------------|
--------------------------|--------------------------|
--------------------------|--------------------------|
--5--0--0--0--2--0--0--0--|--4--0--0--0--3--0--3--0--|
--5--0--0--0--2--0--0--0--|--4--0--0--0--3--0--3--0--|

  E  E  E  E  E  E  E  E     E  E  E  E  E  E  E  E   
--------------------------|--------------------------|
--------------------------|--------------------------|
--------------------------|--------------------------|
--------------------------|--------------------------|
--5--0--0--0--2--0--0--0--|--4--0--0--0--3--0--3--0--|
--5--0--0--0--2--0--0--0--|--4--0--0--0--3--0--3--0--|

  E  E  E  E  E  E  E  E     E  E  E  E  E  E  E  E   
--------------------------|--------------------------|
--------------------------|--------------------------|
--------------------------|--------------------------|
--------------------------|--------------------------|
--5--0--0--0--2--0--0--0--|--4--0--0--0--3--0--3--0--|
--5--0--0--0--2--0--0--0--|--4--0--0--0--3--0--3--0--|

  E  E  E  E  E  E  E  E     E  E  E  E  E  E  E  E   
--------------------------|--------------------------|
--------------------------|--------------------------|
--------------------------|--------------------------|
--------------------------|--------------------------|
--5--0--0--0--2--0--0--0--|--4--0--0--0--3--0--3--0--|
--5--0--0--0--2--0--0--0--|--4--0--0--0--3--0--3--0--|

  E  E  E  E  E  E  E  E     E  E  E  E  E  E  E  E   
--------------------------|--------------------------|
--------------------------|--------------------------|
--------------------------|--------------------------|
--------------------------|--------------------------|
--5--0--0--0--2--0--0--0--|--4--0--0--0--3--0--3--0--|
--5--0--0--0--2--0--0--0--|--4--0--0--0--3--0--3--0--|

  E  E  E  E  E  E  E  E     E  E  E  E  E  E  E  E   
--------------------------|--------------------------|
--------------------------|--------------------------|
--------------------------|--------------------------|
--------------------------|--------------------------|
--5--0--0--0--2--0--0--0--|--4--0--0--0--3--0--3--0--|
--5--0--0--0--2--0--0--0--|--4--0--0--0--3--0--3--0--|

  E  E  E  E  E  E  E  E     E  E  E  E  E  E  E  E   
--------------------------|--------------------------|
--------------------------|--------------------------|
--------------------------|--------------------------|
--------------------------|--------------------------|
--5--0--0--0--2--0--0--0--|--4--0--0--0--3--0--3--0--|
--5--0--0--0--2--0--0--0--|--4--0--0--0--3--0--3--0--|

  E  E  E  E  E  E  E  E     E  E  E  E  E  E  E  E     W                 
--------------------------|--------------------------|--0----------------|
--------------------------|--------------------------|--1----------------|
--------------------------|--------------------------|--0----------------|
--------------------------|--------------------------|--2----------------|
--5--0--0--0--2--0--0--0--|--4--0--0--0--3--0--3--0--|--3----------------|
--5--0--0--0--2--0--0--0--|--4--0--0--0--3--0--3--0--|-------------------|

-------------------||
-------------------||
-------------------||
-------------------||
-------------------||
-------------------||

==========Communion==========

D||-------|-------|-------|-------|-------|-------|-------|-------|-------|
A||-------|-------|-------|-------|-------|-------|-------|-------|-------|
F||-------|-------|-------|-------|-------|-------|-------|-------|-------|
C||-------|-------|-------|-------|-------|-------|-------|-------|-------|
G||-------|-------|-------|-------|-------|-------|-------|-------|-------|
C||-------|-------|-------|-------|-------|-------|-------|-------|-------|

-------|-------|-------|-------|-------|-------|-------|-------|-------|-------|
-------|-------|-------|-------|-------|-------|-------|-------|-------|-------|
-------|-------|-------|-------|-------|-------|-------|-------|-------|-------|
-------|-------|-------|-------|-------|-------|-------|-------|-------|-------|
-------|-------|-------|-------|-------|-------|-------|-------|-------|-------|
-------|-------|-------|-------|-------|-------|-------|-------|-------|-------|

-------|-------|-------|-------|-------|-------|-------|-------|-------|-------|
-------|-------|-------|-------|-------|-------|-------|-------|-------|-------|
-------|-------|-------|-------|-------|-------|-------|-------|-------|-------|
-------|-------|-------|-------|-------|-------|-------|-------|-------|-------|
-------|-------|-------|-------|-------|-------|-------|-------|-------|-------|
-------|-------|-------|-------|-------|-------|-------|-------|-------|-------|

                          ^  v  ^  v  ^  v  ^  v     ^  v  ^  v  ^  v  ^  v   
                          E  E  E  E  E  E  E  E     E  E  E  E  E  E  E  E   
-------|-------|-------|--7--7--7--7--7--7--7--7--|--5--5--5--5--5--5--5--5--|
-------|-------|-------|--9--9--9--9--9--9--9--9--|--7--7--7--7--7--7--7--7--|
-------|-------|-------|--9--9--9--9--9--9--9--9--|--7--7--7--7--7--7--7--7--|
-------|-------|-------|--9--9--9--9--9--9--9--9--|--7--7--7--7--7--7--7--7--|
-------|-------|-------|--7--7--7--7--7--7--7--7--|--5--5--5--5--5--5--5--5--|
-------|-------|-------|--------------------------|--------------------------|

  ^  v  ^  v  ^  v  ^  v     ^  v  ^  v  ^  v  ^  v   
  E  E  E  E  E  E  E  E     E  E  E  E  E  E  E  E   
--------------------------|--------------------------|
--------------------------|--------------------------|
--------------------------|--------------------------|
--------------------------|--------------------------|
--2--0--0--0--2--4--0--0--|--2--0--0--0--2--4--0--0--|
--2--0--0--0--2--4--0--0--|--2--0--0--0--2--4--0--0--|

  ^  v  ^  v  ^  v  ^  v     ^  v  ^  v  ^  v  ^  v   
  E  E  E  E  E  E  E  E     E  E  E  E  E  E  E  E   
--7--7--7--7--7--7--7--7--|--5--5--5--5--5--5--5--5--|
--9--9--9--9--9--9--9--9--|--7--7--7--7--7--7--7--7--|
--9--9--9--9--9--9--9--9--|--7--7--7--7--7--7--7--7--|
--9--9--9--9--9--9--9--9--|--7--7--7--7--7--7--7--7--|
--7--7--7--7--7--7--7--7--|--5--5--5--5--5--5--5--5--|
--------------------------|--------------------------|

  ^  v  ^  v  ^  v  ^  v     ^  v  ^  v  ^  v  ^  v   
  E  E  E  E  E  E  E  E     E  E  E  E  E  E  E  E   
--------------------------|--------------------------|
--------------------------|--------------------------|
--------------------------|--------------------------|
--------------------------|--------------------------|
--2--0--0--0--2--4--0--0--|--2--0--0--0--2--4--0--0--|
--2--0--0--0--2--4--0--0--|--2--0--0--0--2--4--0--0--|

  ^  v  ^  v  ^  v  ^  v     ^  v  ^  v  ^  v  ^  v   
  E  E  E  E  E  E  E  E     E  E  E  E  E  E  E  E   
--7--7--7--7--7--7--7--7--|--5--5--5--5--5--5--5--5--|
--9--9--9--9--9--9--9--9--|--7--7--7--7--7--7--7--7--|
--9--9--9--9--9--9--9--9--|--7--7--7--7--7--7--7--7--|
--9--9--9--9--9--9--9--9--|--7--7--7--7--7--7--7--7--|
--7--7--7--7--7--7--7--7--|--5--5--5--5--5--5--5--5--|
--------------------------|--------------------------|

  ^  v  ^  v  ^  v  ^  v     ^  v  ^  v  ^  v  ^  v   
  E  E  E  E  E  E  E  E     E  E  E  E  E  E  E  E   
--2--2--2--2--2--2--2--2--|--2--2--2--2--2--2--2--2--|
--3--3--3--3--3--3--3--3--|--3--3--3--3--3--3--3--3--|
--4--4--4--4--4--4--4--4--|--4--4--4--4--4--4--4--4--|
--4--4--4--4--4--4--4--4--|--4--4--4--4--4--4--4--4--|
--2--2--2--2--2--2--2--2--|--2--2--2--2--2--2--2--2--|
--------------------------|--------------------------|

  ^  v  ^  v  ^  v  ^  v     ^  v  ^  v  ^  v  ^  v   
  E  E  E  E  E  E  E  E     E  E  E  E  E  E  E  E   
--7--7--7--7--7--7--7--7--|--5--5--5--5--5--5--5--5--|
--9--9--9--9--9--9--9--9--|--7--7--7--7--7--7--7--7--|
--9--9--9--9--9--9--9--9--|--7--7--7--7--7--7--7--7--|
--9--9--9--9--9--9--9--9--|--7--7--7--7--7--7--7--7--|
--7--7--7--7--7--7--7--7--|--5--5--5--5--5--5--5--5--|
--------------------------|--------------------------|

  ^  v  ^  v  ^  v  ^  v     ^  v  ^  v  ^  v  ^  v   
  E  E  E  E  E  E  E  E     E  E  E  E  E  E  E  E   
--------------------------|--------------------------|
--------------------------|--------------------------|
--------------------------|--------------------------|
--------------------------|--------------------------|
--2--0--0--0--2--4--0--0--|--2--0--0--0--2--4--0--0--|
--2--0--0--0--2--4--0--0--|--2--0--0--0--2--4--0--0--|

  ^  v  ^  v  ^  v  ^  v     ^  v  ^  v  ^  v  ^  v                       
  E  E  E  E  E  E  E  E     E  E  E  E  E  E  E  E     W                 
--------------------------|--------------------------|-------------------|
--------------------------|--------------------------|-------------------|
--------------------------|--------------------------|-------------------|
--------------------------|--------------------------|-------------------|
--2--0--0--0--2--4--0--0--|--2--0--0--0--2--4--0--0--|--0----------------|
--2--0--0--0--2--4--0--0--|--2--0--0--0--2--4--0--0--|--0----------------|

-------------------|-------------------|-------------------|-------------------|
-------------------|-------------------|-------------------|-------------------|
-------------------|-------------------|-------------------|-------------------|
-------------------|-------------------|-------------------|-------------------|
-------------------|-------------------|-------------------|-------------------|
-------------------|-------------------|-------------------|-------------------|

-------------------|-------------------|-------------------|-------------------|
-------------------|-------------------|-------------------|-------------------|
-------------------|-------------------|-------------------|-------------------|
-------------------|-------------------|-------------------|-------------------|
-------------------|-------------------|-------------------|-------------------|
-------------------|-------------------|-------------------|-------------------|

-------------------|-------------------|-------------------|-------------------|
-------------------|-------------------|-------------------|-------------------|
-------------------|-------------------|-------------------|-------------------|
-------------------|-------------------|-------------------|-------------------|
-------------------|-------------------|-------------------|-------------------|
-------------------|-------------------|-------------------|-------------------|

-------------------|-------------------|-------------------|-------------------|
-------------------|-------------------|-------------------|-------------------|
-------------------|-------------------|-------------------|-------------------|
-------------------|-------------------|-------------------|-------------------|
-------------------|-------------------|-------------------|-------------------|
-------------------|-------------------|-------------------|-------------------|

-------------------|-------------------|-------------------|-------------------|
-------------------|-------------------|-------------------|-------------------|
-------------------|-------------------|-------------------|-------------------|
-------------------|-------------------|-------------------|-------------------|
-------------------|-------------------|-------------------|-------------------|
-------------------|-------------------|-------------------|-------------------|

-------------------|-------------------|-------------------|
-------------------|-------------------|-------------------|
-------------------|-------------------|-------------------|
-------------------|-------------------|-------------------|
-------------------|-------------------|-------------------|
-------------------|-------------------|-------------------|

  ^  v  ^  v  ^  v  ^  v     ^  v  ^  v  ^  v  ^  v   
  E  E  E  E  E  E  E  E     E  E  E  E  E  E  E  E   
--7--7--7--7--7--7--7--7--|--5--5--5--5--5--5--5--5--|
--9--9--9--9--9--9--9--9--|--7--7--7--7--7--7--7--7--|
--9--9--9--9--9--9--9--9--|--7--7--7--7--7--7--7--7--|
--9--9--9--9--9--9--9--9--|--7--7--7--7--7--7--7--7--|
--7--7--7--7--7--7--7--7--|--5--5--5--5--5--5--5--5--|
--------------------------|--------------------------|

  ^  v  ^  v  ^  v  ^  v     ^  v  ^  v  ^  v  ^  v   
  E  E  E  E  E  E  E  E     E  E  E  E  E  E  E  E   
--------------------------|--------------------------|
--------------------------|--------------------------|
--------------------------|--------------------------|
--------------------------|--------------------------|
--2--0--0--0--2--4--0--0--|--2--0--0--0--2--4--0--0--|
--2--0--0--0--2--4--0--0--|--2--0--0--0--2--4--0--0--|

  ^  v  ^  v  ^  v  ^  v     ^  v  ^  v  ^  v  ^  v   
  E  E  E  E  E  E  E  E     E  E  E  E  E  E  E  E   
--7--7--7--7--7--7--7--7--|--5--5--5--5--5--5--5--5--|
--9--9--9--9--9--9--9--9--|--7--7--7--7--7--7--7--7--|
--9--9--9--9--9--9--9--9--|--7--7--7--7--7--7--7--7--|
--9--9--9--9--9--9--9--9--|--7--7--7--7--7--7--7--7--|
--7--7--7--7--7--7--7--7--|--5--5--5--5--5--5--5--5--|
--------------------------|--------------------------|

  ^  v  ^  v  ^  v  ^  v     ^  v  ^  v  ^  v  ^  v   
  E  E  E  E  E  E  E  E     E  E  E  E  E  E  E  E   
--------------------------|--------------------------|
--------------------------|--------------------------|
--------------------------|--------------------------|
--------------------------|--------------------------|
--2--0--0--0--2--4--0--0--|--2--0--0--0--2--4--0--0--|
--2--0--0--0--2--4--0--0--|--2--0--0--0--2--4--0--0--|

  ^  v  ^  v  ^  v  ^  v     ^  v  ^  v  ^  v  ^  v   
  E  E  E  E  E  E  E  E     E  E  E  E  E  E  E  E   
--7--7--7--7--7--7--7--7--|--5--5--5--5--5--5--5--5--|
--9--9--9--9--9--9--9--9--|--7--7--7--7--7--7--7--7--|
--9--9--9--9--9--9--9--9--|--7--7--7--7--7--7--7--7--|
--9--9--9--9--9--9--9--9--|--7--7--7--7--7--7--7--7--|
--7--7--7--7--7--7--7--7--|--5--5--5--5--5--5--5--5--|
--------------------------|--------------------------|

  ^  v  ^  v  ^  v  ^  v     ^  v  ^  v  ^  v  ^  v   
  E  E  E  E  E  E  E  E     E  E  E  E  E  E  E  E   
--2--2--2--2--2--2--2--2--|--2--2--2--2--2--2--2--2--|
--3--3--3--3--3--3--3--3--|--3--3--3--3--3--3--3--3--|
--4--4--4--4--4--4--4--4--|--4--4--4--4--4--4--4--4--|
--4--4--4--4--4--4--4--4--|--4--4--4--4--4--4--4--4--|
--2--2--2--2--2--2--2--2--|--2--2--2--2--2--2--2--2--|
--------------------------|--------------------------|

  ^  v  ^  v  ^  v  ^  v     ^  v  ^  v  ^  v  ^  v   
  E  E  E  E  E  E  E  E     E  E  E  E  E  E  E  E   
--7--7--7--7--7--7--7--7--|--5--5--5--5--5--5--5--5--|
--9--9--9--9--9--9--9--9--|--7--7--7--7--7--7--7--7--|
--9--9--9--9--9--9--9--9--|--7--7--7--7--7--7--7--7--|
--9--9--9--9--9--9--9--9--|--7--7--7--7--7--7--7--7--|
--7--7--7--7--7--7--7--7--|--5--5--5--5--5--5--5--5--|
--------------------------|--------------------------|

  ^  v  ^  v  ^  v  ^  v     ^  v  ^  v  ^  v  ^  v   
  E  E  E  E  E  E  E  E     E  E  E  E  E  E  E  E   
--------------------------|--------------------------|
--------------------------|--------------------------|
--------------------------|--------------------------|
--------------------------|--------------------------|
--2--0--0--0--2--4--0--0--|--2--0--0--0--2--4--0--0--|
--2--0--0--0--2--4--0--0--|--2--0--0--0--2--4--0--0--|

  ^  v  ^  v  ^  v  ^  v     ^  v  ^  v  ^  v  ^  v   
  E  E  E  E  E  E  E  E     E  E  E  E  E  E  E  E   
--------------------------|--------------------------|
--------------------------|--------------------------|
--------------------------|--------------------------|
--------------------------|--------------------------|
--2--0--0--0--2--4--0--0--|--2--0--0--0--2--4--0--0--|
--2--0--0--0--2--4--0--0--|--2--0--0--0--2--4--0--0--|

  ^  v  ^  v  ^  v  ^  v     ^  v  ^  v  ^  v  ^  v   
  E  E  E  E  E  E  E  E     E  E  E  E  E  E  E  E   
--------------------------|--------------------------|
--------------------------|--------------------------|
--------------------------|--------------------------|
--7--7--7--7--7--7--7--7--|--9--9--9--9--9--9--9--9--|
--5--5--5--5--5--5--5--5--|--7--7--7--7--7--7--7--7--|
--------------------------|--------------------------|

  ^  v  ^  v  ^  v  ^  v     ^  v  ^  v  ^  v  ^  v   
  E  E  E  E  E  E  E  E     E  E  E  E  E  E  E  E   
--------------------------|--------------------------|
--------------------------|--------------------------|
--------------------------|--------------------------|
--5--5--5--5--5--5--5--5--|--3--3--3--3--2--2--2--2--|
--3--3--3--3--3--3--3--3--|--1--1--1--1--0--0--0--0--|
--------------------------|--------------------------|

  ^  v  ^  v  ^  v  ^  v     ^  v  ^  v  ^  v  ^  v   
  E  E  E  E  E  E  E  E     E  E  E  E  E  E  E  E   
--------------------------|--------------------------|
--------------------------|--------------------------|
--------------------------|--------------------------|
--------------------------|--------------------------|
--2--0--0--0--2--4--0--0--|--2--0--0--0--2--4--0--0--|
--2--0--0--0--2--4--0--0--|--2--0--0--0--2--4--0--0--|

  ^  v  ^  v  ^  v  ^  v     ^  v  ^  v  ^  v  ^  v   
  E  E  E  E  E  E  E  E     E  E  E  E  E  E  E  E   
--------------------------|--------------------------|
--------------------------|--------------------------|
--------------------------|--------------------------|
--------------------------|--------------------------|
--2--0--0--0--2--4--0--0--|--2--0--0--0--2--4--0--0--|
--2--0--0--0--2--4--0--0--|--2--0--0--0--2--4--0--0--|

  ^  v  ^  v  ^  v  ^  v     ^  v  ^  v  ^  v  ^  v   
  E  E  E  E  E  E  E  E     E  E  E  E  E  E  E  E   
--------------------------|--------------------------|
--------------------------|--------------------------|
--------------------------|--------------------------|
--7--7--7--7--7--7--7--7--|--9--9--9--9--9--9--9--9--|
--5--5--5--5--5--5--5--5--|--7--7--7--7--7--7--7--7--|
--------------------------|--------------------------|

  ^  v  ^  v  ^  v  ^  v     ^  v  ^  v  ^  v  ^  v   
  E  E  E  E  E  E  E  E     E  E  E  E  E  E  E  E   
--------------------------|--------------------------|
--------------------------|--------------------------|
--------------------------|--------------------------|
--5--5--5--5--5--5--5--5--|--3--3--3--3--2--2--2--2--|
--3--3--3--3--3--3--3--3--|--1--1--1--1--0--0--0--0--|
--------------------------|--------------------------|

  ^  v  ^  v  ^  v  ^  v     ^  v  ^  v  ^  v  ^  v   
  E  E  E  E  E  E  E  E     E  E  E  E  E  E  E  E   
--------------------------|--------------------------|
--------------------------|--------------------------|
--------------------------|--------------------------|
--------------------------|--------------------------|
--2--0--0--0--2--4--0--0--|--2--0--0--0--2--4--0--0--|
--2--0--0--0--2--4--0--0--|--2--0--0--0--2--4--0--0--|

  ^  v  ^  v  ^  v  ^  v     ^  v  ^  v  ^  v  ^  v   
  E  E  E  E  E  E  E  E     E  E  E  E  E  E  E  E   
--------------------------|--------------------------|
--------------------------|--------------------------|
--------------------------|--------------------------|
--------------------------|--------------------------|
--2--0--0--0--2--4--0--0--|--2--0--0--0--2--4--0--0--|
--2--0--0--0--2--4--0--0--|--2--0--0--0--2--4--0--0--|

  ^  v  ^  v  ^  v  ^  v     ^  v  ^  v  ^  v  ^  v   
  E  E  E  E  E  E  E  E     E  E  E  E  E  E  E  E   
--------------------------|--------------------------|
--------------------------|--------------------------|
--------------------------|--------------------------|
--7--7--7--7--7--7--7--7--|--9--9--9--9--9--9--9--9--|
--5--5--5--5--5--5--5--5--|--7--7--7--7--7--7--7--7--|
--------------------------|--------------------------|

  ^  v  ^  v  ^  v  ^  v     ^  v  ^  v  ^  v  ^  v   
  E  E  E  E  E  E  E  E     E  E  E  E  E  E  E  E   
--------------------------|--------------------------|
--------------------------|--------------------------|
--------------------------|--------------------------|
--5--5--5--5--5--5--5--5--|--3--3--3--3--2--2--2--2--|
--3--3--3--3--3--3--3--3--|--1--1--1--1--0--0--0--0--|
--------------------------|--------------------------|

  ^  v  ^  v  ^  v  ^  v     ^  v  ^  v  ^  v  ^  v   
  E  E  E  E  E  E  E  E     E  E  E  E  E  E  E  E   
--------------------------|--------------------------|
--------------------------|--------------------------|
--------------------------|--------------------------|
--------------------------|--------------------------|
--2--0--0--0--2--4--0--0--|--2--0--0--0--2--4--0--0--|
--2--0--0--0--2--4--0--0--|--2--0--0--0--2--4--0--0--|

  ^  v  ^  v  ^  v  ^  v     ^  v  ^  v  ^  v  ^  v   
  E  E  E  E  E  E  E  E     E  E  E  E  E  E  E  E   
--------------------------|--------------------------|
--------------------------|--------------------------|
--------------------------|--------------------------|
--------------------------|--------------------------|
--2--0--0--0--2--4--0--0--|--2--0--0--0--2--4--0--0--|
--2--0--0--0--2--4--0--0--|--2--0--0--0--2--4--0--0--|

  ^  v  ^  v  ^  v  ^  v     ^  v  ^  v  ^  v  ^  v   
  E  E  E  E  E  E  E  E     E  E  E  E  E  E  E  E   
--------------------------|--------------------------|
--------------------------|--------------------------|
--------------------------|--------------------------|
--7--7--7--7--7--7--7--7--|--9--9--9--9--9--9--9--9--|
--5--5--5--5--5--5--5--5--|--7--7--7--7--7--7--7--7--|
--------------------------|--------------------------|

  ^  v  ^  v  ^  v  ^  v     ^  v  ^  v  ^  v  ^  v   
  E  E  E  E  E  E  E  E     E  E  E  E  E  E  E  E   
--------------------------|--------------------------|
--------------------------|--------------------------|
--------------------------|--------------------------|
--5--5--5--5--5--5--5--5--|--3--3--3--3--2--2--2--2--|
--3--3--3--3--3--3--3--3--|--1--1--1--1--0--0--0--0--|
--------------------------|--------------------------|

  ^  v  ^  v  ^  v  ^  v     ^  v  ^  v  ^  v  ^  v   
  E  E  E  E  E  E  E  E     E  E  E  E  E  E  E  E   
--------------------------|--------------------------|
--------------------------|--------------------------|
--------------------------|--------------------------|
--------------------------|--------------------------|
--2--0--0--0--2--4--0--0--|--2--0--0--0--2--4--0--0--|
--2--0--0--0--2--4--0--0--|--2--0--0--0--2--4--0--0--|

  ^  v  ^  v  ^  v  ^  v     ^  v  ^  v  ^  v  ^  v   
  E  E  E  E  E  E  E  E     E  E  E  E  E  E  E  E   
--------------------------|--------------------------|
--------------------------|--------------------------|
--------------------------|--------------------------|
--------------------------|--------------------------|
--2--0--0--0--2--4--0--0--|--2--0--0--0--2--4--0--0--|
--2--0--0--0--2--4--0--0--|--2--0--0--0--2--4--0--0--|

  ^  v  ^  v  ^  v  ^  v     ^  v  ^  v  ^  v  ^  v   
  E  E  E  E  E  E  E  E     E  E  E  E  E  E  E  E   
--7--7--7--7--7--7--7--7--|--5--5--5--5--5--5--5--5--|
--9--9--9--9--9--9--9--9--|--7--7--7--7--7--7--7--7--|
--9--9--9--9--9--9--9--9--|--7--7--7--7--7--7--7--7--|
--9--9--9--9--9--9--9--9--|--7--7--7--7--7--7--7--7--|
--7--7--7--7--7--7--7--7--|--5--5--5--5--5--5--5--5--|
--------------------------|--------------------------|

  ^  v  ^  v  ^  v  ^  v     ^  v  ^  v  ^  v  ^  v   
  E  E  E  E  E  E  E  E     E  E  E  E  E  E  E  E   
--------------------------|--------------------------|
--------------------------|--------------------------|
--------------------------|--------------------------|
--------------------------|--------------------------|
--2--0--0--0--2--4--0--0--|--2--0--0--0--2--4--0--0--|
--2--0--0--0--2--4--0--0--|--2--0--0--0--2--4--0--0--|

  ^  v  ^  v  ^  v  ^  v     ^  v  ^  v  ^  v  ^  v   
  E  E  E  E  E  E  E  E     E  E  E  E  E  E  E  E   
--7--7--7--7--7--7--7--7--|--5--5--5--5--5--5--5--5--|
--9--9--9--9--9--9--9--9--|--7--7--7--7--7--7--7--7--|
--9--9--9--9--9--9--9--9--|--7--7--7--7--7--7--7--7--|
--9--9--9--9--9--9--9--9--|--7--7--7--7--7--7--7--7--|
--7--7--7--7--7--7--7--7--|--5--5--5--5--5--5--5--5--|
--------------------------|--------------------------|

  ^  v  ^  v  ^  v  ^  v     ^  v  ^  v  ^  v  ^  v   
  E  E  E  E  E  E  E  E     E  E  E  E  E  E  E  E   
--------------------------|--------------------------|
--------------------------|--------------------------|
--------------------------|--------------------------|
--------------------------|--------------------------|
--2--0--0--0--2--4--0--0--|--2--0--0--0--2--4--0--0--|
--2--0--0--0--2--4--0--0--|--2--0--0--0--2--4--0--0--|

  ^  v  ^  v  ^  v  ^  v     ^  v  ^  v  ^  v  ^  v   
  E  E  E  E  E  E  E  E     E  E  E  E  E  E  E  E   
--7--7--7--7--7--7--7--7--|--5--5--5--5--5--5--5--5--|
--9--9--9--9--9--9--9--9--|--7--7--7--7--7--7--7--7--|
--9--9--9--9--9--9--9--9--|--7--7--7--7--7--7--7--7--|
--9--9--9--9--9--9--9--9--|--7--7--7--7--7--7--7--7--|
--7--7--7--7--7--7--7--7--|--5--5--5--5--5--5--5--5--|
--------------------------|--------------------------|

  ^  v  ^  v  ^  v  ^  v     ^  v  ^  v  ^  v  ^  v   
  E  E  E  E  E  E  E  E     E  E  E  E  E  E  E  E   
--2--2--2--2--2--2--2--2--|--2--2--2--2--2--2--2--2--|
--3--3--3--3--3--3--3--3--|--3--3--3--3--3--3--3--3--|
--4--4--4--4--4--4--4--4--|--4--4--4--4--4--4--4--4--|
--4--4--4--4--4--4--4--4--|--4--4--4--4--4--4--4--4--|
--2--2--2--2--2--2--2--2--|--2--2--2--2--2--2--2--2--|
--------------------------|--------------------------|

  ^  v  ^  v  ^  v  ^  v     ^  v  ^  v  ^  v  ^  v   
  E  E  E  E  E  E  E  E     E  E  E  E  E  E  E  E   
--7--7--7--7--7--7--7--7--|--5--5--5--5--5--5--5--5--|
--9--9--9--9--9--9--9--9--|--7--7--7--7--7--7--7--7--|
--9--9--9--9--9--9--9--9--|--7--7--7--7--7--7--7--7--|
--9--9--9--9--9--9--9--9--|--7--7--7--7--7--7--7--7--|
--7--7--7--7--7--7--7--7--|--5--5--5--5--5--5--5--5--|
--------------------------|--------------------------|

  ^  v  ^  v  ^  v  ^  v     ^  v  ^  v  ^  v  ^  v   
  E  E  E  E  E  E  E  E     E  E  E  E  E  E  E  E   
--------------------------|--------------------------|
--------------------------|--------------------------|
--------------------------|--------------------------|
--------------------------|--------------------------|
--2--0--0--0--2--4--0--0--|--2--0--0--0--2--4--0--0--|
--2--0--0--0--2--4--0--0--|--2--0--0--0--2--4--0--0--|

  ^  v  ^  v  ^  v  ^  v     ^  v  ^  v  ^  v  ^  v    
  E  E  E  E  E  E  E  E     E  E  E  E  E  E  E  E    
--------------------------|--------------------------||
--------------------------|--------------------------||
--------------------------|--------------------------||
--------------------------|--------------------------||
--2--0--0--0--2--4--0--0--|--2--0--0--0--2--4--0--0--||
--2--0--0--0--2--4--0--0--|--2--0--0--0--2--4--0--0--||

==========Far Cry==========

Guitar 1

     E  E  E  E  E  E  E  E     E  E  E  E  E  E  E  E   
D||--------------------------|--------------------------|
A||-----------3--------------|-----------3--------------|
F||-----3-----------3-----3--|-----3-----------3-----3--|
C||--------5-----------5-----|--------5-----------5-----|
G||--5-----------------------|--------------------------|
C||--------------------------|--------------------------|


  E  E  E  E  E  E  E  E     E  E  E  E  E  E  E  E   
--------------------------|--------------------------|
-----------1--------------|-----------1--------------|
-----1-----------1-----1--|-----1-----------1-----1--|
--------3-----------3-----|--------3-----------3-----|
--3-----------------------|--------------------------|
--------------------------|--------------------------|


  E  E  E  E  E  E  E  E     E  E  E  E  E  E  E  E   
--------------------------|--------------------------|
-----------2--------------|-----------2--------------|
-----2-----------2-----2--|-----2-----------2-----2--|
--------4-----------4-----|--------4-----------4-----|
--4-----------------------|--------------------------|
--------------------------|--------------------------|


  E  E  E  E  E  E  E  W                   E  E  E  E  E   
----------------------------------------|-----------------|
-----------0-----------0----------------|-----------------|
-----0-----------0-----0----------------|-----------------|
--------2-----------2--2----------------|-----------------|
--2--------------------2----------------|-----------------|
----------------------------------------|-----------------|


  E  E  E  E  E  E  E  E     E  E  E  E  E  E  E  E   
--------------------------|--------------------------|
-----------3--------------|-----------3--------------|
-----3-----------3-----3--|-----3-----------3-----3--|
--------5-----------5-----|--------5-----------5-----|
--5-----------------------|--------------------------|
--------------------------|--------------------------|


  E  E  E  E  E  E  E  E     E  E  E  E  E  E  E  E   
--------------------------|--------------------------|
-----------1--------------|-----------1--------------|
-----1-----------1-----1--|-----1-----------1-----1--|
--------3-----------3-----|--------3-----------3-----|
--3-----------------------|--------------------------|
--------------------------|--------------------------|


  E  E  E  E  E  E  E  E     E  E  E  E  E  E  E  E   
--------------------------|--------------------------|
-----------2--------------|-----------2--------------|
-----2-----------2-----2--|-----2-----------2-----2--|
--------4-----------4-----|--------4-----------4-----|
--4-----------------------|--------------------------|
--------------------------|--------------------------|


  E  E  E  E  E  E  E  E     E  E  E  E  E  E  E  E   
--------------------------|--------------------------|
-----------0--------------|-----------0--------------|
-----0-----------0-----0--|-----0-----------0-----0--|
--------2-----------2-----|--------2-----------2-----|
--2-----------------------|--------------------------|
--------------------------|--------------------------|


  E  E  E  E  E  E  E  E     E  E  E  E  E  E  E  E   
--------------------------|--------------------------|
-----------3--------------|-----------3--------------|
-----3-----------3-----3--|-----3-----------3-----3--|
--------5-----------5-----|--------5-----------5-----|
--5-----------------------|--------------------------|
--------------------------|--------------------------|


  E  E  E  E  E  E  E  E     E  E  E  E  E  E  E  E   
--------------------------|--------------------------|
-----------1--------------|-----------1--------------|
-----1-----------1-----1--|-----1-----------1-----1--|
--------3-----------3-----|--------3-----------3-----|
--3-----------------------|--------------------------|
--------------------------|--------------------------|


  E  E  E  E  E  E  E  E     E  E  E  E  E  E  E  E   
--------------------------|--------------------------|
-----------2--------------|-----------2--------------|
-----2-----------2-----2--|-----2-----------2-----2--|
--------4-----------4-----|--------4-----------4-----|
--4-----------------------|--------------------------|
--------------------------|--------------------------|


  E  E  E  E  E  E  E  E     E  E  E  E  E  E  E  E                           
--------------------------|--------------------------|
-----------0--------------|-----------0--------------|
-----0-----------0-----0--|-----0-----------0-----0--|
--------2-----------2-----|--------2-----------2-----|
--2-----------------------|--------------------------|
--------------------------|--------------------------|

  E  E  E  E  E  E  E  E   
--------------------------|
--------------------------|
--6--6--6--6--6--6--4--4--|
--6--6--6--6--6--6--4--4--|
--4--4--4--4--4--4--2--2--|
--------------------------|


  E  E  E  E  E  E  E  E     E  E  E  E  E  E  E  E   
--------------------------|--------------------------|
--------------------------|--------------------------|
--4--4--4--4--4--4--4--4--|--5--5--5--5--5--5--2--2--|
--4--4--4--4--4--4--4--4--|--4--4--4--4--4--4--2--2--|
--2--2--2--2--2--2--2--2--|--2--2--2--2--2--2--0--0--|
--------------------------|--------------------------|


  E  E  E  E  E  E  E  E     E  E  E  E  E  E  E  E   
--------------------------|--------------------------|
--------------------------|--------------------------|
--2--2--2--2--2--2--2--2--|--6--6--6--6--6--6--4--4--|
--2--2--2--2--2--2--2--2--|--6--6--6--6--6--6--4--4--|
--0--0--0--0--0--0--0--0--|--4--4--4--4--4--4--2--2--|
--------------------------|--------------------------|


  E  E  E  E  E  E  E  E     E  E  E  E  E  E  E  E   
--------------------------|--------------------------|
--------------------------|--------------------------|
--4--4--4--4--4--4--4--4--|--5--5--5--5--5--5--2--2--|
--4--4--4--4--4--4--4--4--|--4--4--4--4--4--4--2--2--|
--2--2--2--2--2--2--2--2--|--2--2--2--2--2--2--0--0--|
--------------------------|--------------------------|


  E  E  E  E  E  E  E  E     E  E  E  E  E  E  E  E   
--------------------------|--------------------------|
--------------------------|--------------------------|
--2--2--2--2--2--2--2--2--|--6--6--6--6--6--6--4--4--|
--2--2--2--2--2--2--2--2--|--6--6--6--6--6--6--4--4--|
--0--0--0--0--0--0--0--0--|--4--4--4--4--4--4--2--2--|
--------------------------|--------------------------|


  E  E  E  E  E  E  E  E     E  E  E  E  E  E  E  E   
--------------------------|--------------------------|
--------------------------|--------------------------|
--4--4--4--4--4--4--4--4--|--5--5--5--5--5--5--2--2--|
--4--4--4--4--4--4--4--4--|--4--4--4--4--4--4--2--2--|
--2--2--2--2--2--2--2--2--|--2--2--2--2--2--2--0--0--|
--------------------------|--------------------------|


  E  E  E  E  E  E  E  E     E  E  E  E  E  E  E  E   
--------------------------|--------------------------|
--------------------------|--------------------------|
--2--2--2--2--2--2--2--2--|--6--6--6--6--6--6--4--4--|
--2--2--2--2--2--2--2--2--|--6--6--6--6--6--6--4--4--|
--0--0--0--0--0--0--0--0--|--4--4--4--4--4--4--2--2--|
--------------------------|--------------------------|


  E  E  E  E  E  E  E  E     E  E  E  E  E  E  E  E     W                       
--------------------------|--------------------------|-------------------|
--------------------------|--------------------------|-------------------|
--4--4--4--4--4--4--4--4--|--5--5--5--5--5--5--2--2--|--2----------------|
--4--4--4--4--4--4--4--4--|--4--4--4--4--4--4--2--2--|--2----------------|
--2--2--2--2--2--2--2--2--|--2--2--2--2--2--2--0--0--|--0----------------|
--------------------------|--------------------------|-------------------|

  E  E  E  E  E  E  E  E     E  E  E  E  E  E  E  E   
--------------------------|--------------------------|
-----------3--------------|-----------3--------------|
-----3-----------3-----3--|-----3-----------3-----3--|
--------5-----------5-----|--------5-----------5-----|
--5-----------------------|--------------------------|
--------------------------|--------------------------|

  E  E  E  E  E  E  E  E     E  E  E  E  E  E  E  E   
--------------------------|--------------------------|
-----------1--------------|-----------1--------------|
-----1-----------1-----1--|-----1-----------1-----1--|
--------3-----------3-----|--------3-----------3-----|
--3-----------------------|--------------------------|
--------------------------|--------------------------|

  E  E  E  E  E  E  E  E     E  E  E  E  E  E  E  E   
--------------------------|--------------------------|
-----------2--------------|-----------2--------------|
-----2-----------2-----2--|-----2-----------2-----2--|
--------4-----------4-----|--------4-----------4-----|
--4-----------------------|--------------------------|
--------------------------|--------------------------|

  E  E  E  E  E  E  E  W                   E  E  E  E  E   
----------------------------------------|-----------------|
-----------0-----------0----------------|-----------------|
-----0-----------0-----0----------------|-----------------|
--------2-----------2--2----------------|-----------------|
--2--------------------2----------------|-----------------|
----------------------------------------|-----------------|

  E  E  E  E  E  E  E  E     E  E  E  E  E  E  E  E   
--------------------------|--------------------------|
-----------3--------------|-----------3--------------|
-----3-----------3-----3--|-----3-----------3-----3--|
--------5-----------5-----|--------5-----------5-----|
--5-----------------------|--------------------------|
--------------------------|--------------------------|

  E  E  E  E  E  E  E  E     E  E  E  E  E  E  E  E   
--------------------------|--------------------------|
-----------1--------------|-----------1--------------|
-----1-----------1-----1--|-----1-----------1-----1--|
--------3-----------3-----|--------3-----------3-----|
--3-----------------------|--------------------------|
--------------------------|--------------------------|

  E  E  E  E  E  E  E  E     E  E  E  E  E  E  E  E   
--------------------------|--------------------------|
-----------2--------------|-----------2--------------|
-----2-----------2-----2--|-----2-----------2-----2--|
--------4-----------4-----|--------4-----------4-----|
--4-----------------------|--------------------------|
--------------------------|--------------------------|

   E  E  E  E  E  E  E  E     E  E  E  E    E  E  E                           
--------------------------|--------------------------|
-----------0--------------|-----------0--------------|
-----0-----------0-----0--|-----0-----------0-----0--|
--------2-----------2-----|--------2-----------2-----|
--2-----------------------|--------------------------|
--------------------------|--------------------------|

  E  E  E  E  E  E  E  E   
--------------------------|
--------------------------|
--6--6--6--6--6--6--4--4--|
--6--6--6--6--6--6--4--4--|
--4--4--4--4--4--4--2--2--|
--------------------------|


  E  E  E  E  E  E  E  E     E  E  E  E  E  E  E  E   
--------------------------|--------------------------|
--------------------------|--------------------------|
--4--4--4--4--4--4--4--4--|--5--5--5--5--5--5--2--2--|
--4--4--4--4--4--4--4--4--|--4--4--4--4--4--4--2--2--|
--2--2--2--2--2--2--2--2--|--2--2--2--2--2--2--0--0--|
--------------------------|--------------------------|


  E  E  E  E  E  E  E  E     E  E  E  E  E  E  E  E   
--------------------------|--------------------------|
--------------------------|--------------------------|
--2--2--2--2--2--2--2--2--|--6--6--6--6--6--6--4--4--|
--2--2--2--2--2--2--2--2--|--6--6--6--6--6--6--4--4--|
--0--0--0--0--0--0--0--0--|--4--4--4--4--4--4--2--2--|
--------------------------|--------------------------|


  E  E  E  E  E  E  E  E     E  E  E  E  E  E  E  E   
--------------------------|--------------------------|
--------------------------|--------------------------|
--4--4--4--4--4--4--4--4--|--5--5--5--5--5--5--2--2--|
--4--4--4--4--4--4--4--4--|--4--4--4--4--4--4--2--2--|
--2--2--2--2--2--2--2--2--|--2--2--2--2--2--2--0--0--|
--------------------------|--------------------------|


  E  E  E  E  E  E  E  E     E  E  E  E  E  E  E  E   
--------------------------|--------------------------|
--------------------------|--------------------------|
--2--2--2--2--2--2--2--2--|--6--6--6--6--6--6--4--4--|
--2--2--2--2--2--2--2--2--|--6--6--6--6--6--6--4--4--|
--0--0--0--0--0--0--0--0--|--4--4--4--4--4--4--2--2--|
--------------------------|--------------------------|


  E  E  E  E  E  E  E  E     E  E  E  E  E  E  E  E   
--------------------------|--------------------------|
--------------------------|--------------------------|
--4--4--4--4--4--4--4--4--|--5--5--5--5--5--5--2--2--|
--4--4--4--4--4--4--4--4--|--4--4--4--4--4--4--2--2--|
--2--2--2--2--2--2--2--2--|--2--2--2--2--2--2--0--0--|
--------------------------|--------------------------|


  E  E  E  E  E  E  E  E     E  E  E  E  E  E  E  E   
--------------------------|--------------------------|
--------------------------|--------------------------|
--2--2--2--2--2--2--2--2--|--6--6--6--6--6--6--4--4--|
--2--2--2--2--2--2--2--2--|--6--6--6--6--6--6--4--4--|
--0--0--0--0--0--0--0--0--|--4--4--4--4--4--4--2--2--|
--------------------------|--------------------------|


  E  E  E  E  E  E  E  E     E  E  E  E  E  E  E  E     W                       
--------------------------|--------------------------|-------------------|
--------------------------|--------------------------|-------------------|
--4--4--4--4--4--4--4--4--|--5--5--5--5--5--5--2--2--|--2----------------|
--4--4--4--4--4--4--4--4--|--4--4--4--4--4--4--2--2--|--2----------------|
--2--2--2--2--2--2--2--2--|--2--2--2--2--2--2--0--0--|--0----------------|
--------------------------|--------------------------|-------------------|

  E  E  E  E  E  E  E  E   
--------------------------|
--------------------------|
--6--6--6--6--6--6--4--4--|
--6--6--6--6--6--6--4--4--|
--4--4--4--4--4--4--2--2--|
--------------------------|


  E  E  E  E  E  E  E  E     E  E  E  E  E  E  E  E   
--------------------------|--------------------------|
--------------------------|--------------------------|
--4--4--4--4--4--4--4--4--|--5--5--5--5--5--5--2--2--|
--4--4--4--4--4--4--4--4--|--4--4--4--4--4--4--2--2--|
--2--2--2--2--2--2--2--2--|--2--2--2--2--2--2--0--0--|
--------------------------|--------------------------|


  E  E  E  E  E  E  E  E     E  E  E  E  E  E  E  E   
--------------------------|--------------------------|
--------------------------|--------------------------|
--2--2--2--2--2--2--2--2--|--6--6--6--6--6--6--4--4--|
--2--2--2--2--2--2--2--2--|--6--6--6--6--6--6--4--4--|
--0--0--0--0--0--0--0--0--|--4--4--4--4--4--4--2--2--|
--------------------------|--------------------------|


  E  E  E  E  E  E  E  E     E  E  E  E  E  E  E  E   
--------------------------|--------------------------|
--------------------------|--------------------------|
--4--4--4--4--4--4--4--4--|--5--5--5--5--5--5--2--2--|
--4--4--4--4--4--4--4--4--|--4--4--4--4--4--4--2--2--|
--2--2--2--2--2--2--2--2--|--2--2--2--2--2--2--0--0--|
--------------------------|--------------------------|


  E  E  E  E  E  E  E  E     E  E  E  E  E  E  E  E   
--------------------------|--------------------------|
--------------------------|--------------------------|
--2--2--2--2--2--2--2--2--|--6--6--6--6--6--6--4--4--|
--2--2--2--2--2--2--2--2--|--6--6--6--6--6--6--4--4--|
--0--0--0--0--0--0--0--0--|--4--4--4--4--4--4--2--2--|
--------------------------|--------------------------|


  E  E  E  E  E  E  E  E     E  E  E  E  E  E  E  E   
--------------------------|--------------------------|
--------------------------|--------------------------|
--4--4--4--4--4--4--4--4--|--5--5--5--5--5--5--2--2--|
--4--4--4--4--4--4--4--4--|--4--4--4--4--4--4--2--2--|
--2--2--2--2--2--2--2--2--|--2--2--2--2--2--2--0--0--|
--------------------------|--------------------------|


  E  E  E  E  E  E  E  E     E  E  E  E  E  E  E  E   
--------------------------|--------------------------|
--------------------------|--------------------------|
--2--2--2--2--2--2--2--2--|--6--6--6--6--6--6--4--4--|
--2--2--2--2--2--2--2--2--|--6--6--6--6--6--6--4--4--|
--0--0--0--0--0--0--0--0--|--4--4--4--4--4--4--2--2--|
--------------------------|--------------------------|


  E  E  E  E  E  E  E  E     E  E  E  E  E  E  E  E     W                       
--------------------------|--------------------------|-------------------|
--------------------------|--------------------------|-------------------|
--4--4--4--4--4--4--4--4--|--5--5--5--5--5--5--2--2--|--2----------------|
--4--4--4--4--4--4--4--4--|--4--4--4--4--4--4--2--2--|--2----------------|
--2--2--2--2--2--2--2--2--|--2--2--2--2--2--2--0--0--|--0----------------|
--------------------------|--------------------------|-------------------|

  Q     E  W
-----------------------------|
-----------------------------|
-----------12----------------|
-------11--------------------|
--9--------------------------|
-----------------------------|

  Q    E   W                   Q    E  W                 
----------------------------|---------------------------|
----------------------------|---------------------------|
----------10----------------|----------7----------------|
-------9--------------------|-------6-------------------|
--7-------------------------|--4------------------------|
----------------------------|---------------------------|


  Q    E  W                   Q     E   W                 
---------------------------|-----------------------------|
---------------------------|-----------------------------|
----------5----------------|-----------12----------------|
-------4-------------------|-------11--------------------|
--2------------------------|--9--------------------------|
---------------------------|-----------------------------|


  Q    E   W                   Q    E  W                 
----------------------------|---------------------------|
----------------------------|---------------------------|
----------10----------------|----------7----------------|
-------9--------------------|-------6-------------------|
--7-------------------------|--4------------------------|
----------------------------|---------------------------|


  Q    E  W                   E   E   E  E  E   E   E   E   
---------------------------|-------------------------------|
---------------------------|-------------9-----------------|
----------5----------------|-----12------------12------12--|
-------4-------------------|---------11------------11------|
--2------------------------|--9----------------------------|
---------------------------|-------------------------------|


  E   E   E  E  E   E   E   E     E   E  E  E  E   E  E   E   
-------------------------------|-----------------------------|
-------------9-----------------|------------7----------------|
-----12------------12------12--|-----10-----------10-----10--|
---------11------------11------|---------9------------9------|
-------------------------------|--7--------------------------|
-------------------------------|-----------------------------|


  E   E  E  E  E   E  E   E     E  E  E  E  E  E  E  E   
-----------------------------|--------------------------|
------------7----------------|-----------4--------------|
-----10-----------10-----10--|-----7-----------7-----7--|
---------9------------9------|--------6-----------6-----|
-----------------------------|--4-----------------------|
-----------------------------|--------------------------|


  E  E  E  E  E  E  E  E     E  E  E  E  E  E  E  E   
--------------------------|--------------------------|
-----------4--------------|-----------2--------------|
-----7-----------7-----7--|-----5-----------5-----5--|
--------6-----------6-----|--------4-----------4-----|
--------------------------|--2-----------------------|
--------------------------|--------------------------|


  E  E  E  E  E  E  E  E     E   E   E  E  E   E   E   E   
--------------------------|-------------------------------|
-----------2--------------|-------------9-----------------|
-----5-----------5-----5--|-----12------------12------12--|
--------4-----------4-----|---------11------------11------|
--------------------------|--9----------------------------|
--------------------------|-------------------------------|


  E   E   E  E  E   E   E   E     E   E  E  E  E   E  E   E   
-------------------------------|-----------------------------|
-------------9-----------------|------------7----------------|
-----12------------12------12--|-----10-----------10-----10--|
---------11------------11------|---------9------------9------|
-------------------------------|--7--------------------------|
-------------------------------|-----------------------------|


  E   E  E  E  E   E  E   E     E  E  E  E  E  E  E  E   
-----------------------------|--------------------------|
------------7----------------|-----------4--------------|
-----10-----------10-----10--|-----7-----------7-----7--|
---------9------------9------|--------6-----------6-----|
-----------------------------|--4-----------------------|
-----------------------------|--------------------------|


  E  E  E  E  E  E  E  E     E  E  E  E  E  E  E  E   
--------------------------|--------------------------|
-----------4--------------|-----------2--------------|
-----7-----------7-----7--|-----5-----------5-----5--|
--------6-----------6-----|--------4-----------4-----|
--------------------------|--2-----------------------|
--------------------------|--------------------------|


                             PM PM PM PM PM PM PM PM  
  E  E  E  E  E  E  E  E     E  E  E  E  E  E  E  E   
--------------------------|--------------------------|
-----------2--------------|--------------------------|
-----5-----------5-----5--|--------------------------|
--------4-----------4-----|--------------------------|
--------------------------|--2--2--2--2--2--2--2--2--|
--------------------------|--2--2--2--2--2--2--2--2--|


  PM PM PM PM PM PM          PM PM PM PM PM PM PM PM  
  E  E  E  E  E  E  E  E     E  E  E  E  E  E  E  E   
--------------------------|--------------------------|
--------------------------|--------------------------|
--------------------------|--------------------------|
--------------------------|--------------------------|
--2--2--2--2--2--2--2--0--|--2--2--2--2--2--2--2--2--|
--2--2--2--2--2--2--2--0--|--2--2--2--2--2--2--2--2--|


  PM PM PM PM PM PM          PM PM PM PM PM PM PM PM  
  E  E  E  E  E  E  E  E     E  E  E  E  E  E  E  E   
--------------------------|--------------------------|
--------------------------|--------------------------|
--------------------------|--------------------------|
--------------------------|--------------------------|
--2--2--2--2--2--2--2--0--|--2--2--2--2--2--2--2--2--|
--2--2--2--2--2--2--2--0--|--2--2--2--2--2--2--2--2--|


  PM PM PM PM PM PM          PM PM PM PM PM PM PM PM  
  E  E  E  E  E  E  E  E     E  E  E  E  E  E  E  E   
--------------------------|--------------------------|
--------------------------|--------------------------|
--------------------------|--------------------------|
--------------------------|--------------------------|
--2--2--2--2--2--2--2--0--|--2--2--2--2--2--2--2--2--|
--2--2--2--2--2--2--2--0--|--2--2--2--2--2--2--2--2--|


  PM PM PM PM PM PM          PM PM PM PM PM PM PM PM  
  E  E  E  E  E  E  E  E     E  E  E  E  E  E  E  E   
--------------------------|--------------------------|
--------------------------|--------------------------|
--------------------------|--------------------------|
--------------------------|--------------------------|
--2--2--2--2--2--2--2--0--|--2--2--2--2--2--2--2--2--|
--2--2--2--2--2--2--2--0--|--2--2--2--2--2--2--2--2--|


  PM PM PM PM PM PM          PM PM PM PM PM PM PM PM  
  E  E  E  E  E  E  E  E     E  E  E  E  E  E  E  E   
--------------------------|--------------------------|
--------------------------|--------------------------|
--------------------------|--------------------------|
--------------------------|--------------------------|
--2--2--2--2--2--2--2--0--|--2--2--2--2--2--2--2--2--|
--2--2--2--2--2--2--2--0--|--2--2--2--2--2--2--2--2--|


  PM PM PM PM PM PM          PM PM PM PM PM PM PM PM  
  E  E  E  E  E  E  E  E     E  E  E  E  E  E  E  E   
--------------------------|--------------------------|
--------------------------|--------------------------|
--------------------------|--------------------------|
--------------------------|--------------------------|
--2--2--2--2--2--2--2--0--|--2--2--2--2--2--2--2--2--|
--2--2--2--2--2--2--2--0--|--2--2--2--2--2--2--2--2--|


  PM PM PM PM PM PM          PM PM PM PM PM PM PM PM  
  E  E  E  E  E  E  E  E     E  E  E  E  E  E  E  E   
--------------------------|--------------------------|
--------------------------|--------------------------|
--------------------------|--------------------------|
--------------------------|--------------------------|
--2--2--2--2--2--2--2--0--|--2--2--2--2--2--2--2--2--|
--2--2--2--2--2--2--2--0--|--2--2--2--2--2--2--2--2--|


  PM PM PM PM PM PM          PM PM PM PM PM PM PM PM  
  E  E  E  E  E  E  E  E     E  E  E  E  E  E  E  E   
--------------------------|--------------------------|
--------------------------|--------------------------|
--------------------------|--------------------------|
--------------------------|--------------------------|
--2--2--2--2--2--2--2--0--|--2--2--2--2--2--2--2--2--|
--2--2--2--2--2--2--2--0--|--2--2--2--2--2--2--2--2--|


  PM PM PM PM PM PM          PM PM PM PM PM PM PM PM  
  E  E  E  E  E  E  E  E     E  E  E  E  E  E  E  E   
--------------------------|--------------------------|
--------------------------|--------------------------|
--------------------------|--------------------------|
--------------------------|--------------------------|
--2--2--2--2--2--2--2--0--|--2--2--2--2--2--2--2--2--|
--2--2--2--2--2--2--2--0--|--2--2--2--2--2--2--2--2--|


  PM PM PM PM PM PM          PM PM PM PM PM PM PM PM  
  E  E  E  E  E  E  E  E     E  E  E  E  E  E  E  E   
--------------------------|--------------------------|
--------------------------|--------------------------|
--------------------------|--------------------------|
--------------------------|--------------------------|
--2--2--2--2--2--2--2--0--|--2--2--2--2--2--2--2--2--|
--2--2--2--2--2--2--2--0--|--2--2--2--2--2--2--2--2--|


  PM PM PM PM PM PM          PM PM PM PM PM PM PM PM  
  E  E  E  E  E  E  E  E     E  E  E  E  E  E  E  E   
--------------------------|--------------------------|
--------------------------|--------------------------|
--------------------------|--------------------------|
--------------------------|--------------------------|
--2--2--2--2--2--2--2--0--|--2--2--2--2--2--2--2--2--|
--2--2--2--2--2--2--2--0--|--2--2--2--2--2--2--2--2--|


  PM PM PM PM PM PM          PM PM PM PM PM PM PM PM  
  E  E  E  E  E  E  E  E     E  E  E  E  E  E  E  E   
--------------------------|--------------------------|
--------------------------|--------------------------|
--------------------------|--------------------------|
--------------------------|--------------------------|
--2--2--2--2--2--2--2--0--|--2--2--2--2--2--2--2--2--|
--2--2--2--2--2--2--2--0--|--2--2--2--2--2--2--2--2--|


  PM PM PM PM PM PM          PM PM PM PM PM PM PM PM  
  E  E  E  E  E  E  E  E     E  E  E  E  E  E  E  E   
--------------------------|--------------------------|
--------------------------|--------------------------|
--------------------------|--------------------------|
--------------------------|--------------------------|
--2--2--2--2--2--2--2--0--|--2--2--2--2--2--2--2--2--|
--2--2--2--2--2--2--2--0--|--2--2--2--2--2--2--2--2--|


  PM PM PM PM PM PM          PM PM PM PM PM PM PM PM  
  E  E  E  E  E  E  E  E     E  E  E  E  E  E  E  E   
--------------------------|--------------------------|
--------------------------|--------------------------|
--------------------------|--------------------------|
--------------------------|--------------------------|
--2--2--2--2--2--2--2--0--|--2--2--2--2--2--2--2--2--|
--2--2--2--2--2--2--2--0--|--2--2--2--2--2--2--2--2--|


  PM PM PM PM PM PM          PM PM PM PM PM PM PM PM  
  E  E  E  E  E  E  E  E     E  E  E  E  E  E  E  E   
--------------------------|--------------------------|
--------------------------|--------------------------|
--------------------------|--------------------------|
--------------------------|--------------------------|
--2--2--2--2--2--2--2--0--|--2--2--2--2--2--2--2--2--|
--2--2--2--2--2--2--2--0--|--2--2--2--2--2--2--2--2--|


  PM PM PM PM PM PM          PM PM PM PM PM PM PM PM  
  E  E  E  E  E  E  E  E     E  E  E  E  E  E  E  E   
--------------------------|--------------------------|
--------------------------|--------------------------|
--------------------------|--------------------------|
--------------------------|--------------------------|
--2--2--2--2--2--2--2--0--|--2--2--2--2--2--2--2--2--|
--2--2--2--2--2--2--2--0--|--2--2--2--2--2--2--2--2--|


  PM PM PM PM PM PM          PM PM PM PM PM PM PM PM  
  E  E  E  E  E  E  E  E     E  E  E  E  E  E  E  E   
--------------------------|--------------------------|
--------------------------|--------------------------|
--------------------------|--------------------------|
--------------------------|--------------------------|
--2--2--2--2--2--2--2--0--|--2--2--2--2--2--2--2--2--|
--2--2--2--2--2--2--2--0--|--2--2--2--2--2--2--2--2--|


  PM PM PM PM PM PM          PM PM PM PM PM PM PM PM  
  E  E  E  E  E  E  E  E     E  E  E  E  E  E  E  E   
--------------------------|--------------------------|
--------------------------|--------------------------|
--------------------------|--------------------------|
--------------------------|--------------------------|
--2--2--2--2--2--2--2--0--|--2--2--2--2--2--2--2--2--|
--2--2--2--2--2--2--2--0--|--2--2--2--2--2--2--2--2--|


  PM PM PM PM PM PM          PM PM PM PM PM PM PM PM  
  E  E  E  E  E  E  E  E     E  E  E  E  E  E  E  E   
--------------------------|--------------------------|
--------------------------|--------------------------|
--------------------------|--------------------------|
--------------------------|--------------------------|
--2--2--2--2--2--2--2--0--|--2--2--2--2--2--2--2--2--|
--2--2--2--2--2--2--2--0--|--2--2--2--2--2--2--2--2--|


  PM PM PM PM PM PM          PM PM PM PM PM PM PM PM  
  E  E  E  E  E  E  E  E     E  E  E  E  E  E  E  E   
--------------------------|--------------------------|
--------------------------|--------------------------|
--------------------------|--------------------------|
--------------------------|--------------------------|
--2--2--2--2--2--2--2--0--|--2--2--2--2--2--2--2--2--|
--2--2--2--2--2--2--2--0--|--2--2--2--2--2--2--2--2--|


  PM PM PM PM PM PM          PM PM PM PM PM PM PM PM  
  E  E  E  E  E  E  E  E     E  E  E  E  E  E  E  E   
--------------------------|--------------------------|
--------------------------|--------------------------|
--------------------------|--------------------------|
--------------------------|--------------------------|
--2--2--2--2--2--2--2--0--|--2--2--2--2--2--2--2--2--|
--2--2--2--2--2--2--2--0--|--2--2--2--2--2--2--2--2--|


  PM PM PM PM PM PM          PM PM PM PM PM PM PM PM  
  E  E  E  E  E  E  E  E     E  E  E  E  E  E  E  E   
--------------------------|--------------------------|
--------------------------|--------------------------|
--------------------------|--------------------------|
--------------------------|--------------------------|
--2--2--2--2--2--2--2--0--|--2--2--2--2--2--2--2--2--|
--2--2--2--2--2--2--2--0--|--2--2--2--2--2--2--2--2--|


  PM PM PM PM PM PM          PM PM PM PM PM PM PM PM  
  E  E  E  E  E  E  E  E     E  E  E  E  E  E  E  E   
--------------------------|--------------------------|
--------------------------|--------------------------|
--------------------------|--------------------------|
--------------------------|--------------------------|
--2--2--2--2--2--2--2--0--|--2--2--2--2--2--2--2--2--|
--2--2--2--2--2--2--2--0--|--2--2--2--2--2--2--2--2--|


  PM PM PM PM PM PM         
  E  E  E  E  E  E  E  E    
--------------------------||
--------------------------||
--------------------------||
--------------------------||
--2--2--2--2--2--2--2--0--||
--2--2--2--2--2--2--2--0--||

Guitar 2
E||-------|-------|-------|-------|-------|-------|-------|-------|-------|
C||-------|-------|-------|-------|-------|-------|-------|-------|-------|
G||-------|-------|-------|-------|-------|-------|-------|-------|-------|
C||-------|-------|-------|-------|-------|-------|-------|-------|-------|
G||-------|-------|-------|-------|-------|-------|-------|-------|-------|
C||-------|-------|-------|-------|-------|-------|-------|-------|-------|

-------|-------|-------|-------|-------|-------|-------|
-------|-------|-------|-------|-------|-------|-------|
-------|-------|-------|-------|-------|-------|-------|
-------|-------|-------|-------|-------|-------|-------|
-------|-------|-------|-------|-------|-------|-------|
-------|-------|-------|-------|-------|-------|-------|

  E  E  E  E  E  E  E  E     E  E  E  E  E  E  E  E   
--4--4--4--4--4--4--2--2--|--2--2--2--2--2--2--2--2--|
--5--5--5--5--5--5--3--3--|--3--3--3--3--3--3--3--3--|
--6--6--6--6--6--6--4--4--|--4--4--4--4--4--4--4--4--|
--6--6--6--6--6--6--4--4--|--4--4--4--4--4--4--4--4--|
--4--4--4--4--4--4--2--2--|--2--2--2--2--2--2--2--2--|
--0--0--0--0--0--0--0--0--|--0--0--0--0--0--0--0--0--|

  E  E  E  E  E  E  E  E     E  E  E  E  E  E  E  E   
--2--2--2--2--2--2--0--0--|--0--0--0--0--0--0--0--0--|
--5--5--5--5--5--5--2--2--|--2--2--2--2--2--2--2--2--|
--4--4--4--4--4--4--2--2--|--2--2--2--2--2--2--2--2--|
--4--4--4--4--4--4--2--2--|--2--2--2--2--2--2--2--2--|
--2--2--2--2--2--2--0--0--|--0--0--0--0--0--0--0--0--|
--0--0--0--0--0--0--------|--------------------------|

  E  E  E  E  E  E  E  E     E  E  E  E  E  E  E  E   
--4--4--4--4--4--4--2--2--|--2--2--2--2--2--2--2--2--|
--5--5--5--5--5--5--3--3--|--3--3--3--3--3--3--3--3--|
--6--6--6--6--6--6--4--4--|--4--4--4--4--4--4--4--4--|
--6--6--6--6--6--6--4--4--|--4--4--4--4--4--4--4--4--|
--4--4--4--4--4--4--2--2--|--2--2--2--2--2--2--2--2--|
--0--0--0--0--0--0--0--0--|--0--0--0--0--0--0--0--0--|

  E  E  E  E  E  E  E  E     E  E  E  E  E  E  E  E                           
--2--2--2--2--2--2--0--0--|--0--0--0--0--0--0--0--0--|
--5--5--5--5--5--5--2--2--|--2--2--2--2--2--2--2--2--|
--4--4--4--4--4--4--2--2--|--2--2--2--2--2--2--2--2--|
--4--4--4--4--4--4--2--2--|--2--2--2--2--2--2--2--2--|
--2--2--2--2--2--2--0--0--|--0--0--0--0--0--0--0--0--|
--0--0--0--0--0--0--------|--------------------------|

  E  E  E  E  E  E  E  E   
D||--4--4--4--4--4--4--2--2--|
A||--5--5--5--5--5--5--3--3--|
F||--6--6--6--6--6--6--4--4--|
C||--6--6--6--6--6--6--4--4--|
G||--4--4--4--4--4--4--2--2--|
C||--0--0--0--0--0--0--0--0--|

  E  E  E  E  E  E  E  E     E  E  E  E  E  E  E  E   
--2--2--2--2--2--2--2--2--|--2--2--2--2--2--2--0--0--|
--3--3--3--3--3--3--3--3--|--5--5--5--5--5--5--2--2--|
--4--4--4--4--4--4--4--4--|--4--4--4--4--4--4--2--2--|
--4--4--4--4--4--4--4--4--|--4--4--4--4--4--4--2--2--|
--2--2--2--2--2--2--2--2--|--2--2--2--2--2--2--0--0--|
--0--0--0--0--0--0--0--0--|--0--0--0--0--0--0--------|

  E  E  E  E  E  E  E  E     E  E  E  E  E  E  E  E   
--0--0--0--0--0--0--0--0--|--4--4--4--4--4--4--2--2--|
--2--2--2--2--2--2--2--2--|--5--5--5--5--5--5--3--3--|
--2--2--2--2--2--2--2--2--|--6--6--6--6--6--6--4--4--|
--2--2--2--2--2--2--2--2--|--6--6--6--6--6--6--4--4--|
--0--0--0--0--0--0--0--0--|--4--4--4--4--4--4--2--2--|
--------------------------|--0--0--0--0--0--0--0--0--|

  E  E  E  E  E  E  E  E     E  E  E  E  E  E  E  E   
--2--2--2--2--2--2--2--2--|--2--2--2--2--2--2--0--0--|
--3--3--3--3--3--3--3--3--|--5--5--5--5--5--5--2--2--|
--4--4--4--4--4--4--4--4--|--4--4--4--4--4--4--2--2--|
--4--4--4--4--4--4--4--4--|--4--4--4--4--4--4--2--2--|
--2--2--2--2--2--2--2--2--|--2--2--2--2--2--2--0--0--|
--0--0--0--0--0--0--0--0--|--0--0--0--0--0--0--------|

  E  E  E  E  E  E  E  E     E  E  E  E  E  E  E  E   
--0--0--0--0--0--0--0--0--|--4--4--4--4--4--4--2--2--|
--2--2--2--2--2--2--2--2--|--5--5--5--5--5--5--3--3--|
--2--2--2--2--2--2--2--2--|--6--6--6--6--6--6--4--4--|
--2--2--2--2--2--2--2--2--|--6--6--6--6--6--6--4--4--|
--0--0--0--0--0--0--0--0--|--4--4--4--4--4--4--2--2--|
--------------------------|--0--0--0--0--0--0--0--0--|

  E  E  E  E  E  E  E  E     E  E  E  E  E  E  E  E   
--2--2--2--2--2--2--2--2--|--2--2--2--2--2--2--0--0--|
--3--3--3--3--3--3--3--3--|--5--5--5--5--5--5--2--2--|
--4--4--4--4--4--4--4--4--|--4--4--4--4--4--4--2--2--|
--4--4--4--4--4--4--4--4--|--4--4--4--4--4--4--2--2--|
--2--2--2--2--2--2--2--2--|--2--2--2--2--2--2--0--0--|
--0--0--0--0--0--0--0--0--|--0--0--0--0--0--0--------|

  E  E  E  E  E  E  E  E     E  E  E  E  E  E  E  E   
--0--0--0--0--0--0--0--0--|--4--4--4--4--4--4--2--2--|
--2--2--2--2--2--2--2--2--|--5--5--5--5--5--5--3--3--|
--2--2--2--2--2--2--2--2--|--6--6--6--6--6--6--4--4--|
--2--2--2--2--2--2--2--2--|--6--6--6--6--6--6--4--4--|
--0--0--0--0--0--0--0--0--|--4--4--4--4--4--4--2--2--|
--------------------------|--0--0--0--0--0--0--0--0--|

  E  E  E  E  E  E  E  E     E  E  E  E  E  E  E  E     W                       
--2--2--2--2--2--2--2--2--|--2--2--2--2--2--2--0--0--|--0----------------|
--3--3--3--3--3--3--3--3--|--5--5--5--5--5--5--2--2--|--2----------------|
--4--4--4--4--4--4--4--4--|--4--4--4--4--4--4--2--2--|--2----------------|
--4--4--4--4--4--4--4--4--|--4--4--4--4--4--4--2--2--|--2----------------|
--2--2--2--2--2--2--2--2--|--2--2--2--2--2--2--0--0--|--0----------------|
--0--0--0--0--0--0--0--0--|--0--0--0--0--0--0--------|-------------------|

E||-------|-------|-------|-------|-------|-------|-------|-------|-------|
C||-------|-------|-------|-------|-------|-------|-------|-------|-------|
G||-------|-------|-------|-------|-------|-------|-------|-------|-------|
C||-------|-------|-------|-------|-------|-------|-------|-------|-------|
G||-------|-------|-------|-------|-------|-------|-------|-------|-------|
C||-------|-------|-------|-------|-------|-------|-------|-------|-------|

-------|-------|-------|-------|-------|-------|-------|
-------|-------|-------|-------|-------|-------|-------|
-------|-------|-------|-------|-------|-------|-------|
-------|-------|-------|-------|-------|-------|-------|
-------|-------|-------|-------|-------|-------|-------|
-------|-------|-------|-------|-------|-------|-------|

  E  E  E  E  E  E  E  E     E  E  E  E  E  E  E  E   
--4--4--4--4--4--4--2--2--|--2--2--2--2--2--2--2--2--|
--5--5--5--5--5--5--3--3--|--3--3--3--3--3--3--3--3--|
--6--6--6--6--6--6--4--4--|--4--4--4--4--4--4--4--4--|
--6--6--6--6--6--6--4--4--|--4--4--4--4--4--4--4--4--|
--4--4--4--4--4--4--2--2--|--2--2--2--2--2--2--2--2--|
--0--0--0--0--0--0--0--0--|--0--0--0--0--0--0--0--0--|

  E  E  E  E  E  E  E  E     E  E  E  E  E  E  E  E   
--2--2--2--2--2--2--0--0--|--0--0--0--0--0--0--0--0--|
--5--5--5--5--5--5--2--2--|--2--2--2--2--2--2--2--2--|
--4--4--4--4--4--4--2--2--|--2--2--2--2--2--2--2--2--|
--4--4--4--4--4--4--2--2--|--2--2--2--2--2--2--2--2--|
--2--2--2--2--2--2--0--0--|--0--0--0--0--0--0--0--0--|
--0--0--0--0--0--0--------|--------------------------|

  E  E  E  E  E  E  E  E     E  E  E  E  E  E  E  E   
--4--4--4--4--4--4--2--2--|--2--2--2--2--2--2--2--2--|
--5--5--5--5--5--5--3--3--|--3--3--3--3--3--3--3--3--|
--6--6--6--6--6--6--4--4--|--4--4--4--4--4--4--4--4--|
--6--6--6--6--6--6--4--4--|--4--4--4--4--4--4--4--4--|
--4--4--4--4--4--4--2--2--|--2--2--2--2--2--2--2--2--|
--0--0--0--0--0--0--0--0--|--0--0--0--0--0--0--0--0--|

  E  E  E  E  E  E  E  E     E  E  E  E  E  E  E  E                           
--2--2--2--2--2--2--0--0--|--0--0--0--0--0--0--0--0--|
--5--5--5--5--5--5--2--2--|--2--2--2--2--2--2--2--2--|
--4--4--4--4--4--4--2--2--|--2--2--2--2--2--2--2--2--|
--4--4--4--4--4--4--2--2--|--2--2--2--2--2--2--2--2--|
--2--2--2--2--2--2--0--0--|--0--0--0--0--0--0--0--0--|
--0--0--0--0--0--0--------|--------------------------|

  E  E  E  E  E  E  E  E   
D||--4--4--4--4--4--4--2--2--|
A||--5--5--5--5--5--5--3--3--|
F||--6--6--6--6--6--6--4--4--|
C||--6--6--6--6--6--6--4--4--|
G||--4--4--4--4--4--4--2--2--|
C||--0--0--0--0--0--0--0--0--|

  E  E  E  E  E  E  E  E     E  E  E  E  E  E  E  E   
--2--2--2--2--2--2--2--2--|--2--2--2--2--2--2--0--0--|
--3--3--3--3--3--3--3--3--|--5--5--5--5--5--5--2--2--|
--4--4--4--4--4--4--4--4--|--4--4--4--4--4--4--2--2--|
--4--4--4--4--4--4--4--4--|--4--4--4--4--4--4--2--2--|
--2--2--2--2--2--2--2--2--|--2--2--2--2--2--2--0--0--|
--0--0--0--0--0--0--0--0--|--0--0--0--0--0--0--------|

  E  E  E  E  E  E  E  E     E  E  E  E  E  E  E  E   
--0--0--0--0--0--0--0--0--|--4--4--4--4--4--4--2--2--|
--2--2--2--2--2--2--2--2--|--5--5--5--5--5--5--3--3--|
--2--2--2--2--2--2--2--2--|--6--6--6--6--6--6--4--4--|
--2--2--2--2--2--2--2--2--|--6--6--6--6--6--6--4--4--|
--0--0--0--0--0--0--0--0--|--4--4--4--4--4--4--2--2--|
--------------------------|--0--0--0--0--0--0--0--0--|

  E  E  E  E  E  E  E  E     E  E  E  E  E  E  E  E   
--2--2--2--2--2--2--2--2--|--2--2--2--2--2--2--0--0--|
--3--3--3--3--3--3--3--3--|--5--5--5--5--5--5--2--2--|
--4--4--4--4--4--4--4--4--|--4--4--4--4--4--4--2--2--|
--4--4--4--4--4--4--4--4--|--4--4--4--4--4--4--2--2--|
--2--2--2--2--2--2--2--2--|--2--2--2--2--2--2--0--0--|
--0--0--0--0--0--0--0--0--|--0--0--0--0--0--0--------|

  E  E  E  E  E  E  E  E     E  E  E  E  E  E  E  E   
--0--0--0--0--0--0--0--0--|--4--4--4--4--4--4--2--2--|
--2--2--2--2--2--2--2--2--|--5--5--5--5--5--5--3--3--|
--2--2--2--2--2--2--2--2--|--6--6--6--6--6--6--4--4--|
--2--2--2--2--2--2--2--2--|--6--6--6--6--6--6--4--4--|
--0--0--0--0--0--0--0--0--|--4--4--4--4--4--4--2--2--|
--------------------------|--0--0--0--0--0--0--0--0--|

  E  E  E  E  E  E  E  E     E  E  E  E  E  E  E  E   
--2--2--2--2--2--2--2--2--|--2--2--2--2--2--2--0--0--|
--3--3--3--3--3--3--3--3--|--5--5--5--5--5--5--2--2--|
--4--4--4--4--4--4--4--4--|--4--4--4--4--4--4--2--2--|
--4--4--4--4--4--4--4--4--|--4--4--4--4--4--4--2--2--|
--2--2--2--2--2--2--2--2--|--2--2--2--2--2--2--0--0--|
--0--0--0--0--0--0--0--0--|--0--0--0--0--0--0--------|

  E  E  E  E  E  E  E  E     E  E  E  E  E  E  E  E   
--0--0--0--0--0--0--0--0--|--4--4--4--4--4--4--2--2--|
--2--2--2--2--2--2--2--2--|--5--5--5--5--5--5--3--3--|
--2--2--2--2--2--2--2--2--|--6--6--6--6--6--6--4--4--|
--2--2--2--2--2--2--2--2--|--6--6--6--6--6--6--4--4--|
--0--0--0--0--0--0--0--0--|--4--4--4--4--4--4--2--2--|
--------------------------|--0--0--0--0--0--0--0--0--|

  E  E  E  E  E  E  E  E     E  E  E  E  E  E  E  E     W                       
--2--2--2--2--2--2--2--2--|--2--2--2--2--2--2--0--0--|--0----------------|
--3--3--3--3--3--3--3--3--|--5--5--5--5--5--5--2--2--|--2----------------|
--4--4--4--4--4--4--4--4--|--4--4--4--4--4--4--2--2--|--2----------------|
--4--4--4--4--4--4--4--4--|--4--4--4--4--4--4--2--2--|--2----------------|
--2--2--2--2--2--2--2--2--|--2--2--2--2--2--2--0--0--|--0----------------|
--0--0--0--0--0--0--0--0--|--0--0--0--0--0--0--------|-------------------|

  PM PM PM PM PM PM PM PM  
  E  E  E  E  E  E  E  E   
--------------------------|
--------------------------|
--------------------------|
--------------------------|
--2--2--2--2--2--2--2--2--|
--2--2--2--2--2--2--2--2--|

  PM PM PM PM PM PM          PM PM PM PM PM PM PM PM  
  E  E  E  E  E  E  E  E     E  E  E  E  E  E  E  E   
--------------------------|--------------------------|
--------------------------|--------------------------|
--------------------------|--------------------------|
--------------------------|--------------------------|
--2--2--2--2--2--2--2--0--|--2--2--2--2--2--2--2--2--|
--2--2--2--2--2--2--2--0--|--2--2--2--2--2--2--2--2--|

  PM PM PM PM PM PM          PM PM PM PM PM PM PM PM  
  E  E  E  E  E  E  E  E     E  E  E  E  E  E  E  E   
--------------------------|--------------------------|
--------------------------|--------------------------|
--------------------------|--------------------------|
--------------------------|--------------------------|
--2--2--2--2--2--2--2--0--|--2--2--2--2--2--2--2--2--|
--2--2--2--2--2--2--2--0--|--2--2--2--2--2--2--2--2--|

  PM PM PM PM PM PM          PM PM PM PM PM PM PM PM  
  E  E  E  E  E  E  E  E     E  E  E  E  E  E  E  E   
--------------------------|--------------------------|
--------------------------|--------------------------|
--------------------------|--------------------------|
--------------------------|--------------------------|
--2--2--2--2--2--2--2--0--|--2--2--2--2--2--2--2--2--|
--2--2--2--2--2--2--2--0--|--2--2--2--2--2--2--2--2--|

  PM PM PM PM PM PM          PM PM PM PM PM PM PM PM  
  E  E  E  E  E  E  E  E     E  E  E  E  E  E  E  E   
--------------------------|--------------------------|
--------------------------|--------------------------|
--------------------------|--------------------------|
--------------------------|--------------------------|
--2--2--2--2--2--2--2--0--|--2--2--2--2--2--2--2--2--|
--2--2--2--2--2--2--2--0--|--2--2--2--2--2--2--2--2--|

  PM PM PM PM PM PM          PM PM PM PM PM PM PM PM  
  E  E  E  E  E  E  E  E     E  E  E  E  E  E  E  E   
--------------------------|--------------------------|
--------------------------|--------------------------|
--------------------------|--------------------------|
--------------------------|--------------------------|
--2--2--2--2--2--2--2--0--|--2--2--2--2--2--2--2--2--|
--2--2--2--2--2--2--2--0--|--2--2--2--2--2--2--2--2--|

  PM PM PM PM PM PM          PM PM PM PM PM PM PM PM  
  E  E  E  E  E  E  E  E     E  E  E  E  E  E  E  E   
--------------------------|--------------------------|
--------------------------|--------------------------|
--------------------------|--------------------------|
--------------------------|--------------------------|
--2--2--2--2--2--2--2--0--|--2--2--2--2--2--2--2--2--|
--2--2--2--2--2--2--2--0--|--2--2--2--2--2--2--2--2--|

  PM PM PM PM PM PM          PM PM PM PM PM PM PM PM  
  E  E  E  E  E  E  E  E     E  E  E  E  E  E  E  E   
--------------------------|--------------------------|
--------------------------|--------------------------|
--------------------------|--------------------------|
--------------------------|--------------------------|
--2--2--2--2--2--2--2--0--|--2--2--2--2--2--2--2--2--|
--2--2--2--2--2--2--2--0--|--2--2--2--2--2--2--2--2--|

  PM PM PM PM PM PM                                           
  E  E  E  E  E  E  E  E      E   E   E   E   E   E   E   E   
--------------------------|----------------------------------|
--------------------------|--13--13--13--13--13--13--13--13--|
--------------------------|----------------------------------|
--------------------------|----------------------------------|
--2--2--2--2--2--2--2--0--|----------------------------------|
--2--2--2--2--2--2--2--0--|----------------------------------|

   E   E   E   E   E   E   E   E      E   E   E   E   E   E   E   E   
----------------------------------|----------------------------------|
--12--12--12--12--12--12--12--12--|--11--11--11--11--11--11--11--11--|
----------------------------------|----------------------------------|
----------------------------------|----------------------------------|
----------------------------------|----------------------------------|
----------------------------------|----------------------------------|

   E   E   E   E   E   E   E   E      E   E   E   E   E   E   E   E   
----------------------------------|----------------------------------|
--10--10--10--10--10--10--10--10--|--13--13--13--13--13--13--13--13--|
----------------------------------|----------------------------------|
----------------------------------|----------------------------------|
----------------------------------|----------------------------------|
----------------------------------|----------------------------------|

   E   E   E   E   E   E   E   E      E   E   E   E   E   E   E   E   
----------------------------------|----------------------------------|
--12--12--12--12--12--12--12--12--|--11--11--11--11--11--11--11--11--|
----------------------------------|----------------------------------|
----------------------------------|----------------------------------|
----------------------------------|----------------------------------|
----------------------------------|----------------------------------|

   E   E   E   E   H            E   E   E   E   E   E   E   E   
----------------------------|----------------------------------|
--10--10--10--10--10--------|--13--13--13--13--13--13--13--13--|
------------------10--------|----------------------------------|
----------------------------|----------------------------------|
----------------------------|----------------------------------|
----------------------------|----------------------------------|

   E   E   E   E   E   E   E   E      E   E   E   E   E   E   E   E   
----------------------------------|----------------------------------|
--12--12--12--12--12--12--12--12--|--11--11--11--11--11--11--11--11--|
----------------------------------|----------------------------------|
----------------------------------|----------------------------------|
----------------------------------|----------------------------------|
----------------------------------|----------------------------------|

   E   E   E   E   E   E   E   E      E   E   E   E   E   E   E   E   
----------------------------------|----------------------------------|
--10--10--10--10--10--10--10--10--|--13--13--13--13--13--13--13--13--|
----------------------------------|----------------------------------|
----------------------------------|----------------------------------|
----------------------------------|----------------------------------|
----------------------------------|----------------------------------|

   E   E   E   E   E   E   E   E      E   E   E   E   E   E   E   E   
----------------------------------|----------------------------------|
--12--12--12--12--12--12--12--12--|--11--11--11--11--11--11--11--11--|
----------------------------------|----------------------------------|
----------------------------------|----------------------------------|
----------------------------------|----------------------------------|
----------------------------------|----------------------------------|

   E   E   E   E   H            E   E   E   E   E   E   E   E   
----------------------------|----------------------------------|
--10--10--10--10--10--------|--13--13--13--13--13--13--13--13--|
------------------10--------|----------------------------------|
----------------------------|----------------------------------|
----------------------------|----------------------------------|
----------------------------|----------------------------------|

   E   E   E   E   E   E   E   E      E   E   E   E   E   E   E   E   
----------------------------------|----------------------------------|
--12--12--12--12--12--12--12--12--|--11--11--11--11--11--11--11--11--|
----------------------------------|----------------------------------|
----------------------------------|----------------------------------|
----------------------------------|----------------------------------|
----------------------------------|----------------------------------|

   E   E   E   E   E   E   E   E      E   E   E   E   E   E   E   E   
----------------------------------|----------------------------------|
--10--10--10--10--10--10--10--10--|--13--13--13--13--13--13--13--13--|
----------------------------------|----------------------------------|
----------------------------------|----------------------------------|
----------------------------------|----------------------------------|
----------------------------------|----------------------------------|

   E   E   E   E   E   E   E   E      E   E   E   E   E   E   E   E   
----------------------------------|----------------------------------|
--12--12--12--12--12--12--12--12--|--11--11--11--11--11--11--11--11--|
----------------------------------|----------------------------------|
----------------------------------|----------------------------------|
----------------------------------|----------------------------------|
----------------------------------|----------------------------------|

   E   E   E   E   H            E   E   E   E   E   E   E   E   
----------------------------|----------------------------------|
--10--10--10--10--10--------|--13--13--13--13--13--13--13--13--|
------------------10--------|----------------------------------|
----------------------------|----------------------------------|
----------------------------|----------------------------------|
----------------------------|----------------------------------|

   E   E   E   E   E   E   E   E      E   E   E   E   E   E   E   E   
----------------------------------|----------------------------------|
--12--12--12--12--12--12--12--12--|--11--11--11--11--11--11--11--11--|
----------------------------------|----------------------------------|
----------------------------------|----------------------------------|
----------------------------------|----------------------------------|
----------------------------------|----------------------------------|

   E   E   E   E   E   E   E   E      E   E   E   E   E   E   E   E   
----------------------------------|----------------------------------|
--10--10--10--10--10--10--10--10--|--13--13--13--13--13--13--13--13--|
----------------------------------|----------------------------------|
----------------------------------|----------------------------------|
----------------------------------|----------------------------------|
----------------------------------|----------------------------------|

   E   E   E   E   E   E   E   E      E   E   E   E   E   E   E   E   
----------------------------------|----------------------------------|
--12--12--12--12--12--12--12--12--|--11--11--11--11--11--11--11--11--|
----------------------------------|----------------------------------|
----------------------------------|----------------------------------|
----------------------------------|----------------------------------|
----------------------------------|----------------------------------|

   E   E   E   E   H          
----------------------------||
--10--10--10--10--10--------||
------------------10--------||
----------------------------||
----------------------------||
----------------------------||

==========The Maelstrom Of Life==========

Lead Guitar

     W                   W                   W                  
D||-------------------|-------------------|--------------------|
A||-------------------|-------------------|--------------------|
F||-------------------|-------------------|--------------------|
C||-------------------|-------------------|--------------------|
G||--2----------------|--5----------------|--7s----------------|
C||--2----------------|--5----------------|--7s----------------|
B||--0----------------|--3----------------|--5s----------------|

  E   E   E  E  E  E  E     W                   W                 
-------------------------|-------------------|-------------------|
-------------------------|-------------------|-------------------|
----------------------7--|-------------------|-------------------|
-------------------7-----|-------------------|-------------------|
-----(7)--------5--------|--2----------------|--5----------------|
-----(7)-----------------|--2----------------|--5----------------|
-----(5)-----------------|--0----------------|--3----------------|

  W                    E   E   E  E  E  E  E     W                  
--------------------|-------------------------|--------------------|
--------------------|-------------------------|--------------------|
--------------------|----------------7--7--7--|--------------------|
--------------------|----------------7--7--7--|--------------------|
--7s----------------|-----(7)--------5--5--5--|--0s----------------|
--7s----------------|-----(7)-----------------|--0s----------------|
--5s----------------|-----(5)-----------------|--0s----------------|

   W                    S E  S Q    S E  S Q       S E  S Q    Q    Q     
---------------------|--------------------------|------------------------|
---------------------|--------------------------|------------------------|
---------------------|--------------------------|------------------------|
---------------------|--------------------------|------------------------|
--(0)----------------|--0-0--0-1----0-0--0-1----|--0-0--0-1----3----2----|
--(0)----------------|--0-0--0-1----0-0--0-1----|--0-0--0-1----3----2----|
--(0)----------------|--0-0--0-1----0-0--0-1----|--0-0--0-1----3----2----|

  S E  S Q    S E  S Q       S E  S Q    Q    Q       S E  S Q    S E  S Q     
--------------------------|------------------------|--------------------------|
--------------------------|------------------------|--------------------------|
--------------------------|------------------------|---------8-----------8----|
--------------------------|------------------------|---------7-----------7----|
--0-0--0-1----0-0--0-1----|--0-0--0-1----3----2----|--5-5--5-5----5-5--5-5----|
--0-0--0-1----0-0--0-1----|--0-0--0-1----3----2----|--5-5--5-5----5-5--5-5----|
--0-0--0-1----0-0--0-1----|--0-0--0-1----3----2----|--5-5--5-5----5-5--5-5----|

  S E  S Q     Q    Q       S E  S Q    S E  S Q       S E  S Q    Q    Q     
-------------------------|--------------------------|------------------------|
-------------------------|--------------------------|------------------------|
---------8----10---------|---------8-----------8----|---------8----7---------|
---------7-----9---------|---------7-----------7----|---------7----6---------|
--5-5--5-5-----7----7----|--5-5--5-5----5-5--5-5----|--5-5--5-5----4----4----|
--5-5--5-5-----7----7----|--5-5--5-5----5-5--5-5----|--5-5--5-5----4----4----|
--5-5--5-5-----7----7----|--5-5--5-5----5-5--5-5----|--5-5--5-5----4----4----|

  E  E  E  E  E  E  E  E     E  E  E  E  E  E  E  E   
--------------------------|--------------------------|
--------------------------|--------------------------|
--------------------------|--------------------------|
--------------------------|--------------------------|
--5--2--2--4--4-----3--2--|--5--2--2--4--4-----3--2--|
--------------------------|--------------------------|
--------------------------|--------------------------|

  E  E  E  E  E  E  E  E     E  E  E  E  E  E  E  E   
--------------------------|--------------------------|
--------------------------|--------------------------|
--------------------------|--------------------------|
--------------------------|--------------------------|
--5--2--2--4--4-----3--2--|--5--2--2--4--4-----3--2--|
--------------------------|--------------------------|
--------------------------|--------------------------|

  E  E  E  E  E  E  E  E     E  E  E  E  E  E  E  E   
--------------------------|--------------------------|
--------------------------|--------------------------|
--------------------------|--------------------------|
--------------------------|--------------------------|
--5--2--2--4--4-----3--2--|--5--2--2--4--4-----3--2--|
--------------------------|--------------------------|
--------------------------|--------------------------|

  E  E  E  E  E  E  E  E     E  E  E  E  E  E  E  E   
--------------------------|--------------------------|
--------------------------|--------------------------|
--------------------------|--------------------------|
--------------------------|--------------------------|
--5--2--2--4--4-----3--2--|--5--2--2--4--4-----3--2--|
--------------------------|--------------------------|
--------------------------|--------------------------|

  E  E  E  E  E  E  E  E     E  E  E  E  E  E  E  E   
--------------------------|--------------------------|
--------------------------|--------------------------|
--------------------------|--------------------------|
--------------------------|--------------------------|
--5--2--2--4--4-----3--2--|--5--2--2--4--4-----3--2--|
--------------------------|--------------------------|
--------------------------|--------------------------|

  E  E  E  E  E  E  E  E     E  E  E  E  E  E  E  E   
--------------------------|--------------------------|
--------------------------|--------------------------|
--------------------------|--------------------------|
--------------------------|--------------------------|
--5--2--2--4--4-----3--2--|--5--2--2--4--4-----3--2--|
--------------------------|--------------------------|
--------------------------|--------------------------|

  E  E  E  E  E  E  E  E     E  E  E  E  E  E  E  E   
--------------------------|--------------------------|
--------------------------|--------------------------|
--------------------------|--------------------------|
--------------------------|--------------------------|
--5--2--2--4--4-----3--2--|--5--2--2--4--4-----3--2--|
--------------------------|--------------------------|
--------------------------|--------------------------|

  E  E  E  E  E  E  E  E     E  E  E  E  E  E  E  E   
--------------------------|--------------------------|
--------------------------|--------------------------|
--------------------------|--------------------------|
--------------------------|--------------------------|
--5--2--2--4--4-----3--2--|--5--2--2--4--4-----3--2--|
--------------------------|--------------------------|
--------------------------|--------------------------|

  E  E  E  E  E  E  E  E     E  E  E  E  E  E  E  E   
--------------------------|--------------------------|
--------------------------|--------------------------|
--------------------------|--------------------------|
--------------------------|--------------------------|
--7--7--7--7--0--0--2--2--|--7--7--7--7--0--0--2--2--|
--7--7--7--7--0--0--2--2--|--7--7--7--7--0--0--2--2--|
--5--5--5--5--0--0--0--0--|--5--5--5--5--0--0--0--0--|

  E  E  E  E  E  E  E  E     E  E  E  E  E  E  E  E   
--------------------------|--------------------------|
--------------------------|--------------------------|
--------------------------|--------------------------|
--------------------------|--------------------------|
--7--7--7--7--0--0--2--2--|--7--7--7--7--0--0--2--2--|
--7--7--7--7--0--0--2--2--|--7--7--7--7--0--0--2--2--|
--5--5--5--5--0--0--0--0--|--5--5--5--5--0--0--0--0--|

  E  E  E  E  E  E  E  E     E  E  E  E  E  E  E  E   
--------------------------|--------------------------|
--------------------------|--------------------------|
--------------------------|--------------------------|
--------------------------|--------------------------|
--7--7--7--7--0--0--2--2--|--7--7--7--7--0--0--2--2--|
--7--7--7--7--0--0--2--2--|--7--7--7--7--0--0--2--2--|
--5--5--5--5--0--0--0--0--|--5--5--5--5--0--0--0--0--|

  E  E  E  E  E  E  E  E     E  E  E  E  E  E  E  E     W                  
--------------------------|--------------------------|--------------------|
--------------------------|--------------------------|--------------------|
--------------------------|--------------------------|--5s----------------|
--------------------------|--------------------------|--5s----------------|
--7--7--7--7--0--0--2--2--|--7--7--7--7--0--0--2--2--|--3s----------------|
--7--7--7--7--0--0--2--2--|--7--7--7--7--0--0--2--2--|--------------------|
--5--5--5--5--0--0--0--0--|--5--5--5--5--0--0--0--0--|--------------------|

   W                    W                     W                  
---------------------|--------------------|---------------------|
---------------------|--------------------|---------------------|
--(5)----------------|--3s----------------|--(3)----------------|
--(5)----------------|--3s----------------|--(3)----------------|
--(3)----------------|--1s----------------|--(1)----------------|
---------------------|--------------------|---------------------|
---------------------|--------------------|---------------------|

  W                     W                    W                  
--------------------|---------------------|--------------------|
--------------------|---------------------|--------------------|
--7s----------------|--(7)----------------|--4s----------------|
--8s----------------|--(8)----------------|--5s----------------|
--5s----------------|--(5)----------------|--2s----------------|
--------------------|---------------------|--------------------|
--------------------|---------------------|--------------------|

   W                    S E  S Q    S E  S Q       S E  S Q    Q    Q     
---------------------|--------------------------|------------------------|
---------------------|--------------------------|------------------------|
--(4)----------------|--------------------------|------------------------|
--(5)----------------|--------------------------|------------------------|
--(2)----------------|--0-0--0-1----0-0--0-1----|--0-0--0-1----3----2----|
---------------------|--0-0--0-1----0-0--0-1----|--0-0--0-1----3----2----|
---------------------|--0-0--0-1----0-0--0-1----|--0-0--0-1----3----2----|

  S E  S Q    S E  S Q       S E  S Q    Q    Q       S E  S Q    S E  S Q     
--------------------------|------------------------|--------------------------|
--------------------------|------------------------|--------------------------|
--------------------------|------------------------|---------8-----------8----|
--------------------------|------------------------|---------7-----------7----|
--0-0--0-1----0-0--0-1----|--0-0--0-1----3----2----|--5-5--5-5----5-5--5-5----|
--0-0--0-1----0-0--0-1----|--0-0--0-1----3----2----|--5-5--5-5----5-5--5-5----|
--0-0--0-1----0-0--0-1----|--0-0--0-1----3----2----|--5-5--5-5----5-5--5-5----|

  S E  S Q     Q     Q       S E  S Q    S E  S Q       S E  S Q    Q    Q     
--------------------------|--------------------------|------------------------|
--------------------------|--------------------------|------------------------|
---------8----10----12----|---------8-----------8----|---------8----7---------|
---------7-----9----11----|---------7-----------7----|---------7----6---------|
--5-5--5-5-----7-----9----|--5-5--5-5----5-5--5-5----|--5-5--5-5----4----4----|
--5-5--5-5-----7-----9----|--5-5--5-5----5-5--5-5----|--5-5--5-5----4----4----|
--5-5--5-5-----7-----9----|--5-5--5-5----5-5--5-5----|--5-5--5-5----4----4----|

  E  E  E  E  E  E  E  E     E  E  E  E  E  E  E  E   
--------------------------|--------------------------|
--------------------------|--------------------------|
--------------------------|--------------------------|
--------------------------|--------------------------|
--5--2--2--4--4-----3--2--|--5--2--2--4--4-----3--2--|
--------------------------|--------------------------|
--------------------------|--------------------------|

  E  E  E  E  E  E  E  E     E  E  E  E  E  E  E  E   
--------------------------|--------------------------|
--------------------------|--------------------------|
--------------------------|--------------------------|
--------------------------|--------------------------|
--5--2--2--4--4-----3--2--|--5--2--2--4--4-----3--2--|
--------------------------|--------------------------|
--------------------------|--------------------------|

  E  E  E  E  E  E  E  E     E  E  E  E  E  E  E  E   
--------------------------|--------------------------|
--------------------------|--------------------------|
--------------------------|--------------------------|
--------------------------|--------------------------|
--5--2--2--4--4-----3--2--|--5--2--2--4--4-----3--2--|
--------------------------|--------------------------|
--------------------------|--------------------------|

  E  E  E  E  E  E  E  E     E  E  E  E  E  E  E  E   
--------------------------|--------------------------|
--------------------------|--------------------------|
--------------------------|--------------------------|
--------------------------|--------------------------|
--5--2--2--4--4-----3--2--|--5--2--2--4--4-----3--2--|
--------------------------|--------------------------|
--------------------------|--------------------------|

  E  E  E  E  E  E  E  E     E  E  E  E  E  E  E  E   
--------------------------|--------------------------|
--------------------------|--------------------------|
--------------------------|--------------------------|
--------------------------|--------------------------|
--5--2--2--4--4-----3--2--|--5--2--2--4--4-----3--2--|
--------------------------|--------------------------|
--------------------------|--------------------------|

  E  E  E  E  E  E  E  E     E  E  E  E  E  E  E  E   
--------------------------|--------------------------|
--------------------------|--------------------------|
--------------------------|--------------------------|
--------------------------|--------------------------|
--5--2--2--4--4-----3--2--|--5--2--2--4--4-----3--2--|
--------------------------|--------------------------|
--------------------------|--------------------------|

  E  E  E  E  E  E  E  E     E  E  E  E  E  E  E  E   
--------------------------|--------------------------|
--------------------------|--------------------------|
--------------------------|--------------------------|
--------------------------|--------------------------|
--5--2--2--4--4-----3--2--|--5--2--2--4--4-----3--2--|
--------------------------|--------------------------|
--------------------------|--------------------------|

  E  E  E  E  E  E  E  E     E  E  E  E  E  E  E  E   
--------------------------|--------------------------|
--------------------------|--------------------------|
--------------------------|--------------------------|
--------------------------|--------------------------|
--5--2--2--4--4-----3--2--|--5--2--2--4--4-----3--2--|
--------------------------|--------------------------|
--------------------------|--------------------------|

  E  E  E  E  E  E  E  E     E  E  E  E  E  E  E  E   
--------------------------|--------------------------|
--------------------------|--------------------------|
--------------------------|--------------------------|
--------------------------|--------------------------|
--7--7--7--7--0--0--2--2--|--7--7--7--7--0--0--2--2--|
--7--7--7--7--0--0--2--2--|--7--7--7--7--0--0--2--2--|
--5--5--5--5--0--0--0--0--|--5--5--5--5--0--0--0--0--|

  E  E  E  E  E  E  E  E     E  E  E  E  E  E  E  E   
--------------------------|--------------------------|
--------------------------|--------------------------|
--------------------------|--------------------------|
--------------------------|--------------------------|
--7--7--7--7--0--0--2--2--|--7--7--7--7--0--0--2--2--|
--7--7--7--7--0--0--2--2--|--7--7--7--7--0--0--2--2--|
--5--5--5--5--0--0--0--0--|--5--5--5--5--0--0--0--0--|

  E  E  E  E  E  E  E  E     E  E  E  E  E  E  E  E   
--------------------------|--------------------------|
--------------------------|--------------------------|
--------------------------|--------------------------|
--------------------------|--------------------------|
--7--7--7--7--0--0--2--2--|--7--7--7--7--0--0--2--2--|
--7--7--7--7--0--0--2--2--|--7--7--7--7--0--0--2--2--|
--5--5--5--5--0--0--0--0--|--5--5--5--5--0--0--0--0--|

  E  E  E  E  E  E  E  E     E  E  E  E  E  E  E  E     W                  
--------------------------|--------------------------|--------------------|
--------------------------|--------------------------|--------------------|
--------------------------|--------------------------|--5s----------------|
--------------------------|--------------------------|--5s----------------|
--7--7--7--7--0--0--2--2--|--7--7--7--7--0--0--2--2--|--3s----------------|
--7--7--7--7--0--0--2--2--|--7--7--7--7--0--0--2--2--|--------------------|
--5--5--5--5--0--0--0--0--|--5--5--5--5--0--0--0--0--|--------------------|

   W                    W                     W                  
---------------------|--------------------|---------------------|
---------------------|--------------------|---------------------|
--(5)----------------|--3s----------------|--(3)----------------|
--(5)----------------|--3s----------------|--(3)----------------|
--(3)----------------|--1s----------------|--(1)----------------|
---------------------|--------------------|---------------------|
---------------------|--------------------|---------------------|

  W                     W                    W                  
--------------------|---------------------|--------------------|
--------------------|---------------------|--------------------|
--7s----------------|--(7)----------------|--4s----------------|
--8s----------------|--(8)----------------|--5s----------------|
--5s----------------|--(5)----------------|--2s----------------|
--------------------|---------------------|--------------------|
--------------------|---------------------|--------------------|

   W                    E  E  E  E  E  E  E  E     E  E  E  E  E  E  E  E   
---------------------|--------------------------|--------------------------|
---------------------|--------------------------|--------------------------|
--(4)----------------|--------------------------|--------------------------|
--(5)----------------|--------------------------|--------------------------|
--(2)----------------|--2--2--2--2--7--7--7--7--|--5--5--5--5--5--5--5--5--|
---------------------|--2--2--2--2--7--7--7--7--|--5--5--5--5--5--5--5--5--|
---------------------|--2--2--2--2--7--7--7--7--|--5--5--5--5--5--5--5--5--|

  E  E  E  E  E  E  E  E     E  E  E  E  E  E  E  E   
--------------------------|--------------------------|
--------------------------|--------------------------|
--------------------------|--------------------------|
--------------------------|--------------------------|
--2--2--2--2--7--7--7--7--|--5--5--5--5--5--5--5--5--|
--2--2--2--2--7--7--7--7--|--5--5--5--5--5--5--5--5--|
--2--2--2--2--7--7--7--7--|--5--5--5--5--5--5--5--5--|

  E  E  E  E  E  E  E  E     E  E  E  E  E  E  E  E   
--------------------------|--------------------------|
--------------------------|--------------------------|
--------------------------|--------------------------|
--------------------------|--------------------------|
--2--2--2--2--7--7--7--7--|--5--5--5--5--5--5--5--5--|
--2--2--2--2--7--7--7--7--|--5--5--5--5--5--5--5--5--|
--2--2--2--2--7--7--7--7--|--5--5--5--5--5--5--5--5--|

                NH   NH   NH   NH                                     
  E  E  E  E    E    E    E    E     E  E  E  E    E    E    E    E   
----------------------------------|----------------------------------|
----------------------------------|----------------------------------|
----------------------------------|----------------------------------|
----------------------------------|----------------------------------|
--2--2--2--2--<>7--<>7--<>7--<>7--|--5--5--5--5----5----5----5----5--|
--2--2--2--2----7----7----7----7--|--5--5--5--5--<>5--<>5----5----5--|
--2--2--2--2--<>7--<>7--<>7--<>7--|--5--5--5--5--<>5--<>5--<>5--<>5--|

  E  E  E  E  E  E  E  E     E  E  E  E  E  E  E  E   
--------------------------|--------------------------|
--------------------------|--------------------------|
--------------------------|--------------------------|
--------------------------|--------------------------|
--5--5--5--5--3--3--3--3--|--2--2--2--2--0--0--0--0--|
--5--5--5--5--3--3--3--3--|--2--2--2--2--0--0--0--0--|
--5--5--5--5--3--3--3--3--|--2--2--2--2--0--0--0--0--|

  E  E  E  E  E  E  E  E     E  E  E  E  E  E  E  E   
--------------------------|--------------------------|
--------------------------|--------------------------|
--------------------------|--------------------------|
--------------------------|--------------------------|
--5--5--5--5--3--3--3--3--|--2--2--2--2--0--0--0--0--|
--5--5--5--5--3--3--3--3--|--2--2--2--2--0--0--0--0--|
--5--5--5--5--3--3--3--3--|--2--2--2--2--0--0--0--0--|

  E  E  E  E  E  E  E  E     E  E  E  E  E  E  E  E   
--------------------------|--------------------------|
--------------------------|--------------------------|
--------------------------|--------------------------|
--------------------------|--------------------------|
--5--5--5--5--3--3--3--3--|--2--2--2--2--0--0--0--0--|
--5--5--5--5--3--3--3--3--|--2--2--2--2--0--0--0--0--|
--5--5--5--5--3--3--3--3--|--2--2--2--2--0--0--0--0--|

  E  E  E  E  E  E  E  E     E  E  E  E  E  E  E  E   
--------------------------|--------------------------|
--------------------------|--------------------------|
--------------------------|--------------------------|
--------------------------|--------------------------|
--7--7--7--7--5--5--5--5--|--4--4--4--4--9--9--9--9--|
--7--7--7--7--5--5--5--5--|--4--4--4--4--9--9--9--9--|
--7--7--7--7--5--5--5--5--|--4--4--4--4--9--9--9--9--|

  S E  S Q    S E  S Q       S E  S Q     Q    Q       S E  S Q    S E  S Q     
--------------------------|-------------------------|--------------------------|
--------------------------|-------------------------|--------------------------|
---------8-----------8----|---------8----10---------|---------8-----------8----|
---------7-----------7----|---------7-----9---------|---------7-----------7----|
--5-5--5-5----5-5--5-5----|--5-5--5-5-----7----7----|--5-5--5-5----5-5--5-5----|
--5-5--5-5----5-5--5-5----|--5-5--5-5-----7----7----|--5-5--5-5----5-5--5-5----|
--5-5--5-5----5-5--5-5----|--5-5--5-5-----7----7----|--5-5--5-5----5-5--5-5----|

  S E  S Q    Q    Q       S E  S Q    S E  S Q       S E  S Q     Q     Q     
------------------------|--------------------------|--------------------------|
------------------------|--------------------------|--------------------------|
---------8----7---------|---------8-----------8----|---------8----10----12----|
---------7----6---------|---------7-----------7----|---------7-----9----11----|
--5-5--5-5----4----4----|--5-5--5-5----5-5--5-5----|--5-5--5-5-----7-----9----|
--5-5--5-5----4----4----|--5-5--5-5----5-5--5-5----|--5-5--5-5-----7-----9----|
--5-5--5-5----4----4----|--5-5--5-5----5-5--5-5----|--5-5--5-5-----7-----9----|

  S E  S Q    S E  S Q       S E  S Q    E  E  E  E    
--------------------------|--------------------------||
--------------------------|--------------------------||
---------8-----------8----|---------8----7--7--7--7--||
---------7-----------7----|---------7----6--6--6--6--||
--5-5--5-5----5-5--5-5----|--5-5--5-5----4--4--4--4--||
--5-5--5-5----5-5--5-5----|--5-5--5-5----4--4--4--4--||
--5-5--5-5----5-5--5-5----|--5-5--5-5----4--4--4--4--||

Rhythm Guitar

     W                   W                   W                  
D||-------------------|-------------------|--------------------|
A||-------------------|-------------------|--------------------|
F||-------------------|-------------------|--------------------|
C||-------------------|-------------------|--------------------|
G||--2----------------|--5----------------|--7s----------------|
C||--2----------------|--5----------------|--7s----------------|
B||--0----------------|--3----------------|--5s----------------|

   W                    W                   W                 
---------------------|-------------------|-------------------|
---------------------|-------------------|-------------------|
---------------------|-------------------|-------------------|
---------------------|-------------------|-------------------|
--(7)----------------|--2----------------|--5----------------|
--(7)----------------|--2----------------|--5----------------|
--(5)----------------|--0----------------|--3----------------|

  W                     W                    W                  
--------------------|---------------------|--------------------|
--------------------|---------------------|--------------------|
--------------------|---------------------|--------------------|
--------------------|---------------------|--------------------|
--7s----------------|--(7)----------------|--0s----------------|
--7s----------------|--(7)----------------|--0s----------------|
--5s----------------|--(5)----------------|--0s----------------|

   W                    S E  S Q    S E  S Q       S E  S Q    Q    Q     
---------------------|--------------------------|------------------------|
---------------------|--------------------------|------------------------|
---------------------|--------------------------|------------------------|
---------------------|--------------------------|------------------------|
--(0)----------------|--0-0--0-1----0-0--0-1----|--0-0--0-1----3----2----|
--(0)----------------|--0-0--0-1----0-0--0-1----|--0-0--0-1----3----2----|
--(0)----------------|--0-0--0-1----0-0--0-1----|--0-0--0-1----3----2----|

  S E  S Q    S E  S Q       S E  S Q    Q    Q       S E  S Q    S E  S Q     
--------------------------|------------------------|--------------------------|
--------------------------|------------------------|--------------------------|
--------------------------|------------------------|--------------------------|
--------------------------|------------------------|--------------------------|
--0-0--0-1----0-0--0-1----|--0-0--0-1----3----2----|--0-0--0-1----0-0--0-1----|
--0-0--0-1----0-0--0-1----|--0-0--0-1----3----2----|--0-0--0-1----0-0--0-1----|
--0-0--0-1----0-0--0-1----|--0-0--0-1----3----2----|--0-0--0-1----0-0--0-1----|

  S E  S Q    Q    Q       S E  S Q    S E  S Q       S E  S Q    Q    Q     
------------------------|--------------------------|------------------------|
------------------------|--------------------------|------------------------|
------------------------|--------------------------|------------------------|
------------------------|--------------------------|------------------------|
--0-0--0-1----3----2----|--0-0--0-1----0-0--0-1----|--0-0--0-1----3----2----|
--0-0--0-1----3----2----|--0-0--0-1----0-0--0-1----|--0-0--0-1----3----2----|
--0-0--0-1----3----2----|--0-0--0-1----0-0--0-1----|--0-0--0-1----3----2----|

  E  E  E  E  E  E  E  E     E  E  E  E  E  E  E  E   
--------------------------|--------------------------|
--------------------------|--------------------------|
--------------------------|--------------------------|
--------------------------|--------------------------|
--5--2--2--4--4-----3--2--|--5--2--2--4--4-----3--2--|
--------------------------|--------------------------|
--------------------------|--------------------------|

  E  E  E  E  E  E  E  E     E  E  E  E  E  E  E  E   
--------------------------|--------------------------|
--------------------------|--------------------------|
--------------------------|--------------------------|
--------------------------|--------------------------|
--5--2--2--4--4-----3--2--|--5--2--2--4--4-----3--2--|
--------------------------|--------------------------|
--------------------------|--------------------------|

  E  E  E  E  E  E  E  E     E  E  E  E  E  E  E  E   
--------------------------|--------------------------|
--------------------------|--------------------------|
--------------------------|--------------------------|
--------------------------|--------------------------|
--5--2--2--4--4-----3--2--|--5--2--2--4--4-----3--2--|
--------------------------|--------------------------|
--------------------------|--------------------------|

  E  E  E  E  E  E  E  E     E  E  E  E  E  E  E  E   
--------------------------|--------------------------|
--------------------------|--------------------------|
--------------------------|--------------------------|
--------------------------|--------------------------|
--5--2--2--4--4-----3--2--|--5--2--2--4--4-----3--2--|
--------------------------|--------------------------|
--------------------------|--------------------------|

  E  E  E  E  E  E  E  E     E  E  E  E  E  E  E  E   
--------------------------|--------------------------|
--------------------------|--------------------------|
--------------------------|--------------------------|
--------------------------|--------------------------|
--5--2--2--4--4-----3--2--|--5--2--2--4--4-----3--2--|
--------------------------|--------------------------|
--------------------------|--------------------------|

  E  E  E  E  E  E  E  E     E  E  E  E  E  E  E  E   
--------------------------|--------------------------|
--------------------------|--------------------------|
--------------------------|--------------------------|
--------------------------|--------------------------|
--5--2--2--4--4-----3--2--|--5--2--2--4--4-----3--2--|
--------------------------|--------------------------|
--------------------------|--------------------------|

  E  E  E  E  E  E  E  E     E  E  E  E  E  E  E  E   
--------------------------|--------------------------|
--------------------------|--------------------------|
--------------------------|--------------------------|
--------------------------|--------------------------|
--5--2--2--4--4-----3--2--|--5--2--2--4--4-----3--2--|
--------------------------|--------------------------|
--------------------------|--------------------------|

  E  E  E  E  E  E  E  E     E  E  E  E  E  E  E  E   
--------------------------|--------------------------|
--------------------------|--------------------------|
--------------------------|--------------------------|
--------------------------|--------------------------|
--5--2--2--4--4-----3--2--|--5--2--2--4--4-----3--2--|
--------------------------|--------------------------|
--------------------------|--------------------------|

  E  E  E  E  E  E  E  E     E  E  E  E  E  E  E  E   
--------------------------|--------------------------|
--------------------------|--------------------------|
--------------------------|--------------------------|
--------------------------|--------------------------|
--7--7--7--7--0--0--2--2--|--7--7--7--7--0--0--2--2--|
--7--7--7--7--0--0--2--2--|--7--7--7--7--0--0--2--2--|
--5--5--5--5--0--0--0--0--|--5--5--5--5--0--0--0--0--|

  E  E  E  E  E  E  E  E     E  E  E  E  E  E  E  E   
--------------------------|--------------------------|
--------------------------|--------------------------|
--------------------------|--------------------------|
--------------------------|--------------------------|
--7--7--7--7--0--0--2--2--|--7--7--7--7--0--0--2--2--|
--7--7--7--7--0--0--2--2--|--7--7--7--7--0--0--2--2--|
--5--5--5--5--0--0--0--0--|--5--5--5--5--0--0--0--0--|

  E  E  E  E  E  E  E  E     E  E  E  E  E  E  E  E   
--------------------------|--------------------------|
--------------------------|--------------------------|
--------------------------|--------------------------|
--------------------------|--------------------------|
--7--7--7--7--0--0--2--2--|--7--7--7--7--0--0--2--2--|
--7--7--7--7--0--0--2--2--|--7--7--7--7--0--0--2--2--|
--5--5--5--5--0--0--0--0--|--5--5--5--5--0--0--0--0--|

  E  E  E  E  E  E  E  E     E  E  E  E  E  E  E  E     W                  
--------------------------|--------------------------|--------------------|
--------------------------|--------------------------|--------------------|
--------------------------|--------------------------|--5s----------------|
--------------------------|--------------------------|--5s----------------|
--7--7--7--7--0--0--2--2--|--7--7--7--7--0--0--2--2--|--3s----------------|
--7--7--7--7--0--0--2--2--|--7--7--7--7--0--0--2--2--|--------------------|
--5--5--5--5--0--0--0--0--|--5--5--5--5--0--0--0--0--|--------------------|

   W                    W                     W                  
---------------------|--------------------|---------------------|
---------------------|--------------------|---------------------|
--(5)----------------|--3s----------------|--(3)----------------|
--(5)----------------|--3s----------------|--(3)----------------|
--(3)----------------|--1s----------------|--(1)----------------|
---------------------|--------------------|---------------------|
---------------------|--------------------|---------------------|

  W                     W                    W                  
--------------------|---------------------|--------------------|
--------------------|---------------------|--------------------|
--7s----------------|--(7)----------------|--4s----------------|
--8s----------------|--(8)----------------|--5s----------------|
--5s----------------|--(5)----------------|--2s----------------|
--------------------|---------------------|--------------------|
--------------------|---------------------|--------------------|

   W                    S E  S Q    S E  S Q       S E  S Q    Q    Q     
---------------------|--------------------------|------------------------|
---------------------|--------------------------|------------------------|
--(4)----------------|--------------------------|------------------------|
--(5)----------------|--------------------------|------------------------|
--(2)----------------|--0-0--0-1----0-0--0-1----|--0-0--0-1----3----2----|
---------------------|--0-0--0-1----0-0--0-1----|--0-0--0-1----3----2----|
---------------------|--0-0--0-1----0-0--0-1----|--0-0--0-1----3----2----|

  S E  S Q    S E  S Q       S E  S Q    Q    Q       S E  S Q    S E  S Q     
--------------------------|------------------------|--------------------------|
--------------------------|------------------------|--------------------------|
--------------------------|------------------------|--------------------------|
--------------------------|------------------------|--------------------------|
--0-0--0-1----0-0--0-1----|--0-0--0-1----3----2----|--0-0--0-1----0-0--0-1----|
--0-0--0-1----0-0--0-1----|--0-0--0-1----3----2----|--0-0--0-1----0-0--0-1----|
--0-0--0-1----0-0--0-1----|--0-0--0-1----3----2----|--0-0--0-1----0-0--0-1----|

  S E  S Q    Q    Q       S E  S Q    S E  S Q       S E  S Q    Q    Q     
------------------------|--------------------------|------------------------|
------------------------|--------------------------|------------------------|
------------------------|--------------------------|------------------------|
------------------------|--------------------------|------------------------|
--0-0--0-1----3----2----|--0-0--0-1----0-0--0-1----|--0-0--0-1----3----2----|
--0-0--0-1----3----2----|--0-0--0-1----0-0--0-1----|--0-0--0-1----3----2----|
--0-0--0-1----3----2----|--0-0--0-1----0-0--0-1----|--0-0--0-1----3----2----|

  E  E  E  E  E  E  E  E     E  E  E  E  E  E  E  E   
--------------------------|--------------------------|
--------------------------|--------------------------|
--------------------------|--------------------------|
--------------------------|--------------------------|
--5--2--2--4--4-----3--2--|--5--2--2--4--4-----3--2--|
--------------------------|--------------------------|
--------------------------|--------------------------|

  E  E  E  E  E  E  E  E     E  E  E  E  E  E  E  E   
--------------------------|--------------------------|
--------------------------|--------------------------|
--------------------------|--------------------------|
--------------------------|--------------------------|
--5--2--2--4--4-----3--2--|--5--2--2--4--4-----3--2--|
--------------------------|--------------------------|
--------------------------|--------------------------|

  E  E  E  E  E  E  E  E     E  E  E  E  E  E  E  E   
--------------------------|--------------------------|
--------------------------|--------------------------|
--------------------------|--------------------------|
--------------------------|--------------------------|
--5--2--2--4--4-----3--2--|--5--2--2--4--4-----3--2--|
--------------------------|--------------------------|
--------------------------|--------------------------|

  E  E  E  E  E  E  E  E     E  E  E  E  E  E  E  E   
--------------------------|--------------------------|
--------------------------|--------------------------|
--------------------------|--------------------------|
--------------------------|--------------------------|
--5--2--2--4--4-----3--2--|--5--2--2--4--4-----3--2--|
--------------------------|--------------------------|
--------------------------|--------------------------|

  E  E  E  E  E  E  E  E     E  E  E  E  E  E  E  E   
--------------------------|--------------------------|
--------------------------|--------------------------|
--------------------------|--------------------------|
--------------------------|--------------------------|
--5--2--2--4--4-----3--2--|--5--2--2--4--4-----3--2--|
--------------------------|--------------------------|
--------------------------|--------------------------|

  E  E  E  E  E  E  E  E     E  E  E  E  E  E  E  E   
--------------------------|--------------------------|
--------------------------|--------------------------|
--------------------------|--------------------------|
--------------------------|--------------------------|
--5--2--2--4--4-----3--2--|--5--2--2--4--4-----3--2--|
--------------------------|--------------------------|
--------------------------|--------------------------|

  E  E  E  E  E  E  E  E     E  E  E  E  E  E  E  E   
--------------------------|--------------------------|
--------------------------|--------------------------|
--------------------------|--------------------------|
--------------------------|--------------------------|
--5--2--2--4--4-----3--2--|--5--2--2--4--4-----3--2--|
--------------------------|--------------------------|
--------------------------|--------------------------|

  E  E  E  E  E  E  E  E     E  E  E  E  E  E  E  E   
--------------------------|--------------------------|
--------------------------|--------------------------|
--------------------------|--------------------------|
--------------------------|--------------------------|
--5--2--2--4--4-----3--2--|--5--2--2--4--4-----3--2--|
--------------------------|--------------------------|
--------------------------|--------------------------|

  E  E  E  E  E  E  E  E     E  E  E  E  E  E  E  E   
--------------------------|--------------------------|
--------------------------|--------------------------|
--------------------------|--------------------------|
--------------------------|--------------------------|
--7--7--7--7--0--0--2--2--|--7--7--7--7--0--0--2--2--|
--7--7--7--7--0--0--2--2--|--7--7--7--7--0--0--2--2--|
--5--5--5--5--0--0--0--0--|--5--5--5--5--0--0--0--0--|

  E  E  E  E  E  E  E  E     E  E  E  E  E  E  E  E   
--------------------------|--------------------------|
--------------------------|--------------------------|
--------------------------|--------------------------|
--------------------------|--------------------------|
--7--7--7--7--0--0--2--2--|--7--7--7--7--0--0--2--2--|
--7--7--7--7--0--0--2--2--|--7--7--7--7--0--0--2--2--|
--5--5--5--5--0--0--0--0--|--5--5--5--5--0--0--0--0--|

  E  E  E  E  E  E  E  E     E  E  E  E  E  E  E  E   
--------------------------|--------------------------|
--------------------------|--------------------------|
--------------------------|--------------------------|
--------------------------|--------------------------|
--7--7--7--7--0--0--2--2--|--7--7--7--7--0--0--2--2--|
--7--7--7--7--0--0--2--2--|--7--7--7--7--0--0--2--2--|
--5--5--5--5--0--0--0--0--|--5--5--5--5--0--0--0--0--|

  E  E  E  E  E  E  E  E     E  E  E  E  E  E  E  E     W                  
--------------------------|--------------------------|--------------------|
--------------------------|--------------------------|--------------------|
--------------------------|--------------------------|--5s----------------|
--------------------------|--------------------------|--5s----------------|
--7--7--7--7--0--0--2--2--|--7--7--7--7--0--0--2--2--|--3s----------------|
--7--7--7--7--0--0--2--2--|--7--7--7--7--0--0--2--2--|--------------------|
--5--5--5--5--0--0--0--0--|--5--5--5--5--0--0--0--0--|--------------------|

   W                    W                     W                  
---------------------|--------------------|---------------------|
---------------------|--------------------|---------------------|
--(5)----------------|--3s----------------|--(3)----------------|
--(5)----------------|--3s----------------|--(3)----------------|
--(3)----------------|--1s----------------|--(1)----------------|
---------------------|--------------------|---------------------|
---------------------|--------------------|---------------------|

  W                     W                    W                  
--------------------|---------------------|--------------------|
--------------------|---------------------|--------------------|
--7s----------------|--(7)----------------|--4s----------------|
--8s----------------|--(8)----------------|--5s----------------|
--5s----------------|--(5)----------------|--2s----------------|
--------------------|---------------------|--------------------|
--------------------|---------------------|--------------------|

   W                    E  E  E  E  E  E  E  E     E  E  E  E  E  E  E  E   
---------------------|--------------------------|--------------------------|
---------------------|--------------------------|--------------------------|
--(4)----------------|--------------------------|--------------------------|
--(5)----------------|--------------------------|--------------------------|
--(2)----------------|--2--2--2--2--7--7--7--7--|--5--5--5--5--5--5--5--5--|
---------------------|--2--2--2--2--7--7--7--7--|--5--5--5--5--5--5--5--5--|
---------------------|--2--2--2--2--7--7--7--7--|--5--5--5--5--5--5--5--5--|

  E  E  E  E  E  E  E  E     E  E  E  E  E  E  E  E   
--------------------------|--------------------------|
--------------------------|--------------------------|
--------------------------|--------------------------|
--------------------------|--------------------------|
--2--2--2--2--7--7--7--7--|--5--5--5--5--5--5--5--5--|
--2--2--2--2--7--7--7--7--|--5--5--5--5--5--5--5--5--|
--2--2--2--2--7--7--7--7--|--5--5--5--5--5--5--5--5--|

  E  E  E  E  E  E  E  E     E  E  E  E  E  E  E  E   
--------------------------|--------------------------|
--------------------------|--------------------------|
--------------------------|--------------------------|
--------------------------|--------------------------|
--2--2--2--2--7--7--7--7--|--5--5--5--5--5--5--5--5--|
--2--2--2--2--7--7--7--7--|--5--5--5--5--5--5--5--5--|
--2--2--2--2--7--7--7--7--|--5--5--5--5--5--5--5--5--|

                NH   NH   NH   NH                                     
  E  E  E  E    E    E    E    E     E  E  E  E    E    E    E    E   
----------------------------------|----------------------------------|
----------------------------------|----------------------------------|
----------------------------------|----------------------------------|
----------------------------------|----------------------------------|
--2--2--2--2--<>7--<>7--<>7--<>7--|--5--5--5--5----5----5----5----5--|
--2--2--2--2----7----7----7----7--|--5--5--5--5--<>5--<>5----5----5--|
--2--2--2--2--<>7--<>7--<>7--<>7--|--5--5--5--5--<>5--<>5--<>5--<>5--|

  E  E  E  E  E  E  E  E     E  E  E  E  E  E  E  E   
--------------------------|--------------------------|
--------------------------|--------------------------|
--------------------------|--------------------------|
--------------------------|--------------------------|
--5--5--5--5--3--3--3--3--|--2--2--2--2--0--0--0--0--|
--5--5--5--5--3--3--3--3--|--2--2--2--2--0--0--0--0--|
--5--5--5--5--3--3--3--3--|--2--2--2--2--0--0--0--0--|

  E  E  E  E  E  E  E  E     E  E  E  E  E  E  E  E   
--------------------------|--------------------------|
--------------------------|--------------------------|
--------------------------|--------------------------|
--------------------------|--------------------------|
--5--5--5--5--3--3--3--3--|--2--2--2--2--0--0--0--0--|
--5--5--5--5--3--3--3--3--|--2--2--2--2--0--0--0--0--|
--5--5--5--5--3--3--3--3--|--2--2--2--2--0--0--0--0--|

  E  E  E  E  E  E  E  E     E  E  E  E  E  E  E  E   
--------------------------|--------------------------|
--------------------------|--------------------------|
--------------------------|--------------------------|
--------------------------|--------------------------|
--5--5--5--5--3--3--3--3--|--2--2--2--2--0--0--0--0--|
--5--5--5--5--3--3--3--3--|--2--2--2--2--0--0--0--0--|
--5--5--5--5--3--3--3--3--|--2--2--2--2--0--0--0--0--|

  E  E  E  E  E  E  E  E     E  E  E  E  E  E  E  E   
--------------------------|--------------------------|
--------------------------|--------------------------|
--------------------------|--------------------------|
--------------------------|--------------------------|
--7--7--7--7--5--5--5--5--|--4--4--4--4--9--9--9--9--|
--7--7--7--7--5--5--5--5--|--4--4--4--4--9--9--9--9--|
--7--7--7--7--5--5--5--5--|--4--4--4--4--9--9--9--9--|

  S E  S Q    S E  S Q       S E  S Q    Q    Q       S E  S Q    S E  S Q     
--------------------------|------------------------|--------------------------|
--------------------------|------------------------|--------------------------|
--------------------------|------------------------|--------------------------|
--------------------------|------------------------|--------------------------|
--0-0--0-1----0-0--0-1----|--0-0--0-1----3----2----|--0-0--0-1----0-0--0-1----|
--0-0--0-1----0-0--0-1----|--0-0--0-1----3----2----|--0-0--0-1----0-0--0-1----|
--0-0--0-1----0-0--0-1----|--0-0--0-1----3----2----|--0-0--0-1----0-0--0-1----|

  S E  S Q    Q    Q       S E  S Q    S E  S Q       S E  S Q    Q    Q     
------------------------|--------------------------|------------------------|
------------------------|--------------------------|------------------------|
------------------------|--------------------------|------------------------|
------------------------|--------------------------|------------------------|
--0-0--0-1----3----2----|--0-0--0-1----0-0--0-1----|--0-0--0-1----3----2----|
--0-0--0-1----3----2----|--0-0--0-1----0-0--0-1----|--0-0--0-1----3----2----|
--0-0--0-1----3----2----|--0-0--0-1----0-0--0-1----|--0-0--0-1----3----2----|

  S E  S Q    S E  S Q       S E  S Q    Q    Q      
--------------------------|------------------------||
--------------------------|------------------------||
--------------------------|------------------------||
--------------------------|------------------------||
--0-0--0-1----0-0--0-1----|--0-0--0-1----3----2----||
--0-0--0-1----0-0--0-1----|--0-0--0-1----3----2----||
--0-0--0-1----0-0--0-1----|--0-0--0-1----3----2----||

==========Unknown==========

Lead Guitar

     Q     Q    Q     Q       Q     Q    Q     W                         
D||------------------------|------------------------------------|-------|
A||-------12---------------|------------------------------------|-------|
F||------------------12----|------------------------------------|-------|
C||------------------------|-------12---------------------------|-------|
G||--7----------7----------|--7----------7----12----------------|-------|
C||------------------------|------------------------------------|-------|


          Q     Q    Q     Q       Q     Q    Q     W                 
-------|------------------------|------------------------------------|
-------|-------12---------------|------------------------------------|
-------|------------------12----|------------------12----------------|
-------|------------------------|-------12---------------------------|
-------|--7----------7----------|--7----------7----------------------|
-------|------------------------|------------------------------------|


                                          Q     Q    Q     Q     
-------------------|-------------------|------------------------|
-------------------|-------------------|-------12---------------|
-------------------|-------------------|------------------12----|
-------------------|-------------------|------------------------|
-------------------|-------------------|--7----------7----------|
-------------------|-------------------|------------------------|


  Q     Q    Q     Q        W                                     
------------------------|--------------------|-------------------|
------------------------|--------------------|-------------------|
------------------------|--------------------|-------------------|
-------12---------12----|--------------------|-------------------|
--7----------7----------|--12----------------|-------------------|
------------------------|--------------------|-------------------|


  Q     Q    Q     Q       Q     Q    Q    W                 
------------------------|-----------------------------------|-------------------|
-------12---------------|-----------------------------------|-------------------|
------------------12----|-----------------------------------|-------------------|
------------------------|-------12---------7----------------|-------------------|
--7----------7----------|--7----------7---------------------|-------------------|
------------------------|-----------------------------------|-------------------|

  PM   PM              
  Q    Q    H          
----------------------|
----------------------|
----------------------|
------------5b--------|
--0----0--------------|
--0----0--------------|

  PM   PM                PM   PM                PM   PM              
  Q    Q    H            Q    Q    H            Q    Q    H          
----------------------|----------------------|----------------------|
----------------------|----------------------|----------------------|
----------------------|----------------------|----------------------|
------------5b--------|------------3b--------|------------2b--------|
--0----0--------------|--0----0--------------|--0----0--------------|
--0----0--------------|--0----0--------------|--0----0--------------|

  PM   PM                PM   PM                PM   PM              
  Q    Q    H            Q    Q    H            Q    Q    H          
----------------------|----------------------|----------------------|
----------------------|----------------------|----------------------|
----------------------|----------------------|----------------------|
------------5b--------|------------5b--------|------------3b--------|
--0----0--------------|--0----0--------------|--0----0--------------|
--0----0--------------|--0----0--------------|--0----0--------------|

  PM   PM                PM   PM                PM   PM              
  Q    Q    H            Q    Q    H            Q    Q    H          
----------------------|----------------------|----------------------|
----------------------|----------------------|----------------------|
----------------------|----------------------|----------------------|
------------2b--------|------------5b--------|------------5b--------|
--0----0--------------|--0----0--------------|--0----0--------------|
--0----0--------------|--0----0--------------|--0----0--------------|

  PM   PM                PM   PM                PM   PM              
  Q    Q    H            Q    Q    H            Q    Q    H          
----------------------|----------------------|----------------------|
----------------------|----------------------|----------------------|
----------------------|----------------------|----------------------|
------------3b--------|------------2b--------|------------5b--------|
--0----0--------------|--0----0--------------|--0----0--------------|
--0----0--------------|--0----0--------------|--0----0--------------|

  PM   PM                PM   PM                PM   PM              
  Q    Q    H            Q    Q    H            Q    Q    H          
----------------------|----------------------|----------------------|
----------------------|----------------------|----------------------|
----------------------|----------------------|----------------------|
------------5b--------|------------3b--------|------------2b--------|
--0----0--------------|--0----0--------------|--0----0--------------|
--0----0--------------|--0----0--------------|--0----0--------------|

  PM   PM                PM   PM                PM   PM              
  Q    Q    H            Q    Q    H            Q    Q    H          
----------------------|----------------------|----------------------|
----------------------|----------------------|----------------------|
----------------------|----------------------|----------------------|
------------2b--------|------------2b--------|------------2b--------|
--0----0--------------|--0----0--------------|--0----0--------------|
--0----0--------------|--0----0--------------|--0----0--------------|

  PM   PM                ^  v  ^  v  ^  v  ^  v     ^  v  ^  v  ^  v  ^  v   
  Q    Q    H            E  E  E  E  E  E  E  E     E  E  E  E  E  E  E  E   
----------------------|--------------------------|--------------------------|
----------------------|--------------4--4--4--4--|--------------2--2--2--2--|
----------------------|--------------4--4--4--4--|--------------2--2--2--2--|
------------2b--------|--0--0--0--0--------------|--0--0--0--0--------------|
--0----0--------------|--0--0--0--0--------------|--0--0--0--0--------------|
--0----0--------------|--0--0--0--0--------------|--0--0--0--0--------------|

  ^  v  ^  v  ^  v  ^  v     ^  v  ^  v  ^  v  ^  v   
  E  E  E  E  E  E  E  E     E  E  E  E  E  E  E  E   
--------------------------|--------------------------|
--------------0--0--0--0--|--------------------------|
--------------0--0--0--0--|--------------2--2--2--2--|
--0--0--0--0--------------|--0--0--0--0--x--x--x--x--|
--0--0--0--0--------------|--0--0--0--0--0--0--0--0--|
--0--0--0--0--------------|--0--0--0--0--------------|

  ^  v  ^  v  ^  v  ^  v     ^  v  ^  v  ^  v  ^  v   
  E  E  E  E  E  E  E  E     E  E  E  E  E  E  E  E   
--------------------------|--------------------------|
--------------4--4--4--4--|--------------2--2--2--2--|
--------------4--4--4--4--|--------------2--2--2--2--|
--0--0--0--0--------------|--0--0--0--0--------------|
--0--0--0--0--------------|--0--0--0--0--------------|
--0--0--0--0--------------|--0--0--0--0--------------|

  ^  v  ^  v  ^  v  ^  v     ^  v  ^  v  ^  v  ^  v   
  E  E  E  E  E  E  E  E     E  E  E  E  E  E  E  E   
--------------------------|--------------------------|
--------------0--0--0--0--|--------------------------|
--------------0--0--0--0--|--------------2--2--2--2--|
--0--0--0--0--------------|--0--0--0--0--x--x--x--x--|
--0--0--0--0--------------|--0--0--0--0--0--0--0--0--|
--0--0--0--0--------------|--0--0--0--0--------------|

  ^  v  ^  v  ^  v  ^  v     ^  v  ^  v  ^  v  ^  v   
  E  E  E  E  E  E  E  E     E  E  E  E  E  E  E  E   
--------------------------|--------------------------|
--------------4--4--4--4--|--------------2--2--2--2--|
--------------4--4--4--4--|--------------2--2--2--2--|
--0--0--0--0--------------|--0--0--0--0--------------|
--0--0--0--0--------------|--0--0--0--0--------------|
--0--0--0--0--------------|--0--0--0--0--------------|

  ^  v  ^  v  ^  v  ^  v     ^  v  ^  v  ^  v  ^  v   
  E  E  E  E  E  E  E  E     E  E  E  E  E  E  E  E   
--------------------------|--------------------------|
--------------0--0--0--0--|--------------------------|
--------------0--0--0--0--|--------------2--2--2--2--|
--0--0--0--0--------------|--0--0--0--0--x--x--x--x--|
--0--0--0--0--------------|--0--0--0--0--0--0--0--0--|
--0--0--0--0--------------|--0--0--0--0--------------|

  ^  v  ^  v  ^  v  ^  v     ^  v  ^  v  ^  v  ^  v   
  E  E  E  E  E  E  E  E     E  E  E  E  E  E  E  E   
--------------------------|--------------------------|
--------------4--4--4--4--|--------------2--2--2--2--|
--------------4--4--4--4--|--------------2--2--2--2--|
--0--0--0--0--------------|--0--0--0--0--------------|
--0--0--0--0--------------|--0--0--0--0--------------|
--0--0--0--0--------------|--0--0--0--0--------------|

  ^  v  ^  v  ^  v  ^  v     ^  v  ^  v  ^  v  ^  v     PM   PM              
  E  E  E  E  E  E  E  E     E  E  E  E  E  E  E  E     Q    Q    H          
--------------------------|--------------------------|----------------------|
--------------0--0--0--0--|--------------------------|----------------------|
--------------0--0--0--0--|--------------2--2--2--2--|----------------------|
--0--0--0--0--------------|--0--0--0--0--x--x--x--x--|------------5b--------|
--0--0--0--0--------------|--0--0--0--0--0--0--0--0--|--0----0--------------|
--0--0--0--0--------------|--0--0--0--0--------------|--0----0--------------|

  PM   PM                PM   PM                PM   PM              
  Q    Q    H            Q    Q    H            Q    Q    H          
----------------------|----------------------|----------------------|
----------------------|----------------------|----------------------|
----------------------|----------------------|----------------------|
------------5b--------|------------3b--------|------------2b--------|
--0----0--------------|--0----0--------------|--0----0--------------|
--0----0--------------|--0----0--------------|--0----0--------------|

  PM   PM                PM   PM                PM   PM              
  Q    Q    H            Q    Q    H            Q    Q    H          
----------------------|----------------------|----------------------|
----------------------|----------------------|----------------------|
----------------------|----------------------|----------------------|
------------5b--------|------------5b--------|------------3b--------|
--0----0--------------|--0----0--------------|--0----0--------------|
--0----0--------------|--0----0--------------|--0----0--------------|

  PM   PM                PM   PM                PM   PM              
  Q    Q    H            Q    Q    H            Q    Q    H          
----------------------|----------------------|----------------------|
----------------------|----------------------|----------------------|
----------------------|----------------------|----------------------|
------------2b--------|------------5b--------|------------5b--------|
--0----0--------------|--0----0--------------|--0----0--------------|
--0----0--------------|--0----0--------------|--0----0--------------|

  PM   PM                PM   PM                PM   PM              
  Q    Q    H            Q    Q    H            Q    Q    H          
----------------------|----------------------|----------------------|
----------------------|----------------------|----------------------|
----------------------|----------------------|----------------------|
------------3b--------|------------2b--------|------------5b--------|
--0----0--------------|--0----0--------------|--0----0--------------|
--0----0--------------|--0----0--------------|--0----0--------------|

  PM   PM                PM   PM                PM   PM              
  Q    Q    H            Q    Q    H            Q    Q    H          
----------------------|----------------------|----------------------|
----------------------|----------------------|----------------------|
----------------------|----------------------|----------------------|
------------5b--------|------------3b--------|------------2b--------|
--0----0--------------|--0----0--------------|--0----0--------------|
--0----0--------------|--0----0--------------|--0----0--------------|

  PM   PM                PM   PM                PM   PM              
  Q    Q    H            Q    Q    H            Q    Q    H          
----------------------|----------------------|----------------------|
----------------------|----------------------|----------------------|
----------------------|----------------------|----------------------|
------------2b--------|------------2b--------|------------2b--------|
--0----0--------------|--0----0--------------|--0----0--------------|
--0----0--------------|--0----0--------------|--0----0--------------|

  PM   PM                ^  v  ^  v  ^  v  ^  v     ^  v  ^  v  ^  v  ^  v   
  Q    Q    H            E  E  E  E  E  E  E  E     E  E  E  E  E  E  E  E   
----------------------|--------------------------|--------------------------|
----------------------|--------------4--4--4--4--|--------------2--2--2--2--|
----------------------|--------------4--4--4--4--|--------------2--2--2--2--|
------------2b--------|--0--0--0--0--------------|--0--0--0--0--------------|
--0----0--------------|--0--0--0--0--------------|--0--0--0--0--------------|
--0----0--------------|--0--0--0--0--------------|--0--0--0--0--------------|

  ^  v  ^  v  ^  v  ^  v     ^  v  ^  v  ^  v  ^  v   
  E  E  E  E  E  E  E  E     E  E  E  E  E  E  E  E   
--------------------------|--------------------------|
--------------0--0--0--0--|--------------------------|
--------------0--0--0--0--|--------------2--2--2--2--|
--0--0--0--0--------------|--0--0--0--0--x--x--x--x--|
--0--0--0--0--------------|--0--0--0--0--0--0--0--0--|
--0--0--0--0--------------|--0--0--0--0--------------|

  ^  v  ^  v  ^  v  ^  v     ^  v  ^  v  ^  v  ^  v   
  E  E  E  E  E  E  E  E     E  E  E  E  E  E  E  E   
--------------------------|--------------------------|
--------------4--4--4--4--|--------------2--2--2--2--|
--------------4--4--4--4--|--------------2--2--2--2--|
--0--0--0--0--------------|--0--0--0--0--------------|
--0--0--0--0--------------|--0--0--0--0--------------|
--0--0--0--0--------------|--0--0--0--0--------------|

  ^  v  ^  v  ^  v  ^  v     ^  v  ^  v  ^  v  ^  v   
  E  E  E  E  E  E  E  E     E  E  E  E  E  E  E  E   
--------------------------|--------------------------|
--------------0--0--0--0--|--------------------------|
--------------0--0--0--0--|--------------2--2--2--2--|
--0--0--0--0--------------|--0--0--0--0--x--x--x--x--|
--0--0--0--0--------------|--0--0--0--0--0--0--0--0--|
--0--0--0--0--------------|--0--0--0--0--------------|

  ^  v  ^  v  ^  v  ^  v     ^  v  ^  v  ^  v  ^  v   
  E  E  E  E  E  E  E  E     E  E  E  E  E  E  E  E   
--------------------------|--------------------------|
--------------4--4--4--4--|--------------2--2--2--2--|
--------------4--4--4--4--|--------------2--2--2--2--|
--0--0--0--0--------------|--0--0--0--0--------------|
--0--0--0--0--------------|--0--0--0--0--------------|
--0--0--0--0--------------|--0--0--0--0--------------|

  ^  v  ^  v  ^  v  ^  v     ^  v  ^  v  ^  v  ^  v   
  E  E  E  E  E  E  E  E     E  E  E  E  E  E  E  E   
--------------------------|--------------------------|
--------------0--0--0--0--|--------------------------|
--------------0--0--0--0--|--------------2--2--2--2--|
--0--0--0--0--------------|--0--0--0--0--x--x--x--x--|
--0--0--0--0--------------|--0--0--0--0--0--0--0--0--|
--0--0--0--0--------------|--0--0--0--0--------------|

  ^  v  ^  v  ^  v  ^  v     ^  v  ^  v  ^  v  ^  v   
  E  E  E  E  E  E  E  E     E  E  E  E  E  E  E  E   
--------------------------|--------------------------|
--------------4--4--4--4--|--------------2--2--2--2--|
--------------4--4--4--4--|--------------2--2--2--2--|
--0--0--0--0--------------|--0--0--0--0--------------|
--0--0--0--0--------------|--0--0--0--0--------------|
--0--0--0--0--------------|--0--0--0--0--------------|

  ^  v  ^  v  ^  v  ^  v     ^  v  ^  v  ^  v  ^  v   
  E  E  E  E  E  E  E  E     E  E  E  E  E  E  E  E   
--------------------------|--------------------------|
--------------0--0--0--0--|--------------------------|
--------------0--0--0--0--|--------------2--2--2--2--|
--0--0--0--0--------------|--0--0--0--0--x--x--x--x--|
--0--0--0--0--------------|--0--0--0--0--0--0--0--0--|
--0--0--0--0--------------|--0--0--0--0--------------|

   E   E   E   E   E   E   E   E     E  E  E  E  E  E  E  E   
----------------------------------|--------------------------|
----------------------------------|--------------------------|
--12--12--12--12--12--12--12--12--|--9--9--9--9--9--9--9--9--|
---x---x---x---x---x---x---x---x--|--x--x--x--x--x--x--x--x--|
---9---9---9---9---9---9---9---9--|--6--6--6--6--6--6--6--6--|
----------------------------------|--------------------------|

  E  E  E  E  E  E  E  E     E  E  E  E  E  E  E  E   
--------------------------|--------------------------|
--------------------------|--------------------------|
--7--7--7--7--7--7--7--7--|--5--5--5--5--5--5--5--5--|
--x--x--x--x--x--x--x--x--|--x--x--x--x--x--x--x--x--|
--4--4--4--4--4--4--4--4--|--2--2--2--2--2--2--2--2--|
--------------------------|--------------------------|

   E   E   E   E   E   E   E   E     E  E  E  E  E  E  E  E   
----------------------------------|--------------------------|
----------------------------------|--------------------------|
--12--12--12--12--12--12--12--12--|--9--9--9--9--9--9--9--9--|
---x---x---x---x---x---x---x---x--|--x--x--x--x--x--x--x--x--|
---9---9---9---9---9---9---9---9--|--6--6--6--6--6--6--6--6--|
----------------------------------|--------------------------|

  E  E  E  E  E  E  E  E     E  E  E  E  E  E  E  E   
--------------------------|--------------------------|
--------------------------|--------------------------|
--7--7--7--7--7--7--7--7--|--5--5--5--5--5--5--5--5--|
--x--x--x--x--x--x--x--x--|--x--x--x--x--x--x--x--x--|
--4--4--4--4--4--4--4--4--|--2--2--2--2--2--2--2--2--|
--------------------------|--------------------------|

   E   E   E   E   E   E   E   E     E  E  E  E  E  E  E  E   
----------------------------------|--------------------------|
----------------------------------|--------------------------|
--12--12--12--12--12--12--12--12--|--9--9--9--9--9--9--9--9--|
---x---x---x---x---x---x---x---x--|--x--x--x--x--x--x--x--x--|
---9---9---9---9---9---9---9---9--|--6--6--6--6--6--6--6--6--|
----------------------------------|--------------------------|

  E  E  E  E  E  E  E  E     E  E  E  E  E  E  E  E   
--------------------------|--------------------------|
--------------------------|--------------------------|
--7--7--7--7--7--7--7--7--|--5--5--5--5--5--5--5--5--|
--x--x--x--x--x--x--x--x--|--x--x--x--x--x--x--x--x--|
--4--4--4--4--4--4--4--4--|--2--2--2--2--2--2--2--2--|
--------------------------|--------------------------|

   E   E   E   E   E   E   E   E     E  E  E  E  E  E  E  E   
----------------------------------|--------------------------|
----------------------------------|--------------------------|
--12--12--12--12--12--12--12--12--|--9--9--9--9--9--9--9--9--|
---x---x---x---x---x---x---x---x--|--x--x--x--x--x--x--x--x--|
---9---9---9---9---9---9---9---9--|--6--6--6--6--6--6--6--6--|
----------------------------------|--------------------------|

  E  E  E  E  E  E  E  E     E  E  E  E  E  E  E  E                           
--------------------------|--------------------------|-----|-----|-----|-----|
--------------------------|--------------------------|-----|-----|-----|-----|
--7--7--7--7--7--7--7--7--|--5--5--5--5--5--5--5--5--|-----|-----|-----|-----|
--x--x--x--x--x--x--x--x--|--x--x--x--x--x--x--x--x--|-----|-----|-----|-----|
--4--4--4--4--4--4--4--4--|--2--2--2--2--2--2--2--2--|-----|-----|-----|-----|
--------------------------|--------------------------|-----|-----|-----|-----|

-----|-----|-----|-----|-----|-----|-----|-----|-----|-----|-----|-----|
-----|-----|-----|-----|-----|-----|-----|-----|-----|-----|-----|-----|
-----|-----|-----|-----|-----|-----|-----|-----|-----|-----|-----|-----|
-----|-----|-----|-----|-----|-----|-----|-----|-----|-----|-----|-----|
-----|-----|-----|-----|-----|-----|-----|-----|-----|-----|-----|-----|
-----|-----|-----|-----|-----|-----|-----|-----|-----|-----|-----|-----|

  ^  v  ^  v  ^  v  ^  v     ^  v  ^  v  ^  v  ^  v   
  E  E  E  E  E  E  E  E     E  E  E  E  E  E  E  E   
--------------------------|--------------------------|
--------------4--4--4--4--|--------------2--2--2--2--|
--------------4--4--4--4--|--------------2--2--2--2--|
--0--0--0--0--------------|--0--0--0--0--------------|
--0--0--0--0--------------|--0--0--0--0--------------|
--0--0--0--0--------------|--0--0--0--0--------------|

  ^  v  ^  v  ^  v  ^  v     ^  v  ^  v  ^  v  ^  v   
  E  E  E  E  E  E  E  E     E  E  E  E  E  E  E  E   
--------------------------|--------------------------|
--------------0--0--0--0--|--------------------------|
--------------0--0--0--0--|--------------2--2--2--2--|
--0--0--0--0--------------|--0--0--0--0--x--x--x--x--|
--0--0--0--0--------------|--0--0--0--0--0--0--0--0--|
--0--0--0--0--------------|--0--0--0--0--------------|

  ^  v  ^  v  ^  v  ^  v     ^  v  ^  v  ^  v  ^  v   
  E  E  E  E  E  E  E  E     E  E  E  E  E  E  E  E   
--------------------------|--------------------------|
--------------4--4--4--4--|--------------2--2--2--2--|
--------------4--4--4--4--|--------------2--2--2--2--|
--0--0--0--0--------------|--0--0--0--0--------------|
--0--0--0--0--------------|--0--0--0--0--------------|
--0--0--0--0--------------|--0--0--0--0--------------|

  ^  v  ^  v  ^  v  ^  v     ^  v  ^  v  ^  v  ^  v   
  E  E  E  E  E  E  E  E     E  E  E  E  E  E  E  E   
--------------------------|--------------------------|
--------------0--0--0--0--|--------------------------|
--------------0--0--0--0--|--------------2--2--2--2--|
--0--0--0--0--------------|--0--0--0--0--x--x--x--x--|
--0--0--0--0--------------|--0--0--0--0--0--0--0--0--|
--0--0--0--0--------------|--0--0--0--0--------------|

  ^  v  ^  v  ^  v  ^  v     ^  v  ^  v  ^  v  ^  v   
  E  E  E  E  E  E  E  E     E  E  E  E  E  E  E  E   
--------------------------|--------------------------|
--------------4--4--4--4--|--------------2--2--2--2--|
--------------4--4--4--4--|--------------2--2--2--2--|
--0--0--0--0--------------|--0--0--0--0--------------|
--0--0--0--0--------------|--0--0--0--0--------------|
--0--0--0--0--------------|--0--0--0--0--------------|

  ^  v  ^  v  ^  v  ^  v     ^  v  ^  v  ^  v  ^  v   
  E  E  E  E  E  E  E  E     E  E  E  E  E  E  E  E   
--------------------------|--------------------------|
--------------0--0--0--0--|--------------------------|
--------------0--0--0--0--|--------------2--2--2--2--|
--0--0--0--0--------------|--0--0--0--0--x--x--x--x--|
--0--0--0--0--------------|--0--0--0--0--0--0--0--0--|
--0--0--0--0--------------|--0--0--0--0--------------|

  ^  v  ^  v  ^  v  ^  v     ^  v  ^  v  ^  v  ^  v   
  E  E  E  E  E  E  E  E     E  E  E  E  E  E  E  E   
--------------------------|--------------------------|
--------------4--4--4--4--|--------------2--2--2--2--|
--------------4--4--4--4--|--------------2--2--2--2--|
--0--0--0--0--------------|--0--0--0--0--------------|
--0--0--0--0--------------|--0--0--0--0--------------|
--0--0--0--0--------------|--0--0--0--0--------------|

  ^  v  ^  v  ^  v  ^  v     ^  v  ^  v  ^  v  ^  v    
  E  E  E  E  E  E  E  E     E  E  E  E  E  E  E  E    
--------------------------|--------------------------||
--------------0--0--0--0--|--------------------------||
--------------0--0--0--0--|--------------2--2--2--2--||
--0--0--0--0--------------|--0--0--0--0--x--x--x--x--||
--0--0--0--0--------------|--0--0--0--0--0--0--0--0--||
--0--0--0--0--------------|--0--0--0--0--------------||

Rhythm Guitar

D||-------|-------|-------|-------|-------|-------|-------|-------|-------|
A||-------|-------|-------|-------|-------|-------|-------|-------|-------|
F||-------|-------|-------|-------|-------|-------|-------|-------|-------|
C||-------|-------|-------|-------|-------|-------|-------|-------|-------|
G||-------|-------|-------|-------|-------|-------|-------|-------|-------|
C||-------|-------|-------|-------|-------|-------|-------|-------|-------|

                                                          PM   PM    
                                                          Q    Q     
-------|-------|-------|-------|-------|-------|-------|------------|
-------|-------|-------|-------|-------|-------|-------|------------|
-------|-------|-------|-------|-------|-------|-------|------------|
-------|-------|-------|-------|-------|-------|-------|------------|
-------|-------|-------|-------|-------|-------|-------|--0----0----|
-------|-------|-------|-------|-------|-------|-------|--0----0----|

  PM   PM      PM   PM      PM   PM      PM   PM      PM   PM      PM   PM    
  Q    Q       Q    Q       Q    Q       Q    Q       Q    Q       Q    Q     
------------|------------|------------|------------|------------|------------|
------------|------------|------------|------------|------------|------------|
------------|------------|------------|------------|------------|------------|
------------|------------|------------|------------|------------|------------|
--0----0----|--0----0----|--0----0----|--0----0----|--0----0----|--0----0----|
--0----0----|--0----0----|--0----0----|--0----0----|--0----0----|--0----0----|

  PM   PM      PM   PM      PM   PM      PM   PM      PM   PM      PM   PM    
  Q    Q       Q    Q       Q    Q       Q    Q       Q    Q       Q    Q     
------------|------------|------------|------------|------------|------------|
------------|------------|------------|------------|------------|------------|
------------|------------|------------|------------|------------|------------|
------------|------------|------------|------------|------------|------------|
--0----0----|--0----0----|--0----0----|--0----0----|--0----0----|--0----0----|
--0----0----|--0----0----|--0----0----|--0----0----|--0----0----|--0----0----|

  PM   PM      PM   PM      PM   PM      PM   PM      PM   PM      PM   PM    
  Q    Q       Q    Q       Q    Q       Q    Q       Q    Q       Q    Q     
------------|------------|------------|------------|------------|------------|
------------|------------|------------|------------|------------|------------|
------------|------------|------------|------------|------------|------------|
------------|------------|------------|------------|------------|------------|
--0----0----|--0----0----|--0----0----|--0----0----|--0----0----|--0----0----|
--0----0----|--0----0----|--0----0----|--0----0----|--0----0----|--0----0----|

  PM   PM      ^  v  ^  v     ^  v  ^  v     ^  v  ^  v     ^  v  ^  v   
  Q    Q       E  E  E  E     E  E  E  E     E  E  E  E     E  E  E  E   
------------|--------------|--------------|--------------|--------------|
------------|--------------|--------------|--------------|--------------|
------------|--------------|--------------|--------------|--------------|
------------|--0--0--0--0--|--0--0--0--0--|--0--0--0--0--|--0--0--0--0--|
--0----0----|--0--0--0--0--|--0--0--0--0--|--0--0--0--0--|--0--0--0--0--|
--0----0----|--0--0--0--0--|--0--0--0--0--|--0--0--0--0--|--0--0--0--0--|

  ^  v  ^  v     ^  v  ^  v     ^  v  ^  v     ^  v  ^  v     ^  v  ^  v   
  E  E  E  E     E  E  E  E     E  E  E  E     E  E  E  E     E  E  E  E   
--------------|--------------|--------------|--------------|--------------|
--------------|--------------|--------------|--------------|--------------|
--------------|--------------|--------------|--------------|--------------|
--0--0--0--0--|--0--0--0--0--|--0--0--0--0--|--0--0--0--0--|--0--0--0--0--|
--0--0--0--0--|--0--0--0--0--|--0--0--0--0--|--0--0--0--0--|--0--0--0--0--|
--0--0--0--0--|--0--0--0--0--|--0--0--0--0--|--0--0--0--0--|--0--0--0--0--|

  ^  v  ^  v     ^  v  ^  v     ^  v  ^  v     ^  v  ^  v     ^  v  ^  v   
  E  E  E  E     E  E  E  E     E  E  E  E     E  E  E  E     E  E  E  E   
--------------|--------------|--------------|--------------|--------------|
--------------|--------------|--------------|--------------|--------------|
--------------|--------------|--------------|--------------|--------------|
--0--0--0--0--|--0--0--0--0--|--0--0--0--0--|--0--0--0--0--|--0--0--0--0--|
--0--0--0--0--|--0--0--0--0--|--0--0--0--0--|--0--0--0--0--|--0--0--0--0--|
--0--0--0--0--|--0--0--0--0--|--0--0--0--0--|--0--0--0--0--|--0--0--0--0--|

  ^  v  ^  v     ^  v  ^  v     PM   PM      PM   PM      PM   PM    
  E  E  E  E     E  E  E  E     Q    Q       Q    Q       Q    Q     
--------------|--------------|------------|------------|------------|
--------------|--------------|------------|------------|------------|
--------------|--------------|------------|------------|------------|
--0--0--0--0--|--0--0--0--0--|------------|------------|------------|
--0--0--0--0--|--0--0--0--0--|--0----0----|--0----0----|--0----0----|
--0--0--0--0--|--0--0--0--0--|--0----0----|--0----0----|--0----0----|

  PM   PM      PM   PM      PM   PM      PM   PM      PM   PM      PM   PM    
  Q    Q       Q    Q       Q    Q       Q    Q       Q    Q       Q    Q     
------------|------------|------------|------------|------------|------------|
------------|------------|------------|------------|------------|------------|
------------|------------|------------|------------|------------|------------|
------------|------------|------------|------------|------------|------------|
--0----0----|--0----0----|--0----0----|--0----0----|--0----0----|--0----0----|
--0----0----|--0----0----|--0----0----|--0----0----|--0----0----|--0----0----|

  PM   PM      PM   PM      PM   PM      PM   PM      PM   PM      PM   PM    
  Q    Q       Q    Q       Q    Q       Q    Q       Q    Q       Q    Q     
------------|------------|------------|------------|------------|------------|
------------|------------|------------|------------|------------|------------|
------------|------------|------------|------------|------------|------------|
------------|------------|------------|------------|------------|------------|
--0----0----|--0----0----|--0----0----|--0----0----|--0----0----|--0----0----|
--0----0----|--0----0----|--0----0----|--0----0----|--0----0----|--0----0----|

  PM   PM      PM   PM      PM   PM      PM   PM      PM   PM      ^  v  ^  v   
  Q    Q       Q    Q       Q    Q       Q    Q       Q    Q       E  E  E  E   
------------|------------|------------|------------|------------|--------------|
------------|------------|------------|------------|------------|--------------|
------------|------------|------------|------------|------------|--------------|
------------|------------|------------|------------|------------|--0--0--0--0--|
--0----0----|--0----0----|--0----0----|--0----0----|--0----0----|--0--0--0--0--|
--0----0----|--0----0----|--0----0----|--0----0----|--0----0----|--0--0--0--0--|

  ^  v  ^  v     ^  v  ^  v     ^  v  ^  v     ^  v  ^  v     ^  v  ^  v   
  E  E  E  E     E  E  E  E     E  E  E  E     E  E  E  E     E  E  E  E   
--------------|--------------|--------------|--------------|--------------|
--------------|--------------|--------------|--------------|--------------|
--------------|--------------|--------------|--------------|--------------|
--0--0--0--0--|--0--0--0--0--|--0--0--0--0--|--0--0--0--0--|--0--0--0--0--|
--0--0--0--0--|--0--0--0--0--|--0--0--0--0--|--0--0--0--0--|--0--0--0--0--|
--0--0--0--0--|--0--0--0--0--|--0--0--0--0--|--0--0--0--0--|--0--0--0--0--|

  ^  v  ^  v     ^  v  ^  v     ^  v  ^  v     ^  v  ^  v     ^  v  ^  v   
  E  E  E  E     E  E  E  E     E  E  E  E     E  E  E  E     E  E  E  E   
--------------|--------------|--------------|--------------|--------------|
--------------|--------------|--------------|--------------|--------------|
--------------|--------------|--------------|--------------|--------------|
--0--0--0--0--|--0--0--0--0--|--0--0--0--0--|--0--0--0--0--|--0--0--0--0--|
--0--0--0--0--|--0--0--0--0--|--0--0--0--0--|--0--0--0--0--|--0--0--0--0--|
--0--0--0--0--|--0--0--0--0--|--0--0--0--0--|--0--0--0--0--|--0--0--0--0--|

  ^  v  ^  v     ^  v  ^  v     ^  v  ^  v     ^  v  ^  v     ^  v  ^  v   
  E  E  E  E     E  E  E  E     E  E  E  E     E  E  E  E     E  E  E  E   
--------------|--------------|--------------|--------------|--------------|
--------------|--------------|--------------|--------------|--------------|
--------------|--------------|--------------|--------------|--------------|
--0--0--0--0--|--0--0--0--0--|--0--0--0--0--|--0--0--0--0--|--0--0--0--0--|
--0--0--0--0--|--0--0--0--0--|--0--0--0--0--|--0--0--0--0--|--0--0--0--0--|
--0--0--0--0--|--0--0--0--0--|--0--0--0--0--|--0--0--0--0--|--0--0--0--0--|

   E   E   E   E   E   E   E   E     E  E  E  E  E  E  E  E   
----------------------------------|--------------------------|
----------------------------------|--------------------------|
--12--12--12--12--12--12--12--12--|--9--9--9--9--9--9--9--9--|
---x---x---x---x---x---x---x---x--|--x--x--x--x--x--x--x--x--|
---9---9---9---9---9---9---9---9--|--6--6--6--6--6--6--6--6--|
----------------------------------|--------------------------|

  E  E  E  E  E  E  E  E     E  E  E  E  E  E  E  E   
--------------------------|--------------------------|
--------------------------|--------------------------|
--7--7--7--7--7--7--7--7--|--5--5--5--5--5--5--5--5--|
--x--x--x--x--x--x--x--x--|--x--x--x--x--x--x--x--x--|
--4--4--4--4--4--4--4--4--|--2--2--2--2--2--2--2--2--|
--------------------------|--------------------------|

   E   E   E   E   E   E   E   E     E  E  E  E  E  E  E  E   
----------------------------------|--------------------------|
----------------------------------|--------------------------|
--12--12--12--12--12--12--12--12--|--9--9--9--9--9--9--9--9--|
---x---x---x---x---x---x---x---x--|--x--x--x--x--x--x--x--x--|
---9---9---9---9---9---9---9---9--|--6--6--6--6--6--6--6--6--|
----------------------------------|--------------------------|

  E  E  E  E  E  E  E  E     E  E  E  E  E  E  E  E   
--------------------------|--------------------------|
--------------------------|--------------------------|
--7--7--7--7--7--7--7--7--|--5--5--5--5--5--5--5--5--|
--x--x--x--x--x--x--x--x--|--x--x--x--x--x--x--x--x--|
--4--4--4--4--4--4--4--4--|--2--2--2--2--2--2--2--2--|
--------------------------|--------------------------|

   E   E   E   E   E   E   E   E     E  E  E  E  E  E  E  E   
----------------------------------|--------------------------|
----------------------------------|--------------------------|
--12--12--12--12--12--12--12--12--|--9--9--9--9--9--9--9--9--|
---x---x---x---x---x---x---x---x--|--x--x--x--x--x--x--x--x--|
---9---9---9---9---9---9---9---9--|--6--6--6--6--6--6--6--6--|
----------------------------------|--------------------------|

  E  E  E  E  E  E  E  E     E  E  E  E  E  E  E  E   
--------------------------|--------------------------|
--------------------------|--------------------------|
--7--7--7--7--7--7--7--7--|--5--5--5--5--5--5--5--5--|
--x--x--x--x--x--x--x--x--|--x--x--x--x--x--x--x--x--|
--4--4--4--4--4--4--4--4--|--2--2--2--2--2--2--2--2--|
--------------------------|--------------------------|

   E   E   E   E   E   E   E   E     E  E  E  E  E  E  E  E   
----------------------------------|--------------------------|
----------------------------------|--------------------------|
--12--12--12--12--12--12--12--12--|--9--9--9--9--9--9--9--9--|
---x---x---x---x---x---x---x---x--|--x--x--x--x--x--x--x--x--|
---9---9---9---9---9---9---9---9--|--6--6--6--6--6--6--6--6--|
----------------------------------|--------------------------|

  E  E  E  E  E  E  E  E     E  E  E  E  E  E  E  E                           
--------------------------|--------------------------|-----|-----|-----|-----|
--------------------------|--------------------------|-----|-----|-----|-----|
--7--7--7--7--7--7--7--7--|--5--5--5--5--5--5--5--5--|-----|-----|-----|-----|
--x--x--x--x--x--x--x--x--|--x--x--x--x--x--x--x--x--|-----|-----|-----|-----|
--4--4--4--4--4--4--4--4--|--2--2--2--2--2--2--2--2--|-----|-----|-----|-----|
--------------------------|--------------------------|-----|-----|-----|-----|

-----|-----|-----|-----|-----|-----|-----|-----|-----|-----|-----|-----|
-----|-----|-----|-----|-----|-----|-----|-----|-----|-----|-----|-----|
-----|-----|-----|-----|-----|-----|-----|-----|-----|-----|-----|-----|
-----|-----|-----|-----|-----|-----|-----|-----|-----|-----|-----|-----|
-----|-----|-----|-----|-----|-----|-----|-----|-----|-----|-----|-----|
-----|-----|-----|-----|-----|-----|-----|-----|-----|-----|-----|-----|

  ^  v  ^  v     ^  v  ^  v     ^  v  ^  v     ^  v  ^  v     ^  v  ^  v   
  E  E  E  E     E  E  E  E     E  E  E  E     E  E  E  E     E  E  E  E   
--------------|--------------|--------------|--------------|--------------|
--------------|--------------|--------------|--------------|--------------|
--------------|--------------|--------------|--------------|--------------|
--0--0--0--0--|--0--0--0--0--|--0--0--0--0--|--0--0--0--0--|--0--0--0--0--|
--0--0--0--0--|--0--0--0--0--|--0--0--0--0--|--0--0--0--0--|--0--0--0--0--|
--0--0--0--0--|--0--0--0--0--|--0--0--0--0--|--0--0--0--0--|--0--0--0--0--|

  ^  v  ^  v     ^  v  ^  v     ^  v  ^  v     ^  v  ^  v     ^  v  ^  v   
  E  E  E  E     E  E  E  E     E  E  E  E     E  E  E  E     E  E  E  E   
--------------|--------------|--------------|--------------|--------------|
--------------|--------------|--------------|--------------|--------------|
--------------|--------------|--------------|--------------|--------------|
--0--0--0--0--|--0--0--0--0--|--0--0--0--0--|--0--0--0--0--|--0--0--0--0--|
--0--0--0--0--|--0--0--0--0--|--0--0--0--0--|--0--0--0--0--|--0--0--0--0--|
--0--0--0--0--|--0--0--0--0--|--0--0--0--0--|--0--0--0--0--|--0--0--0--0--|

  ^  v  ^  v     ^  v  ^  v     ^  v  ^  v     ^  v  ^  v     ^  v  ^  v   
  E  E  E  E     E  E  E  E     E  E  E  E     E  E  E  E     E  E  E  E   
--------------|--------------|--------------|--------------|--------------|
--------------|--------------|--------------|--------------|--------------|
--------------|--------------|--------------|--------------|--------------|
--0--0--0--0--|--0--0--0--0--|--0--0--0--0--|--0--0--0--0--|--0--0--0--0--|
--0--0--0--0--|--0--0--0--0--|--0--0--0--0--|--0--0--0--0--|--0--0--0--0--|
--0--0--0--0--|--0--0--0--0--|--0--0--0--0--|--0--0--0--0--|--0--0--0--0--|

  ^  v  ^  v    
  E  E  E  E    
--------------||
--------------||
--------------||
--0--0--0--0--||
--0--0--0--0--||
--0--0--0--0--||

==========Birth Of A Demi-God==========

Lead Guitar

     PM PM PM PM PM PM PM PM    PM PM PM PM PM PM PM PM  
     E  E  E  E  E  E  E  E     E  E  E  E  E  E  E  E   
D||--------------------------|--------------------------|
A||--------------------------|--------------------------|
F||--------------------------|--------------------------|
C||--------------------------|--------------------------|
G||--------------------------|--------------------------|
C||--1--1--0--1--1--1--0--3--|--1--1--0--1--1--1--0--3--|
B||--1--1--0--1--1--1--0--3--|--1--1--0--1--1--1--0--3--|

  PM PM PM PM PM PM PM PM    PM PM PM PM PM PM PM PM  
  E  E  E  E  E  E  E  E     E  E  E  E  E  E  E  E   
--------------------------|--------------------------|
--------------------------|--------------------------|
--------------------------|--------------------------|
--------------------------|--------------------------|
--------------------------|--------------------------|
--1--1--0--1--1--1--0--3--|--1--1--0--1--1--1--0--3--|
--1--1--0--1--1--1--0--3--|--1--1--0--1--1--1--0--3--|

  PM PM PM PM PM PM PM PM    PM PM PM PM PM PM PM PM  
  E  E  E  E  E  E  E  E     E  E  E  E  E  E  E  E   
--------------------------|--------------------------|
--------------------------|--------------------------|
--------------------------|--------------------------|
--------------------------|--------------------------|
--------------------------|--------------------------|
--1--1--0--1--1--1--0--3--|--1--1--0--1--1--1--0--3--|
--1--1--0--1--1--1--0--3--|--1--1--0--1--1--1--0--3--|

  PM PM PM PM PM PM PM PM    PM PM PM PM PM PM PM PM  
  E  E  E  E  E  E  E  E     E  E  E  E  E  E  E  E   
--------------------------|--------------------------|
--------------------------|--------------------------|
--------------------------|--------------------------|
--------------------------|--------------------------|
--------------------------|--------------------------|
--1--1--0--1--1--1--0--3--|--1--1--0--1--1--1--0--3--|
--1--1--0--1--1--1--0--3--|--1--1--0--1--1--1--0--3--|

  PM PM PM PM PM PM PM PM    PM PM PM PM PM PM PM PM  
  E  E  E  E  E  E  E  E     E  E  E  E  E  E  E  E   
--------------------------|--------------------------|
--------------------------|--------------------------|
--------------------------|--------------------------|
--------------------------|--------------------------|
--------------------------|--------------------------|
--1--1--0--1--1--1--0--3--|--1--1--0--1--1--1--0--3--|
--1--1--0--1--1--1--0--3--|--1--1--0--1--1--1--0--3--|

  PM PM PM PM PM PM PM PM    PM PM PM PM PM PM PM PM  
  E  E  E  E  E  E  E  E     E  E  E  E  E  E  E  E   
--------------------------|--------------------------|
--------------------------|--------------------------|
--------------------------|--------------------------|
--------------------------|--------------------------|
--------------------------|--------------------------|
--1--1--0--1--1--1--0--3--|--1--1--0--1--1--1--0--3--|
--1--1--0--1--1--1--0--3--|--1--1--0--1--1--1--0--3--|

  PM PM PM PM PM PM PM PM    PM PM PM PM PM PM PM PM  
  E  E  E  E  E  E  E  E     E  E  E  E  E  E  E  E   
--------------------------|--------------------------|
--------------------------|--------------------------|
--------------------------|--------------------------|
--------------------------|--------------------------|
--------------------------|--------------------------|
--1--1--0--1--1--1--0--3--|--1--1--0--1--1--1--0--3--|
--1--1--0--1--1--1--0--3--|--1--1--0--1--1--1--0--3--|

  PM PM PM PM PM PM PM PM    PM PM PM PM              
  E  E  E  E  E  E  E  E     E  E  E  E  E  E  E  E   
--------------------------|--------------------------|
--------------------------|--------------------------|
--------------------------|--------------------------|
--------------------------|--------------------------|
--------------------------|--------------------------|
--1--1--0--1--1--1--0--3--|--1--1--0--1--1--1--0--3--|
--1--1--0--1--1--1--0--3--|--1--1--0--1--1--1--0--3--|

  E  E  E  E  E  E  E  E     E  E  E  E  E  E  E  E   
--------------------------|--------------------------|
--------------------------|--------------------------|
--------------------------|--------------------------|
--------------------------|--------------------------|
--------------------------|--------------------------|
--2--2--0--2--3--3--4--4--|--2--2--0--2--3--3--4--4--|
--2--2--0--2--3--3--4--4--|--2--2--0--2--3--3--4--4--|

  E  E  E  E  E  E  E  E     E  E  E  E     Q      Q     
--------------------------|-----------------------------|
--------------------------|--------------<>12----<>7----|
--------------------------|-----------------------------|
--------------------------|-----------------------------|
--------------------------|-----------------------------|
--2--2--0--2--3--3--4--4--|--2--2--0--2-----------------|
--2--2--0--2--3--3--4--4--|--2--2--0--2-----------------|

  E  E  E  E  E  E  E  E     E  E  E  E  E  E  E  E   
--------------------------|--------------------------|
--------------------------|--------------------------|
--------------------------|--------------------------|
--------------------------|--------------------------|
--------------------------|--------------------------|
--2--2--0--2--3--3--4--4--|--2--2--0--2--3--3--4--4--|
--2--2--0--2--3--3--4--4--|--2--2--0--2--3--3--4--4--|

  E  E  E  E  E  E  E  E     E  E  E  E     Q      Q     
--------------------------|-----------------------------|
--------------------------|--------------<>12----<>7----|
--------------------------|-----------------------------|
--------------------------|-----------------------------|
--------------------------|-----------------------------|
--2--2--0--2--3--3--4--4--|--2--2--0--2-----------------|
--2--2--0--2--3--3--4--4--|--2--2--0--2-----------------|

  E  E  E  E  E  E  E  E     E  E  E  E  E  E  E  E   
--------------------------|--------------------------|
--------------------------|--------------------------|
--------------------------|--------------------------|
--------------------------|--------------------------|
--------------------------|--------------------------|
--2--2--0--2--3--3--4--4--|--2--2--0--2--3--3--4--4--|
--2--2--0--2--3--3--4--4--|--2--2--0--2--3--3--4--4--|

  E  E  E  E  E  E  E  E     E  E  E  E     Q      Q     
--------------------------|-----------------------------|
--------------------------|--------------<>12----<>7----|
--------------------------|-----------------------------|
--------------------------|-----------------------------|
--------------------------|-----------------------------|
--2--2--0--2--3--3--4--4--|--2--2--0--2-----------------|
--2--2--0--2--3--3--4--4--|--2--2--0--2-----------------|

  E  E  E  E  E  E  E  E     E  E  E  E  E  E  E  E   
--------------------------|--------------------------|
--------------------------|--------------------------|
--------------------------|--------------------------|
--------------------------|--------------------------|
--------------------------|--------------------------|
--2--2--0--2--3--3--4--4--|--2--2--0--2--3--3--4--4--|
--2--2--0--2--3--3--4--4--|--2--2--0--2--3--3--4--4--|

  E  E  E  E  E  E  E  E     E  E  E  E     Q      Q         W                  
--------------------------|-----------------------------|----------------------|
--------------------------|--------------<>12----<>7----|--<>7s----------------|
--------------------------|-----------------------------|--<>7s----------------|
--------------------------|-----------------------------|--<>7s----------------|
--------------------------|-----------------------------|----------------------|
--2--2--0--2--3--3--4--4--|--2--2--0--2-----------------|----------------------|
--2--2--0--2--3--3--4--4--|--2--2--0--2-----------------|----------------------|

     W                       W                        W                  
-----------------------|------------------------|-----------------------|
--<>(7)----------------|--<>(7)s----------------|--<>(7)----------------|
--<>(7)----------------|--<>(7)s----------------|--<>(7)----------------|
--<>(7)----------------|--<>(7)s----------------|--<>(7)----------------|
-----------------------|------------------------|-----------------------|
-----------------------|------------------------|-----------------------|
-----------------------|------------------------|-----------------------|

     W                        W                       W                   
------------------------|-----------------------|------------------------|
--<>(7)s----------------|--<>(7)----------------|--<>(7)s----------------|
--<>(7)s----------------|--<>(7)----------------|--<>(7)s----------------|
--<>(7)s----------------|--<>(7)----------------|--<>(7)s----------------|
------------------------|-----------------------|------------------------|
------------------------|-----------------------|------------------------|
------------------------|-----------------------|------------------------|

     W                       W                        W                  
-----------------------|------------------------|-----------------------|
--<>(7)----------------|--<>(7)s----------------|--<>(7)----------------|
--<>(7)----------------|--<>(7)s----------------|--<>(7)----------------|
--<>(7)----------------|--<>(7)s----------------|--<>(7)----------------|
-----------------------|------------------------|-----------------------|
-----------------------|------------------------|-----------------------|
-----------------------|------------------------|-----------------------|

     W                        W                       W                   
------------------------|-----------------------|------------------------|
--<>(7)s----------------|--<>(7)----------------|--<>(7)s----------------|
--<>(7)s----------------|--<>(7)----------------|--<>(7)s----------------|
--<>(7)s----------------|--<>(7)----------------|--<>(7)s----------------|
------------------------|-----------------------|------------------------|
------------------------|-----------------------|------------------------|
------------------------|-----------------------|------------------------|

     W                       W                        W                   
-----------------------|------------------------|------------------------|
--<>(7)----------------|--<>(7)s----------------|--<>(7)b----------------|
--<>(7)----------------|--<>(7)s----------------|--<>(7)b----------------|
--<>(7)----------------|--<>(7)s----------------|--<>(7)b----------------|
-----------------------|------------------------|------------------------|
-----------------------|------------------------|------------------------|
-----------------------|------------------------|------------------------|

-------------------|-------------------|-------------------|-------------------|
-------------------|-------------------|-------------------|-------------------|
-------------------|-------------------|-------------------|-------------------|
-------------------|-------------------|-------------------|-------------------|
-------------------|-------------------|-------------------|-------------------|
-------------------|-------------------|-------------------|-------------------|
-------------------|-------------------|-------------------|-------------------|

-------------------|-------------------|-------------------|-------------------|
-------------------|-------------------|-------------------|-------------------|
-------------------|-------------------|-------------------|-------------------|
-------------------|-------------------|-------------------|-------------------|
-------------------|-------------------|-------------------|-------------------|
-------------------|-------------------|-------------------|-------------------|
-------------------|-------------------|-------------------|-------------------|

  E  E  E  E  E  E  E  E     E  E  E  E  E  E  E  E   
--------------------------|--------------------------|
--------------------------|--------------------------|
--------------------------|--------------------------|
--------------------------|--------------------------|
--------------------------|--------------------------|
--2--2--0--2--3--3--4--4--|--2--2--0--2--3--3--4--4--|
--2--2--0--2--3--3--4--4--|--2--2--0--2--3--3--4--4--|

  E  E  E  E  E  E  E  E     E  E  E  E     Q      Q     
--------------------------|-----------------------------|
--------------------------|--------------<>12----<>7----|
--------------------------|-----------------------------|
--------------------------|-----------------------------|
--------------------------|-----------------------------|
--2--2--0--2--3--3--4--4--|--2--2--0--2-----------------|
--2--2--0--2--3--3--4--4--|--2--2--0--2-----------------|

  E  E  E  E  E  E  E  E     E  E  E  E  E  E  E  E   
--------------------------|--------------------------|
--------------------------|--------------------------|
--------------------------|--------------------------|
--------------------------|--------------------------|
--------------------------|--------------------------|
--2--2--0--2--3--3--4--4--|--2--2--0--2--3--3--4--4--|
--2--2--0--2--3--3--4--4--|--2--2--0--2--3--3--4--4--|

  E  E  E  E  E  E  E  E     E  E  E  E     Q      Q       W                 
--------------------------|-----------------------------|-------------------|
--------------------------|--------------<>12----<>7----|-------------------|
--------------------------|-----------------------------|--9----------------|
--------------------------|-----------------------------|--9----------------|
--------------------------|-----------------------------|--7----------------|
--2--2--0--2--3--3--4--4--|--2--2--0--2-----------------|-------------------|
--2--2--0--2--3--3--4--4--|--2--2--0--2-----------------|-------------------|

-------------------|-------------------|-------------------|-------------------|
-------------------|-------------------|-------------------|-------------------|
-------------------|-------------------|-------------------|-------------------|
-------------------|-------------------|-------------------|-------------------|
-------------------|-------------------|-------------------|-------------------|
-------------------|-------------------|-------------------|-------------------|
-------------------|-------------------|-------------------|-------------------|

-------------------|-------------------|-------------------|
-------------------|-------------------|-------------------|
-------------------|-------------------|-------------------|
-------------------|-------------------|-------------------|
-------------------|-------------------|-------------------|
-------------------|-------------------|-------------------|
-------------------|-------------------|-------------------|

  E  E  E  E  E  E  E  E     E  E  E  E  E  E  E  E   
--------------------------|--------------------------|
--------------------------|--------------------------|
--------------------------|--------------------------|
--------------------------|--------------------------|
--------------------------|--------------------------|
--2--2--0--2--3--3--4--4--|--2--2--0--2--3--3--4--4--|
--2--2--0--2--3--3--4--4--|--2--2--0--2--3--3--4--4--|

  E  E  E  E  E  E  E  E     E  E  E  E     Q      Q     
--------------------------|-----------------------------|
--------------------------|--------------<>12----<>7----|
--------------------------|-----------------------------|
--------------------------|-----------------------------|
--------------------------|-----------------------------|
--2--2--0--2--3--3--4--4--|--2--2--0--2-----------------|
--2--2--0--2--3--3--4--4--|--2--2--0--2-----------------|

  E  E  E  E  E  E  E  E     E  E  E  E  E  E  E  E   
--------------------------|--------------------------|
--------------------------|--------------------------|
--------------------------|--------------------------|
--------------------------|--------------------------|
--------------------------|--------------------------|
--2--2--0--2--3--3--4--4--|--2--2--0--2--3--3--4--4--|
--2--2--0--2--3--3--4--4--|--2--2--0--2--3--3--4--4--|

  E  E  E  E  E  E  E  E     E  E  E  E     Q      Q     
--------------------------|-----------------------------|
--------------------------|--------------<>12----<>7----|
--------------------------|-----------------------------|
--------------------------|-----------------------------|
--------------------------|-----------------------------|
--2--2--0--2--3--3--4--4--|--2--2--0--2-----------------|
--2--2--0--2--3--3--4--4--|--2--2--0--2-----------------|

  E  E  E  E  E  E  E  E     E  E  E  E  E  E  E  E   
--------------------------|--------------------------|
--------------------------|--------------------------|
--------------------------|--------------------------|
--------------7--7--5--5--|--------------7--7--5--5--|
--2--2--2--2--x--x--x--x--|--2--2--2--2--x--x--x--x--|
--2--2--2--2--3--3--3--3--|--2--2--2--2--3--3--3--3--|
--0--0--0--0--------------|--0--0--0--0--------------|

  E  E  E  E  E  E  E  E     E  E  E  E  E  E  E  E   
--------------------------|--------------------------|
--------------------------|--------------------------|
--------------------------|--------------------------|
--------------7--7--5--5--|--3--3--3--3--2--2--2--2--|
--2--2--2--2--x--x--x--x--|--3--3--3--3--2--2--2--2--|
--2--2--2--2--3--3--3--3--|--1--1--1--1--0--0--0--0--|
--0--0--0--0--------------|--------------------------|

  E  E  E  E  E  E  E  E     E  E  E  E  E  E  E  E   
--------------------------|--------------------------|
--------------------------|--------------------------|
--------------------------|--------------------------|
--------------7--7--5--5--|--------------7--7--5--5--|
--2--2--2--2--x--x--x--x--|--2--2--2--2--x--x--x--x--|
--2--2--2--2--3--3--3--3--|--2--2--2--2--3--3--3--3--|
--0--0--0--0--------------|--0--0--0--0--------------|

                                PM PM PM    PM    PM  
  E  E  E  E  E  E  E  E     E  E  E  E  E  E  E  E   
--------------------------|--------------------------|
--------------------------|--------------------------|
--------------------------|--------------------------|
--------------7--7--5--5--|--------------------------|
--2--2--2--2--x--x--x--x--|--5--5--5--5--3--3--2--2--|
--2--2--2--2--3--3--3--3--|--5--5--5--5--3--3--2--2--|
--0--0--0--0--------------|--5--5--5--5--3--3--2--2--|

  E  E  E  E  E  E  E  E     E  E  E  E  E  E  E  E   
--------------------------|--------------------------|
--------------------------|--------------------------|
--------------------------|--------------------------|
--------------------------|--------------------------|
--------------------------|--------------------------|
--2--2--0--2--3--3--4--4--|--2--2--0--2--3--3--4--4--|
--2--2--0--2--3--3--4--4--|--2--2--0--2--3--3--4--4--|

  E  E  E  E  E  E  E  E     E  E  E  E     Q      Q     
--------------------------|-----------------------------|
--------------------------|--------------<>12----<>7----|
--------------------------|-----------------------------|
--------------------------|-----------------------------|
--------------------------|-----------------------------|
--2--2--0--2--3--3--4--4--|--2--2--0--2-----------------|
--2--2--0--2--3--3--4--4--|--2--2--0--2-----------------|

  E  E  E  E  E  E  E  E     E  E  E  E  E  E  E  E   
--------------------------|--------------------------|
--------------------------|--------------------------|
--------------------------|--------------------------|
--------------------------|--------------------------|
--------------------------|--------------------------|
--2--2--0--2--3--3--4--4--|--2--2--0--2--3--3--4--4--|
--2--2--0--2--3--3--4--4--|--2--2--0--2--3--3--4--4--|

  E  E  E  E  E  E  E  E     E  E  E  E     Q      Q     
--------------------------|-----------------------------|
--------------------------|--------------<>12----<>7----|
--------------------------|-----------------------------|
--------------------------|-----------------------------|
--------------------------|-----------------------------|
--2--2--0--2--3--3--4--4--|--2--2--0--2-----------------|
--2--2--0--2--3--3--4--4--|--2--2--0--2-----------------|

  E  E  E  E  E  E  E  E     E  E  E  E  E  E  E  E   
--------------------------|--------------------------|
--------------------------|--------------------------|
--------------------------|--------------------------|
--------------------------|--------------------------|
--------------------------|--------------------------|
--2--2--0--2--3--3--4--4--|--2--2--0--2--3--3--4--4--|
--2--2--0--2--3--3--4--4--|--2--2--0--2--3--3--4--4--|

  E  E  E  E  E  E  E  E     E  E  E  E     Q      Q     
--------------------------|-----------------------------|
--------------------------|--------------<>12----<>7----|
--------------------------|-----------------------------|
--------------------------|-----------------------------|
--------------------------|-----------------------------|
--2--2--0--2--3--3--4--4--|--2--2--0--2-----------------|
--2--2--0--2--3--3--4--4--|--2--2--0--2-----------------|

  E  E  E  E  E  E  E  E     E  E  E  E  E  E  E  E   
--------------------------|--------------------------|
--------------------------|--------------------------|
--------------------------|--------------------------|
--------------------------|--------------------------|
--------------------------|--------------------------|
--2--2--0--2--3--3--4--4--|--2--2--0--2--3--3--4--4--|
--2--2--0--2--3--3--4--4--|--2--2--0--2--3--3--4--4--|

  E  E  E  E  E  E  E  E     E  E  E  E     Q      Q         W                  
--------------------------|-----------------------------|----------------------|
--------------------------|--------------<>12----<>7----|--<>7s----------------|
--------------------------|-----------------------------|--<>7s----------------|
--------------------------|-----------------------------|--<>7s----------------|
--------------------------|-----------------------------|----------------------|
--2--2--0--2--3--3--4--4--|--2--2--0--2-----------------|----------------------|
--2--2--0--2--3--3--4--4--|--2--2--0--2-----------------|----------------------|

     W                       W                        W                  
-----------------------|------------------------|-----------------------|
--<>(7)----------------|--<>(7)s----------------|--<>(7)----------------|
--<>(7)----------------|--<>(7)s----------------|--<>(7)----------------|
--<>(7)----------------|--<>(7)s----------------|--<>(7)----------------|
-----------------------|------------------------|-----------------------|
-----------------------|------------------------|-----------------------|
-----------------------|------------------------|-----------------------|

     W                        W                       W                   
------------------------|-----------------------|------------------------|
--<>(7)s----------------|--<>(7)----------------|--<>(7)s----------------|
--<>(7)s----------------|--<>(7)----------------|--<>(7)s----------------|
--<>(7)s----------------|--<>(7)----------------|--<>(7)s----------------|
------------------------|-----------------------|------------------------|
------------------------|-----------------------|------------------------|
------------------------|-----------------------|------------------------|

     W                       W                        W                  
-----------------------|------------------------|-----------------------|
--<>(7)----------------|--<>(7)s----------------|--<>(7)----------------|
--<>(7)----------------|--<>(7)s----------------|--<>(7)----------------|
--<>(7)----------------|--<>(7)s----------------|--<>(7)----------------|
-----------------------|------------------------|-----------------------|
-----------------------|------------------------|-----------------------|
-----------------------|------------------------|-----------------------|

     W                        W                       W                   
------------------------|-----------------------|------------------------|
--<>(7)s----------------|--<>(7)----------------|--<>(7)s----------------|
--<>(7)s----------------|--<>(7)----------------|--<>(7)s----------------|
--<>(7)s----------------|--<>(7)----------------|--<>(7)s----------------|
------------------------|-----------------------|------------------------|
------------------------|-----------------------|------------------------|
------------------------|-----------------------|------------------------|

     W                       W                        W                   
-----------------------|------------------------|------------------------|
--<>(7)----------------|--<>(7)s----------------|--<>(7)b----------------|
--<>(7)----------------|--<>(7)s----------------|--<>(7)b----------------|
--<>(7)----------------|--<>(7)s----------------|--<>(7)b----------------|
-----------------------|------------------------|------------------------|
-----------------------|------------------------|------------------------|
-----------------------|------------------------|------------------------|

-------------------|-------------------|-------------------|-------------------|
-------------------|-------------------|-------------------|-------------------|
-------------------|-------------------|-------------------|-------------------|
-------------------|-------------------|-------------------|-------------------|
-------------------|-------------------|-------------------|-------------------|
-------------------|-------------------|-------------------|-------------------|
-------------------|-------------------|-------------------|-------------------|

-------------------|-------------------|-------------------|-------------------|
-------------------|-------------------|-------------------|-------------------|
-------------------|-------------------|-------------------|-------------------|
-------------------|-------------------|-------------------|-------------------|
-------------------|-------------------|-------------------|-------------------|
-------------------|-------------------|-------------------|-------------------|
-------------------|-------------------|-------------------|-------------------|

  E  E  E  E  E  E  E  E     E  E  E  E  E  E  E  E   
--------------------------|--------------------------|
--------------------------|--------------------------|
--------------------------|--------------------------|
--------------------------|--------------------------|
--------------------------|--------------------------|
--2--2--0--2--3--3--4--4--|--2--2--0--2--3--3--4--4--|
--2--2--0--2--3--3--4--4--|--2--2--0--2--3--3--4--4--|

  E  E  E  E  E  E  E  E     E  E  E  E     Q      Q     
--------------------------|-----------------------------|
--------------------------|--------------<>12----<>7----|
--------------------------|-----------------------------|
--------------------------|-----------------------------|
--------------------------|-----------------------------|
--2--2--0--2--3--3--4--4--|--2--2--0--2-----------------|
--2--2--0--2--3--3--4--4--|--2--2--0--2-----------------|

  E  E  E  E  E  E  E  E     E  E  E  E  E  E  E  E   
--------------------------|--------------------------|
--------------------------|--------------------------|
--------------------------|--------------------------|
--------------------------|--------------------------|
--------------------------|--------------------------|
--2--2--0--2--3--3--4--4--|--2--2--0--2--3--3--4--4--|
--2--2--0--2--3--3--4--4--|--2--2--0--2--3--3--4--4--|

  E  E  E  E  E  E  E  E     E  E  E  E     Q      Q       W                 
--------------------------|-----------------------------|-------------------|
--------------------------|--------------<>12----<>7----|-------------------|
--------------------------|-----------------------------|--9----------------|
--------------------------|-----------------------------|--9----------------|
--------------------------|-----------------------------|--7----------------|
--2--2--0--2--3--3--4--4--|--2--2--0--2-----------------|-------------------|
--2--2--0--2--3--3--4--4--|--2--2--0--2-----------------|-------------------|

-------------------|-------------------|-------------------|-------------------|
-------------------|-------------------|-------------------|-------------------|
-------------------|-------------------|-------------------|-------------------|
-------------------|-------------------|-------------------|-------------------|
-------------------|-------------------|-------------------|-------------------|
-------------------|-------------------|-------------------|-------------------|
-------------------|-------------------|-------------------|-------------------|

-------------------|-------------------|-------------------|
-------------------|-------------------|-------------------|
-------------------|-------------------|-------------------|
-------------------|-------------------|-------------------|
-------------------|-------------------|-------------------|
-------------------|-------------------|-------------------|
-------------------|-------------------|-------------------|

  E  E  E  E  E  E  E  E     E  E  E  E  E  E  E  E   
--------------------------|--------------------------|
--------------------------|--------------------------|
--------------------------|--------------------------|
--------------------------|--------------------------|
--------------------------|--------------------------|
--2--2--0--2--3--3--4--4--|--2--2--0--2--3--3--4--4--|
--2--2--0--2--3--3--4--4--|--2--2--0--2--3--3--4--4--|

  E  E  E  E  E  E  E  E     E  E  E  E     Q      Q     
--------------------------|-----------------------------|
--------------------------|--------------<>12----<>7----|
--------------------------|-----------------------------|
--------------------------|-----------------------------|
--------------------------|-----------------------------|
--2--2--0--2--3--3--4--4--|--2--2--0--2-----------------|
--2--2--0--2--3--3--4--4--|--2--2--0--2-----------------|

  E  E  E  E  E  E  E  E     E  E  E  E  E  E  E  E   
--------------------------|--------------------------|
--------------------------|--------------------------|
--------------------------|--------------------------|
--------------------------|--------------------------|
--------------------------|--------------------------|
--2--2--0--2--3--3--4--4--|--2--2--0--2--3--3--4--4--|
--2--2--0--2--3--3--4--4--|--2--2--0--2--3--3--4--4--|

  E  E  E  E  E  E  E  E     E  E  E  E     Q      Q     
--------------------------|-----------------------------|
--------------------------|--------------<>12----<>7----|
--------------------------|-----------------------------|
--------------------------|-----------------------------|
--------------------------|-----------------------------|
--2--2--0--2--3--3--4--4--|--2--2--0--2-----------------|
--2--2--0--2--3--3--4--4--|--2--2--0--2-----------------|

  E  E  E  E  E  E  E  E     E  E  E  E  E  E  E  E   
--------------------------|--------------------------|
--------------------------|--------------------------|
--------------------------|--------------------------|
--------------7--7--5--5--|--------------7--7--5--5--|
--2--2--2--2--x--x--x--x--|--2--2--2--2--x--x--x--x--|
--2--2--2--2--3--3--3--3--|--2--2--2--2--3--3--3--3--|
--0--0--0--0--------------|--0--0--0--0--------------|

  E  E  E  E  E  E  E  E     E  E  E  E  E  E  E  E   
--------------------------|--------------------------|
--------------------------|--------------------------|
--------------------------|--------------------------|
--------------7--7--5--5--|--3--3--3--3--2--2--2--2--|
--2--2--2--2--x--x--x--x--|--3--3--3--3--2--2--2--2--|
--2--2--2--2--3--3--3--3--|--1--1--1--1--0--0--0--0--|
--0--0--0--0--------------|--------------------------|

  E  E  E  E  E  E  E  E     E  E  E  E  E  E  E  E   
--------------------------|--------------------------|
--------------------------|--------------------------|
--------------------------|--------------------------|
--------------7--7--5--5--|--------------7--7--5--5--|
--2--2--2--2--x--x--x--x--|--2--2--2--2--x--x--x--x--|
--2--2--2--2--3--3--3--3--|--2--2--2--2--3--3--3--3--|
--0--0--0--0--------------|--0--0--0--0--------------|

                                PM PM PM    PM    PM  
  E  E  E  E  E  E  E  E     E  E  E  E  E  E  E  E   
--------------------------|--------------------------|
--------------------------|--------------------------|
--------------------------|--------------------------|
--------------7--7--5--5--|--------------------------|
--2--2--2--2--x--x--x--x--|--5--5--5--5--3--3--2--2--|
--2--2--2--2--3--3--3--3--|--5--5--5--5--3--3--2--2--|
--0--0--0--0--------------|--5--5--5--5--3--3--2--2--|

  E  E  E  E  E  E  E  E     E  E  E  E  E  E  E  E   
--------------------------|--------------------------|
--------------------------|--------------------------|
--------------------------|--------------------------|
--------------------------|--------------------------|
--0--0--------0--3--2--3--|--0--0--------0--3--2--3--|
--0--0--------0--3--2--3--|--0--0--------0--3--2--3--|
--0--0--------0--3--2--3--|--0--0--------0--3--2--3--|

  E  E  E  E  E  E  E  E     E  E  E  E  E  E  E  E   
--------------------------|--------------------------|
--------------------------|--------------------------|
--------------------------|--------------------------|
--------------------------|--------------------------|
--0--0--------0--3--2--3--|--0--0--------0--3--2--3--|
--0--0--------0--3--2--3--|--0--0--------0--3--2--3--|
--0--0--------0--3--2--3--|--0--0--------0--3--2--3--|

  E  E  E  E  E  E  E  E     E  E  E  E  E  E  E  E   
--------------------------|--------------------------|
--------------------------|--------------------------|
--------------------------|--------------------------|
--------------------------|--------------------------|
--0--0--------0--3--2--3--|--0--0--------0--3--2--3--|
--0--0--------0--3--2--3--|--0--0--------0--3--2--3--|
--0--0--------0--3--2--3--|--0--0--------0--3--2--3--|

  E  E  E  E  E  E  E  E     E  E  E  E  E  E  E  E   
--------------------------|--------------------------|
--------------------------|--------------------------|
--------------------------|--------------------------|
--------------------------|--------------------------|
--0--0--------0--3--2--3--|--0--0--------0--3--2--3--|
--0--0--------0--3--2--3--|--0--0--------0--3--2--3--|
--0--0--------0--3--2--3--|--0--0--------0--3--2--3--|

  E  E  E  E  E  E  E  E     E  E  E  E  E  E  E  E   
--------------------------|--------------------------|
--------------------------|--------------------------|
--------------------------|--------------------------|
--------------------------|--------------------------|
--0--0--------0--3--2--3--|--0--0--------0--3--2--3--|
--0--0--------0--3--2--3--|--0--0--------0--3--2--3--|
--0--0--------0--3--2--3--|--0--0--------0--3--2--3--|

  E  E  E  E  E  E  E  E     E  E  E  E  E  E  E  E   
--------------------------|--------------------------|
--------------------------|--------------------------|
--------------------------|--------------------------|
--------------------------|--------------------------|
--0--0--------0--3--2--3--|--0--0--------0--3--2--3--|
--0--0--------0--3--2--3--|--0--0--------0--3--2--3--|
--0--0--------0--3--2--3--|--0--0--------0--3--2--3--|

  E  E  E  E  E  E  E  E     E  E  E  E  E  E  E  E   
--------------------------|--------------------------|
--------------------------|--------------------------|
--------------------------|--------------------------|
--------------------------|--------------------------|
--0--0--------0--3--2--3--|--0--0--------0--3--2--3--|
--0--0--------0--3--2--3--|--0--0--------0--3--2--3--|
--0--0--------0--3--2--3--|--0--0--------0--3--2--3--|

  E  E  E  E  E  E  E  E     E  E  E  E  E  E  E  E   
--------------------------|--------------------------|
--------------------------|--------------------------|
--------------------------|--------------------------|
--------------------------|--------------------------|
--0--0--------0--3--2--3--|--0--0--------0--3--2--3--|
--0--0--------0--3--2--3--|--0--0--------0--3--2--3--|
--0--0--------0--3--2--3--|--0--0--------0--3--2--3--|

  E  E  E  E  E  E  E  E     E  E  E  E  E  E  E  E   
--------------------------|--------------------------|
--------------------------|--------------------------|
--------------------------|--------------------------|
--------------------------|--------------------------|
--0--0--------0--3--2--3--|--0--0--------0--3--2--3--|
--0--0--------0--3--2--3--|--0--0--------0--3--2--3--|
--0--0--------0--3--2--3--|--0--0--------0--3--2--3--|

  E  E  E  E  E  E  E  E     E  E  E  E  E  E  E  E   
--------------------------|--------------------------|
--------------------------|--------------------------|
--------------------------|--------------------------|
--------------------------|--------------------------|
--0--0--------0--3--2--3--|--0--0--------0--3--2--3--|
--0--0--------0--3--2--3--|--0--0--------0--3--2--3--|
--0--0--------0--3--2--3--|--0--0--------0--3--2--3--|

  E  E  E  E  E  E  E  E     E  E  E  E  E  E  E  E   
--------------------------|--------------------------|
--------------------------|--------------------------|
--------------------------|--------------------------|
--------------------------|--------------------------|
--0--0--------0--3--2--3--|--0--0--------0--3--2--3--|
--0--0--------0--3--2--3--|--0--0--------0--3--2--3--|
--0--0--------0--3--2--3--|--0--0--------0--3--2--3--|

  E  E  E  E  E  E  E  E     E  E  E  E  E  E  E  E   
--------------------------|--------------------------|
--------------------------|--------------------------|
--------------------------|--------------------------|
--------------------------|--------------------------|
--0--0--------0--3--2--3--|--0--0--------0--3--2--3--|
--0--0--------0--3--2--3--|--0--0--------0--3--2--3--|
--0--0--------0--3--2--3--|--0--0--------0--3--2--3--|

  E  E  E  E  E  E  E  E     E  E  E  E  E  E  E  E   
--------------------------|--------------------------|
--------------------------|--------------------------|
--------------------------|--------------------------|
--------------------------|--------------------------|
--0--0--------0--3--2--3--|--0--0--------0--3--2--3--|
--0--0--------0--3--2--3--|--0--0--------0--3--2--3--|
--0--0--------0--3--2--3--|--0--0--------0--3--2--3--|

  E  E  E  E  E  E  E  E     E  E  E  E  E  E  E  E   
--------------------------|--------------------------|
--------------------------|--------------------------|
--------------------------|--------------------------|
--------------------------|--------------------------|
--0--0--------0--3--2--3--|--0--0--------0--3--2--3--|
--0--0--------0--3--2--3--|--0--0--------0--3--2--3--|
--0--0--------0--3--2--3--|--0--0--------0--3--2--3--|

  E  E  E  E  E  E  E  E     E  E  E  E  E  E  E  E   
--------------------------|--------------------------|
--------------------------|--------------------------|
--------------------------|--------------------------|
--------------------------|--------------------------|
--0--0--------0--3--2--3--|--0--0--------0--3--2--3--|
--0--0--------0--3--2--3--|--0--0--------0--3--2--3--|
--0--0--------0--3--2--3--|--0--0--------0--3--2--3--|

  E  E  E  E  E  E  E  E     E  E  E  E  E  E  E  E   
--------------------------|--------------------------|
--------------------------|--------------------------|
--------------------------|--------------------------|
--------------------------|--------------------------|
--0--0--------0--3--2--3--|--0--0--------0--3--2--3--|
--0--0--------0--3--2--3--|--0--0--------0--3--2--3--|
--0--0--------0--3--2--3--|--0--0--------0--3--2--3--|

  E  E  E  E  E  E  E  E     E  E  E  E  E  E  E  E   
--------------------------|--------------------------|
--------------------------|--------------------------|
--------------------------|--------------------------|
--------------------------|--------------------------|
--0--0--------0--3--2--3--|--0--0--------0--3--2--3--|
--0--0--------0--3--2--3--|--0--0--------0--3--2--3--|
--0--0--------0--3--2--3--|--0--0--------0--3--2--3--|

  E  E  E  E  E  E  E  E     E  E  E  E  E  E  E  E    
--------------------------|--------------------------||
--------------------------|--------------------------||
--------------------------|--------------------------||
--------------------------|--------------------------||
--0--0--------0--3--2--3--|--0--0--------0--3--2--3--||
--0--0--------0--3--2--3--|--0--0--------0--3--2--3--||
--0--0--------0--3--2--3--|--0--0--------0--3--2--3--||

Rhythm Guitar

D||-------|-------|-------|-------|-------|-------|-------|-------|-------|
A||-------|-------|-------|-------|-------|-------|-------|-------|-------|
F||-------|-------|-------|-------|-------|-------|-------|-------|-------|
C||-------|-------|-------|-------|-------|-------|-------|-------|-------|
G||-------|-------|-------|-------|-------|-------|-------|-------|-------|
C||-------|-------|-------|-------|-------|-------|-------|-------|-------|
B||-------|-------|-------|-------|-------|-------|-------|-------|-------|

-------|-------|-------|-------|-------|-------|-------|
-------|-------|-------|-------|-------|-------|-------|
-------|-------|-------|-------|-------|-------|-------|
-------|-------|-------|-------|-------|-------|-------|
-------|-------|-------|-------|-------|-------|-------|
-------|-------|-------|-------|-------|-------|-------|
-------|-------|-------|-------|-------|-------|-------|

  E  E  E  E  E  E  E  E     E  E  E  E  E  E  E  E   
--------------------------|--------------------------|
--------------------------|--------------------------|
--------------------------|--------------------------|
--------------------------|--------------------------|
--------------------------|--------------------------|
--2--2--0--2--3--3--4--4--|--2--2--0--2--3--3--4--4--|
--2--2--0--2--3--3--4--4--|--2--2--0--2--3--3--4--4--|

  E  E  E  E  E  E  E  E     E  E  E  E     E  E  E  E  E  E  E  E   
--------------------------|--------------|--------------------------|
--------------------------|--------------|--------------------------|
--------------------------|--------------|--------------------------|
--------------------------|--------------|--------------------------|
--------------------------|--------------|--------------------------|
--2--2--0--2--3--3--4--4--|--2--2--0--2--|--2--2--0--2--3--3--4--4--|
--2--2--0--2--3--3--4--4--|--2--2--0--2--|--2--2--0--2--3--3--4--4--|

  E  E  E  E  E  E  E  E     E  E  E  E  E  E  E  E     E  E  E  E   
--------------------------|--------------------------|--------------|
--------------------------|--------------------------|--------------|
--------------------------|--------------------------|--------------|
--------------------------|--------------------------|--------------|
--------------------------|--------------------------|--------------|
--2--2--0--2--3--3--4--4--|--2--2--0--2--3--3--4--4--|--2--2--0--2--|
--2--2--0--2--3--3--4--4--|--2--2--0--2--3--3--4--4--|--2--2--0--2--|

  E  E  E  E  E  E  E  E     E  E  E  E  E  E  E  E   
--------------------------|--------------------------|
--------------------------|--------------------------|
--------------------------|--------------------------|
--------------------------|--------------------------|
--------------------------|--------------------------|
--2--2--0--2--3--3--4--4--|--2--2--0--2--3--3--4--4--|
--2--2--0--2--3--3--4--4--|--2--2--0--2--3--3--4--4--|

  E  E  E  E  E  E  E  E     E  E  E  E     E  E  E  E  E  E  E  E   
--------------------------|--------------|--------------------------|
--------------------------|--------------|--------------------------|
--------------------------|--------------|--------------------------|
--------------------------|--------------|--------------------------|
--------------------------|--------------|--------------------------|
--2--2--0--2--3--3--4--4--|--2--2--0--2--|--2--2--0--2--3--3--4--4--|
--2--2--0--2--3--3--4--4--|--2--2--0--2--|--2--2--0--2--3--3--4--4--|

  E  E  E  E  E  E  E  E     E  E  E  E  E  E  E  E     E  E  E  E         
--------------------------|--------------------------|--------------|-----|
--------------------------|--------------------------|--------------|-----|
--------------------------|--------------------------|--------------|-----|
--------------------------|--------------------------|--------------|-----|
--------------------------|--------------------------|--------------|-----|
--2--2--0--2--3--3--4--4--|--2--2--0--2--3--3--4--4--|--2--2--0--2--|-----|
--2--2--0--2--3--3--4--4--|--2--2--0--2--3--3--4--4--|--2--2--0--2--|-----|

-----|-----|-----|-----|-----|-----|-----|-----|-----|-----|-----|-----|-----|
-----|-----|-----|-----|-----|-----|-----|-----|-----|-----|-----|-----|-----|
-----|-----|-----|-----|-----|-----|-----|-----|-----|-----|-----|-----|-----|
-----|-----|-----|-----|-----|-----|-----|-----|-----|-----|-----|-----|-----|
-----|-----|-----|-----|-----|-----|-----|-----|-----|-----|-----|-----|-----|
-----|-----|-----|-----|-----|-----|-----|-----|-----|-----|-----|-----|-----|
-----|-----|-----|-----|-----|-----|-----|-----|-----|-----|-----|-----|-----|

-----|-----|-----|-----|-----|-----|-----|-----|-----|-----|
-----|-----|-----|-----|-----|-----|-----|-----|-----|-----|
-----|-----|-----|-----|-----|-----|-----|-----|-----|-----|
-----|-----|-----|-----|-----|-----|-----|-----|-----|-----|
-----|-----|-----|-----|-----|-----|-----|-----|-----|-----|
-----|-----|-----|-----|-----|-----|-----|-----|-----|-----|
-----|-----|-----|-----|-----|-----|-----|-----|-----|-----|

  E  E  E  E  E  E  E  E     E  E  E  E  E  E  E  E   
--------------------------|--------------------------|
--------------------------|--------------------------|
--------------------------|--------------------------|
--------------------------|--------------------------|
--------------------------|--------------------------|
--2--2--0--2--3--3--4--4--|--2--2--0--2--3--3--4--4--|
--2--2--0--2--3--3--4--4--|--2--2--0--2--3--3--4--4--|

  E  E  E  E  E  E  E  E     E  E  E  E     E  E  E  E  E  E  E  E   
--------------------------|--------------|--------------------------|
--------------------------|--------------|--------------------------|
--------------------------|--------------|--------------------------|
--------------------------|--------------|--------------------------|
--------------------------|--------------|--------------------------|
--2--2--0--2--3--3--4--4--|--2--2--0--2--|--2--2--0--2--3--3--4--4--|
--2--2--0--2--3--3--4--4--|--2--2--0--2--|--2--2--0--2--3--3--4--4--|

  E  E  E  E  E  E  E  E     E  E  E  E  E  E  E  E     E  E  E  E         
--------------------------|--------------------------|--------------|-----|
--------------------------|--------------------------|--------------|-----|
--------------------------|--------------------------|--------------|-----|
--------------------------|--------------------------|--------------|-----|
--------------------------|--------------------------|--------------|-----|
--2--2--0--2--3--3--4--4--|--2--2--0--2--3--3--4--4--|--2--2--0--2--|-----|
--2--2--0--2--3--3--4--4--|--2--2--0--2--3--3--4--4--|--2--2--0--2--|-----|

                                            E  E  E  E  E  E  E  E   
-----|-----|-----|-----|-----|-----|-----|--------------------------|
-----|-----|-----|-----|-----|-----|-----|--------------------------|
-----|-----|-----|-----|-----|-----|-----|--------------------------|
-----|-----|-----|-----|-----|-----|-----|--------------------------|
-----|-----|-----|-----|-----|-----|-----|--------------------------|
-----|-----|-----|-----|-----|-----|-----|--2--2--0--2--3--3--4--4--|
-----|-----|-----|-----|-----|-----|-----|--2--2--0--2--3--3--4--4--|

  E  E  E  E  E  E  E  E     E  E  E  E  E  E  E  E     E  E  E  E   
--------------------------|--------------------------|--------------|
--------------------------|--------------------------|--------------|
--------------------------|--------------------------|--------------|
--------------------------|--------------------------|--------------|
--------------------------|--------------------------|--------------|
--2--2--0--2--3--3--4--4--|--2--2--0--2--3--3--4--4--|--2--2--0--2--|
--2--2--0--2--3--3--4--4--|--2--2--0--2--3--3--4--4--|--2--2--0--2--|

  E  E  E  E  E  E  E  E     E  E  E  E  E  E  E  E   
--------------------------|--------------------------|
--------------------------|--------------------------|
--------------------------|--------------------------|
--------------------------|--------------------------|
--------------------------|--------------------------|
--2--2--0--2--3--3--4--4--|--2--2--0--2--3--3--4--4--|
--2--2--0--2--3--3--4--4--|--2--2--0--2--3--3--4--4--|

  E  E  E  E  E  E  E  E     E  E  E  E     E  E  E  E  E  E  E  E   
--------------------------|--------------|--------------------------|
--------------------------|--------------|--------------------------|
--------------------------|--------------|--------------------------|
--------------------------|--------------|--------------7--7--5--5--|
--------------------------|--------------|--2--2--2--2--x--x--x--x--|
--2--2--0--2--3--3--4--4--|--2--2--0--2--|--2--2--2--2--3--3--3--3--|
--2--2--0--2--3--3--4--4--|--2--2--0--2--|--0--0--0--0--------------|

  E  E  E  E  E  E  E  E     E  E  E  E  E  E  E  E   
--------------------------|--------------------------|
--------------------------|--------------------------|
--------------------------|--------------------------|
--------------7--7--5--5--|--------------7--7--5--5--|
--2--2--2--2--x--x--x--x--|--2--2--2--2--x--x--x--x--|
--2--2--2--2--3--3--3--3--|--2--2--2--2--3--3--3--3--|
--0--0--0--0--------------|--0--0--0--0--------------|

  E  E  E  E  E  E  E  E     E  E  E  E  E  E  E  E   
--------------------------|--------------------------|
--------------------------|--------------------------|
--------------------------|--------------------------|
--3--3--3--3--2--2--2--2--|--------------7--7--5--5--|
--3--3--3--3--2--2--2--2--|--2--2--2--2--x--x--x--x--|
--1--1--1--1--0--0--0--0--|--2--2--2--2--3--3--3--3--|
--------------------------|--0--0--0--0--------------|

  E  E  E  E  E  E  E  E     E  E  E  E  E  E  E  E   
--------------------------|--------------------------|
--------------------------|--------------------------|
--------------------------|--------------------------|
--------------7--7--5--5--|--------------7--7--5--5--|
--2--2--2--2--x--x--x--x--|--2--2--2--2--x--x--x--x--|
--2--2--2--2--3--3--3--3--|--2--2--2--2--3--3--3--3--|
--0--0--0--0--------------|--0--0--0--0--------------|

     PM PM PM    PM    PM                             
  E  E  E  E  E  E  E  E     E  E  E  E  E  E  E  E   
--------------------------|--------------------------|
--------------------------|--------------------------|
--------------------------|--------------------------|
--------------------------|--------------------------|
--5--5--5--5--3--3--2--2--|--------------------------|
--5--5--5--5--3--3--2--2--|--2--2--0--2--3--3--4--4--|
--5--5--5--5--3--3--2--2--|--2--2--0--2--3--3--4--4--|

  E  E  E  E  E  E  E  E     E  E  E  E  E  E  E  E     E  E  E  E   
--------------------------|--------------------------|--------------|
--------------------------|--------------------------|--------------|
--------------------------|--------------------------|--------------|
--------------------------|--------------------------|--------------|
--------------------------|--------------------------|--------------|
--2--2--0--2--3--3--4--4--|--2--2--0--2--3--3--4--4--|--2--2--0--2--|
--2--2--0--2--3--3--4--4--|--2--2--0--2--3--3--4--4--|--2--2--0--2--|

  E  E  E  E  E  E  E  E     E  E  E  E  E  E  E  E   
--------------------------|--------------------------|
--------------------------|--------------------------|
--------------------------|--------------------------|
--------------------------|--------------------------|
--------------------------|--------------------------|
--2--2--0--2--3--3--4--4--|--2--2--0--2--3--3--4--4--|
--2--2--0--2--3--3--4--4--|--2--2--0--2--3--3--4--4--|

  E  E  E  E  E  E  E  E     E  E  E  E     E  E  E  E  E  E  E  E   
--------------------------|--------------|--------------------------|
--------------------------|--------------|--------------------------|
--------------------------|--------------|--------------------------|
--------------------------|--------------|--------------------------|
--------------------------|--------------|--------------------------|
--2--2--0--2--3--3--4--4--|--2--2--0--2--|--2--2--0--2--3--3--4--4--|
--2--2--0--2--3--3--4--4--|--2--2--0--2--|--2--2--0--2--3--3--4--4--|

  E  E  E  E  E  E  E  E     E  E  E  E  E  E  E  E     E  E  E  E   
--------------------------|--------------------------|--------------|
--------------------------|--------------------------|--------------|
--------------------------|--------------------------|--------------|
--------------------------|--------------------------|--------------|
--------------------------|--------------------------|--------------|
--2--2--0--2--3--3--4--4--|--2--2--0--2--3--3--4--4--|--2--2--0--2--|
--2--2--0--2--3--3--4--4--|--2--2--0--2--3--3--4--4--|--2--2--0--2--|

  E  E  E  E  E  E  E  E     E  E  E  E  E  E  E  E   
--------------------------|--------------------------|
--------------------------|--------------------------|
--------------------------|--------------------------|
--------------------------|--------------------------|
--------------------------|--------------------------|
--2--2--0--2--3--3--4--4--|--2--2--0--2--3--3--4--4--|
--2--2--0--2--3--3--4--4--|--2--2--0--2--3--3--4--4--|

  E  E  E  E  E  E  E  E     E  E  E  E                                       
--------------------------|--------------|-----|-----|-----|-----|-----|-----|
--------------------------|--------------|-----|-----|-----|-----|-----|-----|
--------------------------|--------------|-----|-----|-----|-----|-----|-----|
--------------------------|--------------|-----|-----|-----|-----|-----|-----|
--------------------------|--------------|-----|-----|-----|-----|-----|-----|
--2--2--0--2--3--3--4--4--|--2--2--0--2--|-----|-----|-----|-----|-----|-----|
--2--2--0--2--3--3--4--4--|--2--2--0--2--|-----|-----|-----|-----|-----|-----|

-----|-----|-----|-----|-----|-----|-----|-----|-----|-----|-----|-----|-----|
-----|-----|-----|-----|-----|-----|-----|-----|-----|-----|-----|-----|-----|
-----|-----|-----|-----|-----|-----|-----|-----|-----|-----|-----|-----|-----|
-----|-----|-----|-----|-----|-----|-----|-----|-----|-----|-----|-----|-----|
-----|-----|-----|-----|-----|-----|-----|-----|-----|-----|-----|-----|-----|
-----|-----|-----|-----|-----|-----|-----|-----|-----|-----|-----|-----|-----|
-----|-----|-----|-----|-----|-----|-----|-----|-----|-----|-----|-----|-----|

                                E  E  E  E  E  E  E  E   
-----|-----|-----|-----|-----|--------------------------|
-----|-----|-----|-----|-----|--------------------------|
-----|-----|-----|-----|-----|--------------------------|
-----|-----|-----|-----|-----|--------------------------|
-----|-----|-----|-----|-----|--------------------------|
-----|-----|-----|-----|-----|--2--2--0--2--3--3--4--4--|
-----|-----|-----|-----|-----|--2--2--0--2--3--3--4--4--|

  E  E  E  E  E  E  E  E     E  E  E  E  E  E  E  E     E  E  E  E   
--------------------------|--------------------------|--------------|
--------------------------|--------------------------|--------------|
--------------------------|--------------------------|--------------|
--------------------------|--------------------------|--------------|
--------------------------|--------------------------|--------------|
--2--2--0--2--3--3--4--4--|--2--2--0--2--3--3--4--4--|--2--2--0--2--|
--2--2--0--2--3--3--4--4--|--2--2--0--2--3--3--4--4--|--2--2--0--2--|

  E  E  E  E  E  E  E  E     E  E  E  E  E  E  E  E   
--------------------------|--------------------------|
--------------------------|--------------------------|
--------------------------|--------------------------|
--------------------------|--------------------------|
--------------------------|--------------------------|
--2--2--0--2--3--3--4--4--|--2--2--0--2--3--3--4--4--|
--2--2--0--2--3--3--4--4--|--2--2--0--2--3--3--4--4--|

  E  E  E  E  E  E  E  E     E  E  E  E                                       
--------------------------|--------------|-----|-----|-----|-----|-----|-----|
--------------------------|--------------|-----|-----|-----|-----|-----|-----|
--------------------------|--------------|-----|-----|-----|-----|-----|-----|
--------------------------|--------------|-----|-----|-----|-----|-----|-----|
--------------------------|--------------|-----|-----|-----|-----|-----|-----|
--2--2--0--2--3--3--4--4--|--2--2--0--2--|-----|-----|-----|-----|-----|-----|
--2--2--0--2--3--3--4--4--|--2--2--0--2--|-----|-----|-----|-----|-----|-----|

              E  E  E  E  E  E  E  E     E  E  E  E  E  E  E  E   
-----|-----|--------------------------|--------------------------|
-----|-----|--------------------------|--------------------------|
-----|-----|--------------------------|--------------------------|
-----|-----|--------------------------|--------------------------|
-----|-----|--------------------------|--------------------------|
-----|-----|--2--2--0--2--3--3--4--4--|--2--2--0--2--3--3--4--4--|
-----|-----|--2--2--0--2--3--3--4--4--|--2--2--0--2--3--3--4--4--|

  E  E  E  E  E  E  E  E     E  E  E  E     E  E  E  E  E  E  E  E   
--------------------------|--------------|--------------------------|
--------------------------|--------------|--------------------------|
--------------------------|--------------|--------------------------|
--------------------------|--------------|--------------------------|
--------------------------|--------------|--------------------------|
--2--2--0--2--3--3--4--4--|--2--2--0--2--|--2--2--0--2--3--3--4--4--|
--2--2--0--2--3--3--4--4--|--2--2--0--2--|--2--2--0--2--3--3--4--4--|

  E  E  E  E  E  E  E  E     E  E  E  E  E  E  E  E     E  E  E  E   
--------------------------|--------------------------|--------------|
--------------------------|--------------------------|--------------|
--------------------------|--------------------------|--------------|
--------------------------|--------------------------|--------------|
--------------------------|--------------------------|--------------|
--2--2--0--2--3--3--4--4--|--2--2--0--2--3--3--4--4--|--2--2--0--2--|
--2--2--0--2--3--3--4--4--|--2--2--0--2--3--3--4--4--|--2--2--0--2--|

  E  E  E  E  E  E  E  E     E  E  E  E  E  E  E  E   
--------------------------|--------------------------|
--------------------------|--------------------------|
--------------------------|--------------------------|
--------------7--7--5--5--|--------------7--7--5--5--|
--2--2--2--2--x--x--x--x--|--2--2--2--2--x--x--x--x--|
--2--2--2--2--3--3--3--3--|--2--2--2--2--3--3--3--3--|
--0--0--0--0--------------|--0--0--0--0--------------|

  E  E  E  E  E  E  E  E     E  E  E  E  E  E  E  E   
--------------------------|--------------------------|
--------------------------|--------------------------|
--------------------------|--------------------------|
--------------7--7--5--5--|--3--3--3--3--2--2--2--2--|
--2--2--2--2--x--x--x--x--|--3--3--3--3--2--2--2--2--|
--2--2--2--2--3--3--3--3--|--1--1--1--1--0--0--0--0--|
--0--0--0--0--------------|--------------------------|

  E  E  E  E  E  E  E  E     E  E  E  E  E  E  E  E   
--------------------------|--------------------------|
--------------------------|--------------------------|
--------------------------|--------------------------|
--------------7--7--5--5--|--------------7--7--5--5--|
--2--2--2--2--x--x--x--x--|--2--2--2--2--x--x--x--x--|
--2--2--2--2--3--3--3--3--|--2--2--2--2--3--3--3--3--|
--0--0--0--0--------------|--0--0--0--0--------------|

                                PM PM PM    PM    PM                          
  E  E  E  E  E  E  E  E     E  E  E  E  E  E  E  E                           
--------------------------|--------------------------|-----|-----|-----|-----|
--------------------------|--------------------------|-----|-----|-----|-----|
--------------------------|--------------------------|-----|-----|-----|-----|
--------------7--7--5--5--|--------------------------|-----|-----|-----|-----|
--2--2--2--2--x--x--x--x--|--5--5--5--5--3--3--2--2--|-----|-----|-----|-----|
--2--2--2--2--3--3--3--3--|--5--5--5--5--3--3--2--2--|-----|-----|-----|-----|
--0--0--0--0--------------|--5--5--5--5--3--3--2--2--|-----|-----|-----|-----|

  E  E  E  E  E  E  E  E     E  E  E  E  E  E  E  E   
--------------------------|--------------------------|
--------------------------|--------------------------|
--------------------------|--------------------------|
--------------------------|--------------------------|
--0--0--------0--3--2--3--|--0--0--------0--3--2--3--|
--0--0--------0--3--2--3--|--0--0--------0--3--2--3--|
--0--0--------0--3--2--3--|--0--0--------0--3--2--3--|

  E  E  E  E  E  E  E  E     E  E  E  E  E  E  E  E   
--------------------------|--------------------------|
--------------------------|--------------------------|
--------------------------|--------------------------|
--------------------------|--------------------------|
--0--0--------0--3--2--3--|--0--0--------0--3--2--3--|
--0--0--------0--3--2--3--|--0--0--------0--3--2--3--|
--0--0--------0--3--2--3--|--0--0--------0--3--2--3--|

  E  E  E  E  E  E  E  E     E  E  E  E  E  E  E  E   
--------------------------|--------------------------|
--------------------------|--------------------------|
--------------------------|--------------------------|
--------------------------|--------------------------|
--0--0--------0--3--2--3--|--0--0--------0--3--2--3--|
--0--0--------0--3--2--3--|--0--0--------0--3--2--3--|
--0--0--------0--3--2--3--|--0--0--------0--3--2--3--|

  E  E  E  E  E  E  E  E     E  E  E  E  E  E  E  E   
--------------------------|--------------------------|
--------------------------|--------------------------|
--------------------------|--------------------------|
--------------------------|--------------------------|
--0--0--------0--3--2--3--|--0--0--------0--3--2--3--|
--0--0--------0--3--2--3--|--0--0--------0--3--2--3--|
--0--0--------0--3--2--3--|--0--0--------0--3--2--3--|

  E  E  E  E  E  E  E  E     E  E  E  E  E  E  E  E   
--------------------------|--------------------------|
--------------------------|--------------------------|
--------------------------|--------------------------|
--------------------------|--------------------------|
--0--0--------0--3--2--3--|--0--0--------0--3--2--3--|
--0--0--------0--3--2--3--|--0--0--------0--3--2--3--|
--0--0--------0--3--2--3--|--0--0--------0--3--2--3--|

  E  E  E  E  E  E  E  E     E  E  E  E  E  E  E  E   
--------------------------|--------------------------|
--------------------------|--------------------------|
--------------------------|--------------------------|
--------------------------|--------------------------|
--0--0--------0--3--2--3--|--0--0--------0--3--2--3--|
--0--0--------0--3--2--3--|--0--0--------0--3--2--3--|
--0--0--------0--3--2--3--|--0--0--------0--3--2--3--|

  E  E  E  E  E  E  E  E     E  E  E  E  E  E  E  E   
--------------------------|--------------------------|
--------------------------|--------------------------|
--------------------------|--------------------------|
--------------------------|--------------------------|
--0--0--------0--3--2--3--|--0--0--------0--3--2--3--|
--0--0--------0--3--2--3--|--0--0--------0--3--2--3--|
--0--0--------0--3--2--3--|--0--0--------0--3--2--3--|

  E  E  E  E  E  E  E  E     E  E  E  E  E  E  E  E   
--------------------------|--------------------------|
--------------------------|--------------------------|
--------------------------|--------------------------|
--------------------------|--------------------------|
--0--0--------0--3--2--3--|--0--0--------0--3--2--3--|
--0--0--------0--3--2--3--|--0--0--------0--3--2--3--|
--0--0--------0--3--2--3--|--0--0--------0--3--2--3--|

  E  E  E  E  E  E  E  E     E  E  E  E  E  E  E  E   
--------------------------|--------------------------|
--------------------------|--------------------------|
--------------------------|--------------------------|
--------------------------|--------------------------|
--0--0--------0--3--2--3--|--0--0--------0--3--2--3--|
--0--0--------0--3--2--3--|--0--0--------0--3--2--3--|
--0--0--------0--3--2--3--|--0--0--------0--3--2--3--|

  E  E  E  E  E  E  E  E     E  E  E  E  E  E  E  E   
--------------------------|--------------------------|
--------------------------|--------------------------|
--------------------------|--------------------------|
--------------------------|--------------------------|
--0--0--------0--3--2--3--|--0--0--------0--3--2--3--|
--0--0--------0--3--2--3--|--0--0--------0--3--2--3--|
--0--0--------0--3--2--3--|--0--0--------0--3--2--3--|

  E  E  E  E  E  E  E  E     E  E  E  E  E  E  E  E   
--------------------------|--------------------------|
--------------------------|--------------------------|
--------------------------|--------------------------|
--------------------------|--------------------------|
--0--0--------0--3--2--3--|--0--0--------0--3--2--3--|
--0--0--------0--3--2--3--|--0--0--------0--3--2--3--|
--0--0--------0--3--2--3--|--0--0--------0--3--2--3--|

  E  E  E  E  E  E  E  E     E  E  E  E  E  E  E  E   
--------------------------|--------------------------|
--------------------------|--------------------------|
--------------------------|--------------------------|
--------------------------|--------------------------|
--0--0--------0--3--2--3--|--0--0--------0--3--2--3--|
--0--0--------0--3--2--3--|--0--0--------0--3--2--3--|
--0--0--------0--3--2--3--|--0--0--------0--3--2--3--|

  E  E  E  E  E  E  E  E     E  E  E  E  E  E  E  E   
--------------------------|--------------------------|
--------------------------|--------------------------|
--------------------------|--------------------------|
--------------------------|--------------------------|
--0--0--------0--3--2--3--|--0--0--------0--3--2--3--|
--0--0--------0--3--2--3--|--0--0--------0--3--2--3--|
--0--0--------0--3--2--3--|--0--0--------0--3--2--3--|

  E  E  E  E  E  E  E  E     E  E  E  E  E  E  E  E   
--------------------------|--------------------------|
--------------------------|--------------------------|
--------------------------|--------------------------|
--------------------------|--------------------------|
--0--0--------0--3--2--3--|--0--0--------0--3--2--3--|
--0--0--------0--3--2--3--|--0--0--------0--3--2--3--|
--0--0--------0--3--2--3--|--0--0--------0--3--2--3--|

  E  E  E  E  E  E  E  E     E  E  E  E  E  E  E  E   
--------------------------|--------------------------|
--------------------------|--------------------------|
--------------------------|--------------------------|
--------------------------|--------------------------|
--0--0--------0--3--2--3--|--0--0--------0--3--2--3--|
--0--0--------0--3--2--3--|--0--0--------0--3--2--3--|
--0--0--------0--3--2--3--|--0--0--------0--3--2--3--|

  E  E  E  E  E  E  E  E     E  E  E  E  E  E  E  E    
--------------------------|--------------------------||
--------------------------|--------------------------||
--------------------------|--------------------------||
--------------------------|--------------------------||
--0--0--------0--3--2--3--|--0--0--------0--3--2--3--||
--0--0--------0--3--2--3--|--0--0--------0--3--2--3--||
--0--0--------0--3--2--3--|--0--0--------0--3--2--3--||
comments
We did not receive enough feedback on this tab! Please rate:
print report bad tab
1 2 3 4 5
I want to post or [tab]
guest
You may want to rate the tab now too:
select rating
Please do not post tabs as comments. Select "correction" instead!