Oops, an error
Loading. Please wait.

Arrange And Ruin - Dark Matter Tab

32 views 1 this week
no commentswrite comment
1 2 3 4 5
please rate
add to favorites launch autoscroll
font size
0
reset
Autoscroll
+/-
esc
set tempo
stop
Contributor
Difficulty
Tuning
advanced
D A D G B E
WARNING: You are trying to view
                                    content from Ultimate-Guitar.com
                                    in an unauthorized application,
                                    which is prohibited.

                                    Please use an official Ultimate
                                    Guitar Tabs application for iPhone,
                                    iPad or Android to access legitimate
                                    chords, guitar, bass, and drum tabs
                                    from Ultimate-Guitar.com database.

                                    Type "ultimate guitar tabs" in Apple
                                    App Store's or Android Market's
                                    search to find the application.
Lead

Dropped D Tuning

               |--3--|                                                   
      S S S  S S  S  S  S S S S S S S S S S     E.   E.   E  E.  E.  E   
E||-----------------------------------------|---------------------------|
B||-----------------------------------------|---------------------------|
G||-----------------------------------------|---------------------------|
D||--10-8-7----7h-8p-7----------5-7-5-------|--10---10---10--3---3---3--|
A||---------10---------10-8-5-8-------8-5---|---8----8----8--3---3---3--|
D||---------------------------------------7-|---8----8----8--3---3---3--|


  PM PM           PM PM                   
  S  S  S  S S  S S  S  S  S S  E  S S S  
-----------------------------------------|
-----------------------------------------|
-----------------------------------------|
-----------------------------------------|
--------8p-5-5h-7-------8p-5-5h-7--7-7-7-|
--0--0------------0--0-------------------|


  PM PM           PM PM                                               
  S  S  S  S S  S S  S  S  S S S S S S S     E.   E.   E  E.  E.  E   
-----------------------------------------|---------------------------|
-----------------------------------------|---------------------------|
-----------------------------------------|---------------------------|
---------------------------------5-------|--10---10---10--3---3---3--|
--------8p-5-5h-7-------8p-5-5-7---8-7-5-|---8----8----8--3---3---3--|
--0--0------------0--0-------------------|---8----8----8--3---3---3--|


  PM PM           PM PM                   
  S  S  S  S S  S S  S  S  S S  E  S S S  
-----------------------------------------|
-----------------------------------------|
-----------------------------------------|
-----------------------------------------|
--------8p-5-5h-7-------8p-5-5h-7--7-7-7-|
--0--0------------0--0-------------------|


  PM PM           PM PM                                               
  S  S  S  S S  S S  S  S  S S S S S S S     E.   E.   E  E.  E.  E   
-----------------------------------------|---------------------------|
-----------------------------------------|---------------------------|
-----------------------------------------|---------------------------|
---------------------------------5-------|--10---10---10--3---3---3--|
--------8p-5-5h-7-------8p-5-5-7---8-7-5-|---8----8----8--3---3---3--|
--0--0------------0--0-------------------|---8----8----8--3---3---3--|


  PM PM            PM PM PM           PM  
  S  S  S  S S S S S  S  S  S S S S S S   
-----------------------------------------|
-----------------------------------------|
-----------------------------------------|
-----------------------------------------|
--------7-10-7--------------5-8-5--------|
--7--8---------8-7-0--5--7--------7-5-0--|


  PM PM            PM                    
  S  S  S  S S S S S   S S S  S S S S S  
----------------------------------------|
----------------------------------------|
----------------------------------------|
----------------------10-8-7------------|
--------7-10-7---------------10-5-7-5---|
--7--8---------8-7-0------------------8-|


  PM PM            PM PM PM           PM  
  S  S  S  S S S S S  S  S  S S S S S S   
-----------------------------------------|
-----------------------------------------|
-----------------------------------------|
-----------------------------------------|
--------7-10-7--------------5-8-5--------|
--7--8---------8-7-0--5--7--------7-5-0--|


            |--3--|                       
   S S S  S S  S  S  S S S S S S S S S S  
-----------------------------------------|
-----------------------------------------|
-----------------------------------------|
--10-8-7----7h-8p-7----------5-7-5-------|
---------10---------10-8-5-8-------8-5---|
---------------------------------------7-|


  PM PM            PM PM PM           PM  
  S  S  S  S S S S S  S  S  S S S S S S   
-----------------------------------------|
-----------------------------------------|
-----------------------------------------|
-----------------------------------------|
--------7-10-7--------------5-8-5--------|
--7--8---------8-7-0--5--7--------7-5-0--|


  PM PM            PM                    
  S  S  S  S S S S S   S S S  S S S S S  
----------------------------------------|
----------------------------------------|
----------------------------------------|
----------------------10-8-7------------|
--------7-10-7---------------10-5-7-5---|
--7--8---------8-7-0------------------8-|


  PM PM            PM PM PM           PM  
  S  S  S  S S S S S  S  S  S S S S S S   
-----------------------------------------|
-----------------------------------------|
-----------------------------------------|
-----------------------------------------|
--------7-10-7--------------5-8-5--------|
--7--8---------8-7-0--5--7--------7-5-0--|


            |--3--|                       
   S S S  S S  S  S  S S S S S S S S S S  
-----------------------------------------|
-----------------------------------------|
-----------------------------------------|
--10-8-7----7h-8p-7----------5-7-5-------|
---------10---------10-8-5-8-------8-5---|
---------------------------------------7-|


  S  S S S S  S S  S  S  S  S  S  S  S  S  S  
---------------------------10-13-10----------|
---------------------10-11----------11-10----|
----------------9-10----------------------12-|
-------7-8-7-10------------------------------|
--7-10---------------------------------------|
---------------------------------------------|


                                         PM PM PM              PM            
   S  S  S  S  S  S  S  S H           E  S  S  S  S S S S S  S S  S  S S  S  
--12-------12-------15-------------|----------------------------------------|
-----13-------13-------13----------|----------------------------------------|
--------14-------14----------------|----------------------------------------|
-----------------------------------|--------------2-------------------------|
-----------------------------------|--2-------------5-----------------------|
-----------------------------------|--2--2--3--2------3-0-3h-5-0--7p-0-5p-0-|


    PM PM PM         PM  PM             
  S S  S  S  S S S S S   S S S S S S S  
---------------------------------------|
---------------------------------------|
---------------------------------------|
-------------2-------------------------|
--2------------5-----------7-8-5-7-5---|
--2-2--3--2------3-0-7--10-----------8-|


     PM PM PM              PM                PM PM PM                          
  E  S  S  S  S S S S S  S S  S  S S  S    S S  S  S  S S S S S S S S S S S S  
----------------------------------------|-------------------------------------|
----------------------------------------|-------------------------------------|
----------------------------------------|-------------------------------------|
--------------2-------------------------|-------------2-----------5-7-5-------|
--2-------------5-----------------------|--2------------5-----5-8-------8-5---|
--2--2--3--2------3-0-3h-5-0--7p-0-5p-0-|--2-2--3--2------3-0---------------7-|


     PM PM PM              PM            
  E  S  S  S  S S S S S  S S  S  S S  S  
----------------------------------------|
----------------------------------------|
----------------------------------------|
--------------2-------------------------|
--2-------------5-----------------------|
--2--2--3--2------3-0-3h-5-0--7p-0-5p-0-|


    PM PM PM         PM  PM             
  S S  S  S  S S S S S   S S S S S S S  
---------------------------------------|
---------------------------------------|
---------------------------------------|
-------------2-------------------------|
--2------------5-----------7-8-5-7-5---|
--2-2--3--2------3-0-7--10-----------8-|


     PM PM PM              PM            
  E  S  S  S  S S S S S  S S  S  S S  S  
----------------------------------------|
----------------------------------------|
----------------------------------------|
--------------2-------------------------|
--2-------------5-----------------------|
--2--2--3--2------3-0-3h-5-0--7p-0-5p-0-|


    PM PM PM                                            
  S S  S  S  S S S S S S S S S S S S S  S S S S S S  S  
-------------------------------------------------------|
-------------------------------------------------------|
----------------------------------------------7-9-7----|
-------------2---------------5-7-5--------7-8-------10-|
--2------------5---------5-7-------8-7-10--------------|
--2-2--3--2------3-0-5-8-------------------------------|


  S  S S S S  S S  S  S  S  S  S  S  S  S  S     E.   E.   E  E.  E.  E   
---------------------------10-13-10----------|---------------------------|
---------------------10-11----------11-10----|---------------------------|
----------------9-10----------------------12-|---------------------------|
-------7-8-7-10------------------------------|--10---10---10--3---3---3--|
--7-10---------------------------------------|---8----8----8--3---3---3--|
---------------------------------------------|---8----8----8--3---3---3--|


             PM PM PM PM PM PM PM PM                     
  E.  E.  E  S  S  S  S  S  S  S  S     S S S S   Q      
-------------------------------------|------------------|
-------------------------------------|------------------|
-------------------------------------|------------------|
--7---7---7--------------------------|------------------|
--5---5---5--------------------------|------------------|
--5---5---5--7--5--3--0--5--3--2--0--|--2-3-2-0-<>2b----|


  PM PM PM PM PM PM PM PM PM            
  S  S  S  S  S  S  S  S  S  S Q    E   
---------------------------------------|
---------------------------------------|
---------------------------------------|
---------------------------------------|
--0--0--0--0--0--0--0--0--0------------|
--0--0--0--0--0--0--0--0--0------------|


  PM PM PM PM PM PM PM PM PM              
  S  S  S  S  S  S  S  S  S  S E   Q      
-----------------------------------------|
-----------------------------------------|
-----------------------------------------|
-----------------------------------------|
--0--0--0--0--0--0--0--0--0--------------|
--0--0--0--0--0--0--0--0--0-------15\----|


  PM PM PM PM PM PM PM PM PM            
  S  S  S  S  S  S  S  S  S  S Q    E   
---------------------------------------|
---------------------------------------|
---------------------------------------|
---------------------------------------|
--0--0--0--0--0--0--0--0--0------------|
--0--0--0--0--0--0--0--0--0------------|


  PM PM PM PM PM PM PM PM PM        PH     
  S  S  S  S  S  S  S  S  S  S E    Q      
------------------------------------------|
------------------------------------------|
------------------------------------------|
------------------------------------------|
--0--0--0--0--0--0--0--0--0---------------|
--0--0--0--0--0--0--0--0--0-------<>2b----|


    PM PM PM PM PM PM PM PM                       
                                    |---3--|      
    S  S  S  S  S  S  S  S  S S S S S   S  S S S  
|------------------------------------------------|
|------------------------------------------------|
|*----------------------------------7h-10p-7-----|
|*------------------------------7-8----------8-7-|
|---0--0--0--0--0--0--0--0--5-8------------------|
|---0--0--0--0--0--0--0--0-----------------------|


  PM PM PM PM PM PM PM PM                             
                                     |---3--|         
  S  S  S  S  S  S  S  S  S   S S  S S   S  S S  S    
----------------------------------------------------||
----------------------------------------------------||
---------------------------------------------------*||
-------------------------------------7h-10p-7------*||
--0--0--0--0--0--0--0--0--------7h-8----------8p-7--||
--0--0--0--0--0--0--0--0--7h-10---------------------||


   PM PM PM PM PM PM PM PM                       
                                   |---3--|      
   S  S  S  S  S  S  S  S  S S S S S   S  S S S  
------------------------------------------------|
------------------------------------------------|
*----------------------------------7h-10p-7-----|
*------------------------------7-8----------8-7-|
---0--0--0--0--0--0--0--0--5-8------------------|
---0--0--0--0--0--0--0--0-----------------------|


  PM PM PM PM PM PM PM PM                               PM PM PM PM    PM    
                                     |---3--|                                
  S  S  S  S  S  S  S  S  S   S S  S S   S  S S  S      S  S  S  S  E  S  S  
----------------------------------------------------||----------------------|
----------------------------------------------------||----------------------|
---------------------------------------------------*||----------------------|
-------------------------------------7h-10p-7------*||----------------------|
--0--0--0--0--0--0--0--0--------7h-8----------8p-7--||--0--0--0--0-----0----|
--0--0--0--0--0--0--0--0--7h-10---------------------||--0--0--0--0-----0----|


       PM    PM      PM PM      PM   PM   PM  
    E  S   S S  S  S S  S  S  S S  S S  S S   
|--------------------------------------------|
|--------------------------------------------|
|*-------------------------------------------|
|*-------------------------------------------|
|---0-----10----8p-7-------5h-7----3----7----|
|---0--0-----0-------0--0-------0----0----0--|


     PM    PM      PM                  
  E  S   S S  S  S S  S S S S S S S S  
--------------------------------------|
--------------------------------------|
--------------------------------------|
--------------------------5-7-5-------|
--0-----10----8p-7----5-8-------8-7-5-|
--0--0-----0-------0------------------|


     PM    PM      PM PM      PM   PM   PM  
  E  S   S S  S  S S  S  S  S S  S S  S S   
-------------------------------------------|
-------------------------------------------|
-------------------------------------------|
-------------------------------------------|
--0-----10----8p-7-------5h-7----3----7----|
--0--0-----0-------0--0-------0----0----0--|


     PM    PM      PM                                                     
                                |--3--|                                   
  E  S   S S  S  S S   S S S  S S  S  S  S S      S E.  Q    Q    E  S S  
----------------------------------------------||-------------------------|
----------------------------------------------||-------------------------|
---------------------------------------------*||-------------------------|
----------------------10-8-7----7h-8p-7------*||--0------------------5---|
--0-----10----8p-7-----------10---------10-8--||--0------------------5---|
--0--0-----0-------0--------------------------||--0------------------5---|


     PM    PM      PM PM      PM   PM   PM  
  E  S   S S  S  S S  S  S  S S  S S  S S   
-------------------------------------------|
-------------------------------------------|
-------------------------------------------|
-------------------------------------------|
--0-----10----8p-7-------5h-7----3----7----|
--0--0-----0-------0--0-------0----0----0--|


     PM    PM      PM                  
  E  S   S S  S  S S  S S S S S S S S  
--------------------------------------|
--------------------------------------|
--------------------------------------|
--------------------------5-7-5-------|
--0-----10----8p-7----5-8-------8-7-5-|
--0--0-----0-------0------------------|


     PM    PM      PM PM      PM   PM   PM  
  E  S   S S  S  S S  S  S  S S  S S  S S   
-------------------------------------------|
-------------------------------------------|
-------------------------------------------|
-------------------------------------------|
--0-----10----8p-7-------5h-7----3----7----|
--0--0-----0-------0--0-------0----0----0--|


     PM    PM      PM                                                   
                                |--3--|                                 
  E  S   S S  S  S S   S S S  S S  S  S  S S    S E.  Q    Q    E  S S  
---------------------------------------------|-------------------------|
---------------------------------------------|-------------------------|
---------------------------------------------|-------------------------|
----------------------10-8-7----7h-8p-7------|--0------------------5---|
--0-----10----8p-7-----------10---------10-8-|--0------------------5---|
--0--0-----0-------0-------------------------|--0------------------5---|


  S E.  Q    Q    E  S S    W                 
-------------------------|-------------------|
-------------------------|-------------------|
-------------------------|-------------------|
--0------------------7---|--0----------------|
--0------------------7---|--0----------------|
--0------------------7---|--0----------------|


  PM PM PM PM PM PM PM PM                  
  S  S  S  S  S  S  S  S  S S S S S S S S  
------------------------------------------|
------------------------------------------|
------------------------------------------|
----------------------------------0-0-0-0-|
--0--0--0--0--0--0--0--0--0-0-0-0-0-0-0-0-|
--0--0--0--0--0--0--0--0--0-0-0-0-0-0-0-0-|


   S  S  S  S  S  S  S  S  S  S  S  S  S  S  S  S  
-----13-17-18-17-13----13----------13-15-17-15-13-|
--15----------------15----15----15----------------|
-----------------------------14-------------------|
--------------------------------------------------|
--------------------------------------------------|
--------------------------------------------------|


   S  S  S  S  S  S  S  S  S  S  S  S  S  S  S  S  
-----13-17-18-17-13----13-18-17-15----15----------|
--15----------------15-------------18----18-17-15-|
--------------------------------------------------|
--------------------------------------------------|
--------------------------------------------------|
--------------------------------------------------|


   S  S  S  S  S  S  S  S  S  S  S  S  S  S  S  S  
-----13-17-18-17-13----13----------13-15-17-15-13-|
--15----------------15----15----15----------------|
-----------------------------14-------------------|
--------------------------------------------------|
--------------------------------------------------|
--------------------------------------------------|


   S  S  S  S  S  S  S  S  S  S  S  S  S  S  S  S  
--18-17-13-15-13----13-15-------12-15-12----------|
-----------------15----------13----------13-------|
--------------------------12----------------12----|
-----------------------------------------------14-|
--------------------------------------------------|
--------------------------------------------------|


   S  S  S  S  S  S  S  S  S  S  S  S  S  S  S  S  
-----13-17-18-17-13----13----------13-15-17-15-13-|
--15----------------15----15----15----------------|
-----------------------------14-------------------|
--------------------------------------------------|
--------------------------------------------------|
--------------------------------------------------|


   S  S  S  S  S  S  S  S  S  S  S  S  S  S  S  S  
-----13-17-18-17-13----13-18-17-15----15----------|
--15----------------15-------------18----18-17-15-|
--------------------------------------------------|
--------------------------------------------------|
--------------------------------------------------|
--------------------------------------------------|


   S  S  S  S  S  S  S  S  S  S  S  S  S  S  S  S  
-----13-17-18-17-13----13----------13-15-17-15-13-|
--15----------------15----15----15----------------|
-----------------------------14-------------------|
--------------------------------------------------|
--------------------------------------------------|
--------------------------------------------------|


   |--3--|  |--3--|  |--3--|  |--3--|                          
   S  S  S  S  S  S  S  S  S  S  S  S  S  S  S  S  S  S  S  S  
--------13-17-13----------15-18-15----18-17-13-15-13----13-15-|
-----15----------15----16----------16----------------15-------|
--14----------------15----------------------------------------|
--------------------------------------------------------------|
--------------------------------------------------------------|
--------------------------------------------------------------|


                              PM PM           PM PM                   
   E.   E.   E  E.  E.  E     S  S  S  S S  S S  S  S  S S  E  S S S  
---------------------------|-----------------------------------------|
---------------------------|-----------------------------------------|
---------------------------|-----------------------------------------|
--10---10---10--3---3---3--|-----------------------------------------|
---8----8----8--3---3---3--|--------8p-5-5h-7-------8p-5-5h-7--7-7-7-|
---8----8----8--3---3---3--|--0--0------------0--0-------------------|


  PM PM           PM PM                   
  S  S  S  S S  S S  S  S  S S S S S S S  
-----------------------------------------|
-----------------------------------------|
-----------------------------------------|
---------------------------------5-------|
--------8p-5-5h-7-------8p-5-5-7---8-7-5-|
--0--0------------0--0-------------------|


  PM PM           PM PM                   
  S  S  S  S S  S S  S  S  S S  E  S S S  
-----------------------------------------|
-----------------------------------------|
-----------------------------------------|
-----------------------------------------|
--------8p-5-5h-7-------8p-5-5h-7--7-7-7-|
--0--0------------0--0-------------------|


  PM PM           PM PM                                         
  S  S  S  S S  S S  S  S  S S S S S S S     S  S S S S  S S S  
-----------------------------------------|---------------------|
-----------------------------------------|------------8--------|
-----------------------------------------|--10p-7-7-9---10-9-7-|
---------------------------------5-------|---------------------|
--------8p-5-5h-7-------8p-5-5-7---8-7-5-|---------------------|
--0--0------------0--0-------------------|---------------------|


  PM PM PM   PM PM    PM PM PM PM PM PM PM PM  
  S  S  S  S S  S  E  S  S  S  S  S  S  S  S   
----------------------------------------------|
----------------------------------------------|
----------------------------------------------|
----------------------------------------------|
--0--0--0----0--0-----0--0--0--0--0--0--0--0--|
--0--0--0----0--0-----0--0--0--0--0--0--0--0--|


  PM PM PM   PM PM    PM PM PM PM PM PM PM PM  
  S  S  S  S S  S  E  S  S  S  S  S  S  S  S   
----------------------------------------------|
----------------------------------------------|
----------------------------------------------|
----------------------------------------------|
--0--0--0----0--0-----0--0--0--0--0--0--0--0--|
--0--0--0----0--0-----0--0--0--0--0--0--0--0--|


  PM PM PM   PM PM    PM PM PM PM PM PM PM PM  
  S  S  S  S S  S  E  S  S  S  S  S  S  S  S   
----------------------------------------------|
----------------------------------------------|
----------------------------------------------|
----------------------------------------------|
--0--0--0----0--0-----0--0--0--0--0--0--0--0--|
--0--0--0----0--0-----0--0--0--0--0--0--0--0--|


  PM PM PM   PM PM    PM PM PM PM PM PM PM PM  
  S  S  S  S S  S  E  S  S  S  S  S  S  S  S   
----------------------------------------------|
----------------------------------------------|
----------------------------------------------|
----------------------------------------------|
--0--0--0----0--0-----0--0--0--0--0--0--0--0--|
--0--0--0----0--0-----0--0--0--0--0--0--0--0--|


     S  S  S  S  S  S  S  S  S  S  S  S  S  S  S  S  
|---------------------------------------------------|
|---------------------------------------------------|
|*--------14-15-14----------17-15-14----15-14-12----|
|*--12-15----------17-15-14----------15----------14-|
|---------------------------------------------------|
|---------------------------------------------------|


   S  S  S  S  S  S  S  S  S  S  S  S  S  S  S  S  
--------------------------------------------------|
--------------------------------------------------|
--------14-15-14----------17-15-14----15-14-12----|
--12-15----------17-15-14----------15----------14-|
--------------------------------------------------|
--------------------------------------------------|


   S  S  S  S  S  S  S  S  S  S  S  S  S  S  S  S  
--------------------------------------------------|
--------------------------------------------------|
--------14-15-14----------17-15-14----15-14-12----|
--12-15----------17-15-14----------15----------14-|
--------------------------------------------------|
--------------------------------------------------|


   S  S  S  S  S  S  S  S  S  S  S  S  S  S  S  S    
--------13-17-13----------------12-15-------13-17--||
-----15----------15----------13----------15--------||
--14----------------14----12----------14----------*||
-----------------------15-------------------------*||
---------------------------------------------------||
---------------------------------------------------||


  PM PM PM PM   PM   PM                          
  S  S  S  S  S S  S S   S  S  S  S  S  S  S  S  
------------------------------------------------|
------------------------------------------------|
------------------------------14-15-14----------|
------------------------12-15----------17-15-14-|
--0--0--0--0----0----0--------------------------|
--0--0--0--0----0----0--------------------------|


  PM PM PM PM   PM   PM                          
  S  S  S  S  S S  S S   S  S  S  S  S  S  S  S  
------------------------------12-13-12----------|
------------------------------------------------|
------------------------14-17----------17-15-14-|
------------------------------------------------|
--5--5--5--5----5----5--------------------------|
--5--5--5--5----5----5--------------------------|


  PM PM PM PM   PM   PM                          
  S  S  S  S  S S  S S   S  S  S  S  S  S  S  S  
------------------------------------17-20-17----|
------------------------------17-18----------18-|
------------------------14-17-------------------|
------------------------------------------------|
--8--8--8--8----8----8--------------------------|
--8--8--8--8----8----8--------------------------|


   S  S  S  S  S  S  S  S  S  S  S  S  S  S  S  S  
--17-15-13----13----------------12-15-12----------|
-----------17----17-15-13----13----------13-------|
--------------------------12----------------12----|
-----------------------------------------------14-|
--------------------------------------------------|
--------------------------------------------------|


     E   S  E   S  S  S  E   S  E   S  S  S  
|-------------------------------------------|
|-------------------------------------------|
|*--14--14-14--14-14-14-15--15-15--15-15-15-|
|*------------------------------------------|
|---12--12-12--12-12-12-13--13-13--13-13-13-|
|-------------------------------------------|


   E   S  E   S  S  S  E   S  E   S  S  S     E   S  E   S  S  S E  S E  S S S  
------------------------------------------|------------------------------------|
------------------------------------------|------------------------------------|
--10--10-10--10-10-10-12--12-12--12-12-12-|--10--10-10--10-10-10-5--5-5--5-5-5-|
------------------------------------------|------------------------------------|
---8---8--8---8--8--8-10--10-10--10-10-10-|---8---8--8---8--8--8-3--3-3--3-3-3-|
------------------------------------------|------------------------------------|


  E  S E  S S S E  S E  S S S    
-------------------------------||
-------------------------------||
--3--3-3--3-3-3-5--5-5--5-5-5-*||
------------------------------*||
--1--1-1--1-1-1-3--3-3--3-3-3--||
-------------------------------||


   |--3--|  |--3--|  |--3--|  |--3--|  |--3--|  |--3--|  |--3--|  |--3--|  
   S  S  S  S  S  S  S  S  S  S  S  S  S  S  S  S  S  S  S  S  S  S  S  S  
--------10-13-10----------10-13-10----------10-13-10----------10-13-10----|
-----11----------11----11----------11----11----------11----11----------11-|
--10----------------10----------------10----------------10----------------|
--------------------------------------------------------------------------|
--------------------------------------------------------------------------|
--------------------------------------------------------------------------|


  |-3-| |-3-| |-3-| |-3-| |-3-| |-3-| |-3-| |-3-|  
  S S S S S S S S S S S S S S S S S S S S S S S S  
------5-8-5-------5-8-5-------5-8-5-------5-8-5---|
----6-------6---6-------6---6-------6---6-------6-|
--5-----------5-----------5-----------5-----------|
--------------------------------------------------|
--------------------------------------------------|
--------------------------------------------------|


  |-3-|  |-3-| |-3-|  |-3-| |-3-|  |-3-| |-3-|  |-3-|  
  S S S  S S S S S S  S S S S S S  S S S S S S  S S S  
------6-10-6-------6-10-6-------6-10-6-------6-10-6---|
----8--------8---8--------8---8--------8---8--------8-|
--7------------7------------7------------7------------|
------------------------------------------------------|
------------------------------------------------------|
------------------------------------------------------|


   S  S S  S S  S  S S  S S  S S Q      
--12-10-8----8-------------------------|
----------11---11-10-8-10-8------------|
----------------------------10-9-7~----|
---------------------------------------|
---------------------------------------|
---------------------------------------|


   Q      S  S  S  S  S  S  S  S  S  S  E   
-------------------------------------------|
--10~----10-11-13-11-10----10--------------|
------------------------12----12-10--------|
------------------------------------12-10--|
-------------------------------------------|
-------------------------------------------|


  Q     S  S  S  S  S  S  S  S  Q      
----------------------10-12-13-13b----|
-------------10-11-13-----------------|
-------10-12--------------------------|
--L-----------------------------------|
--------------------------------------|
--------------------------------------|


   |--3--|  |--3--|  |--3--|  |--3--|  |--3--|  |--3--|              
   S  S  S  S  S  S  S  S  S  S  S  S  S  S  S  S  S  S  S  S  S  S  
--10-13-10-------------------------12-15-12-------------------------|
-----------11-------------------13----------13----------------------|
--------------10-------------12----------------12-------------------|
-----------------12-------14----------------------14----------12-14-|
--------------------13-15----------------------------15-12-15-------|
--------------------------------------------------------------------|


   S  S  S  S  S  S  S  S  S  S  S  S  S  S  S  S  
--------------------------------------------------|
--------------------------------------------------|
--15-14-12----12----------------------------------|
-----------15----15-14-12-14-12----12-------------|
--------------------------------15----15-13-12----|
-----------------------------------------------15-|


   E   S  E   S  S  S  E   S  E   S  S  S  
------------------------------------------|
------------------------------------------|
--14--14-14--14-14-14-10--10-10--10-10-10-|
------------------------------------------|
--12--12-12--12-12-12--8---8--8---8--8--8-|
------------------------------------------|


  PM PM PM PM PM PM PM PM PM                   
  S  S  S  S  S  S  S  S  S  S E  Q            
---------------------------------------|-----||
---------------------------------------|-----||
---------------------------------------|-----||
---------------------------------------|-----||
--0--0--0--0--0--0--0--0--0------------|-----||
--0--0--0--0--0--0--0--0--0------------|-----||

Rhythm
     PM           PM      PM                                   
     S  S Q    E  S  S E  S  S E      E.   E.   E  E.  E.  E   
E||-------------------------------|---------------------------|
B||-------------------------------|---------------------------|
G||-------------------------------|---------------------------|
D||-------------------------------|--10---10---10--3---3---3--|
A||--0------------0-------0-------|---8----8----8--3---3---3--|
D||--0------------0-------0-------|---8----8----8--3---3---3--|


  PM PM           PM PM                   
  S  S  S  S S  S S  S  S  S S  E  S S S  
-----------------------------------------|
-----------------------------------------|
-----------------------------------------|
-----------------------------------------|
--------8p-5-5h-7-------8p-5-5h-7--7-7-7-|
--0--0------------0--0-------------------|


  PM PM           PM PM                                               
  S  S  S  S S  S S  S  S  S S S S S S S     E.   E.   E  E.  E.  E   
-----------------------------------------|---------------------------|
-----------------------------------------|---------------------------|
-----------------------------------------|---------------------------|
---------------------------------5-------|--10---10---10--3---3---3--|
--------8p-5-5h-7-------8p-5-5-7---8-7-5-|---8----8----8--3---3---3--|
--0--0------------0--0-------------------|---8----8----8--3---3---3--|


  PM PM             PM PM                        
  S  S   S  S S   S S  S   S  S S   E   S  S  S  
------------------------------------------------|
------------------------------------------------|
------------------------------------------------|
------------------------------------------------|
--------12p-8-8h-10-------12p-8-8h-10--10-10-10-|
--0--0--------------0--0------------------------|


  PM PM             PM PM                                                   
  S  S   S  S S   S S  S   S  S S  S S  S  S S     E.   E.   E  E.  E.  E   
-----------------------------------------------|---------------------------|
-----------------------------------------------|---------------------------|
-----------------------------------------------|---------------------------|
-------------------------------------8---------|--10---10---10--3---3---3--|
--------12p-8-8h-10-------12p-8-8-10---12-10-8-|---8----8----8--3---3---3--|
--0--0--------------0--0-----------------------|---8----8----8--3---3---3--|


  PM PM            PM PM PM           PM    PM PM            PM             
  S  S  S  S S S S S  S  S  S S S S S S     S  S  S  S S S S S   Q    Q     
-----------------------------------------|---------------------------------|
-----------------------------------------|---------------------------------|
-----------------------------------------|---------------------------------|
-----------------------------------------|---------------------------------|
--------7-10-7--------------5-8-5--------|--------7-10-7--------12----8----|
--7--8---------8-7-0--5--7--------7-5-0--|--7--8---------8-7-0--12----8----|


  PM PM            PM PM PM           PM                           
  S  S  S  S S S S S  S  S  S S S S S S      Q    Q    Q     Q     
-----------------------------------------|------------------------|
-----------------------------------------|------------------------|
-----------------------------------------|------------------------|
-----------------------------------------|------------------------|
--------7-10-7--------------5-8-5--------|--12----8----7----10----|
--7--8---------8-7-0--5--7--------7-5-0--|--12----8----7----10----|


  PM PM            PM PM PM           PM    PM PM            PM             
  S  S  S  S S S S S  S  S  S S S S S S     S  S  S  S S S S S   Q    Q     
-----------------------------------------|---------------------------------|
-----------------------------------------|---------------------------------|
-----------------------------------------|---------------------------------|
-----------------------------------------|---------------------------------|
--------7-10-7--------------5-8-5--------|--------7-10-7--------12----8----|
--7--8---------8-7-0--5--7--------7-5-0--|--7--8---------8-7-0--12----8----|


  PM PM            PM PM PM           PM                           
  S  S  S  S S S S S  S  S  S S S S S S      Q    Q     Q    Q     
-----------------------------------------|------------------------|
-----------------------------------------|------------------------|
-----------------------------------------|------------------------|
-----------------------------------------|------------------------|
--------7-10-7--------------5-8-5--------|--12----8----10----7----|
--7--8---------8-7-0--5--7--------7-5-0--|--12----8----10----7----|


  Q    Q    S S S S S S S S    S S E  Q    H         
----------------------------|-----------------------|
----------------------------|-----------------------|
----------------------------|-----------------------|
----------------------------|--2--------------------|
--8----5----7-7-7-7-7-7-7-7-|--2--------------------|
--8----5----7-7-7-7-7-7-7-7-|--2--------------------|


     PM PM PM              PM            
  E  S  S  S  S S S S S  S S  S  S S  S  
----------------------------------------|
----------------------------------------|
----------------------------------------|
--------------2-------------------------|
--2-------------5-----------------------|
--2--2--3--2------3-0-3h-5-0--7p-0-5p-0-|


    PM PM PM         PM  PM             
  S S  S  S  S S S S S   S S S S S S S  
---------------------------------------|
---------------------------------------|
---------------------------------------|
-------------2-------------------------|
--2------------5-----------7-8-5-7-5---|
--2-2--3--2------3-0-7--10-----------8-|


     PM PM PM              PM                PM PM PM                          
  E  S  S  S  S S S S S  S S  S  S S  S    S S  S  S  S S S S S S S S S S S S  
----------------------------------------|-------------------------------------|
----------------------------------------|-------------------------------------|
----------------------------------------|-------------------------------------|
--------------2-------------------------|-------------2-----------5-7-5-------|
--2-------------5-----------------------|--2------------5-----5-8-------8-5---|
--2--2--3--2------3-0-3h-5-0--7p-0-5p-0-|--2-2--3--2------3-0---------------7-|


     PM PM PM              PM            
  E  S  S  S  S S S S S  S S  S  S S  S  
----------------------------------------|
----------------------------------------|
----------------------------------------|
--------------2-------------------------|
--2-------------5-----------------------|
--2--2--3--2------3-0-3h-5-0--7p-0-5p-0-|


    PM PM PM         PM  PM             
  S S  S  S  S S S S S   S S S S S S S  
---------------------------------------|
---------------------------------------|
---------------------------------------|
-------------2-------------------------|
--2------------5-----------7-8-5-7-5---|
--2-2--3--2------3-0-7--10-----------8-|


     PM PM PM              PM            
  E  S  S  S  S S S S S  S S  S  S S  S  
----------------------------------------|
----------------------------------------|
----------------------------------------|
--------------2-------------------------|
--2-------------5-----------------------|
--2--2--3--2------3-0-3h-5-0--7p-0-5p-0-|


    PM PM PM                                            
  S S  S  S  S S S S S S S S S S S S S  S S S S S S  S  
-------------------------------------------------------|
-------------------------------------------------------|
----------------------------------------------7-9-7----|
-------------2---------------5-7-5--------7-8-------10-|
--2------------5---------5-7-------8-7-10--------------|
--2-2--3--2------3-0-5-8-------------------------------|


  Q    Q    S S S S S S S S     E.   E.   E  E.  E.  E   
----------------------------|---------------------------|
----------------------------|---------------------------|
----------------------------|---------------------------|
----------------------------|--10---10---10--3---3---3--|
--8----5----7-7-7-7-7-7-7-7-|---8----8----8--3---3---3--|
--8----5----7-7-7-7-7-7-7-7-|---8----8----8--3---3---3--|


             PM PM PM PM PM PM PM PM                     
  E.  E.  E  S  S  S  S  S  S  S  S     S S S S   Q      
-------------------------------------|------------------|
-------------------------------------|------------------|
-------------------------------------|------------------|
--7---7---7--------------------------|------------------|
--5---5---5--------------------------|------------------|
--5---5---5--7--5--3--0--5--3--2--0--|--2-3-2-0-<>2b----|


  PM PM PM PM PM PM PM PM PM              PM PM PM PM PM PM PM PM PM            
  S  S  S  S  S  S  S  S  S  S Q    E     S  S  S  S  S  S  S  S  S  S Q    E   
---------------------------------------|---------------------------------------|
---------------------------------------|---------------------------------------|
---------------------------------------|---------------------------------------|
---------------------------------------|---------------------------------------|
--0--0--0--0--0--0--0--0--0------------|--0--0--0--0--0--0--0--0--0------------|
--0--0--0--0--0--0--0--0--0------------|--0--0--0--0--0--0--0--0--0------------|


  PM PM PM PM PM PM PM PM PM              PM PM PM PM PM PM PM PM PM            
  S  S  S  S  S  S  S  S  S  S Q    E     S  S  S  S  S  S  S  S  S  S Q    E   
---------------------------------------|---------------------------------------|
---------------------------------------|---------------------------------------|
---------------------------------------|---------------------------------------|
---------------------------------------|---------------------------------------|
--0--0--0--0--0--0--0--0--0------------|--0--0--0--0--0--0--0--0--0------------|
--0--0--0--0--0--0--0--0--0------------|--0--0--0--0--0--0--0--0--0------------|


    PM PM PM PM PM PM PM PM PM            
    S  S  S  S  S  S  S  S  S  S Q    E   
|----------------------------------------|
|----------------------------------------|
|*---------------------------------------|
|*---------------------------------------|
|---0--0--0--0--0--0--0--0--0------------|
|---0--0--0--0--0--0--0--0--0------------|


  PM PM PM PM PM PM PM PM PM              
  S  S  S  S  S  S  S  S  S  S Q    E     
----------------------------------------||
----------------------------------------||
---------------------------------------*||
---------------------------------------*||
--0--0--0--0--0--0--0--0--0-------------||
--0--0--0--0--0--0--0--0--0-------------||


   PM PM PM PM PM PM PM PM                              
                                       |---3---|        
   S  S  S  S  S  S  S  S  S  S  S  S  S   S   S  S  S  
-------------------------------------------------------|
-------------------------------------------------------|
*-------------------------------------10h-14p-10-------|
*-------------------------------10-12------------12-10-|
---0--0--0--0--0--0--0--0--8-12------------------------|
---0--0--0--0--0--0--0--0------------------------------|


  PM PM PM PM PM PM PM PM                                    
                                         |---3---|           
  S  S  S  S  S  S  S  S   S   S  S   S  S   S   S  S   S    
-----------------------------------------------------------||
-----------------------------------------------------------||
----------------------------------------------------------*||
----------------------------------------10h-14p-10--------*||
--0--0--0--0--0--0--0--0---------10h-12------------12p-10--||
--0--0--0--0--0--0--0--0--10h-14---------------------------||


  PM PM PM PM    PM           PM    PM      PM PM      PM   PM   PM  
  S  S  S  S  E  S  S      E  S   S S  S  S S  S  S  S S  S S  S S   
----------------------||--------------------------------------------|
----------------------||--------------------------------------------|
----------------------||*-------------------------------------------|
----------------------||*-------------------------------------------|
--0--0--0--0-----0----||---0-----10----8p-7-------5h-7----3----7----|
--0--0--0--0-----0----||---0--0-----0-------0--0-------0----0----0--|


     PM    PM      PM                  
  E  S   S S  S  S S  S S S S S S S S  
--------------------------------------|
--------------------------------------|
--------------------------------------|
--------------------------5-7-5-------|
--0-----10----8p-7----5-8-------8-7-5-|
--0--0-----0-------0------------------|


     PM    PM      PM PM      PM   PM   PM  
  E  S   S S  S  S S  S  S  S S  S S  S S   
-------------------------------------------|
-------------------------------------------|
-------------------------------------------|
-------------------------------------------|
--0-----10----8p-7-------5h-7----3----7----|
--0--0-----0-------0--0-------0----0----0--|


     PM    PM      PM                           
                                |--3--|         
  E  S   S S  S  S S   S S S  S S  S  S  S S    
----------------------------------------------||
----------------------------------------------||
---------------------------------------------*||
----------------------10-8-7----7h-8p-7------*||
--0-----10----8p-7-----------10---------10-8--||
--0--0-----0-------0--------------------------||


  PM  PMPM PM                                 
              |--3--|                         
  S   S S  S  S  S  S  S S S S S S  S S S  S  
---------------------------------------------|
---------------------------------------------|
---------------------------------------------|
--------------7h-8p-7------8-7-5---10-8-7----|
--------7--8----------10-8-------8--------10-|
--7--10--------------------------------------|


     PM    PM        PM PM       PM   PM    PM  
  E  S   S S   S   S S  S  S   S S  S S   S S   
-----------------------------------------------|
-----------------------------------------------|
-----------------------------------------------|
-----------------------------------------------|
--0-----13----12p-10-------8h-10----7----10----|
--0--0-----0---------0--0--------0----0-----0--|


     PM    PM        PM                      
  E  S   S S   S   S S  S  S S  S S  S  S S  
--------------------------------------------|
--------------------------------------------|
--------------------------------------------|
-----------------------------8-10-8---------|
--0-----13----12p-10----8-12--------12-10-8-|
--0--0-----0---------0----------------------|


     PM    PM        PM PM       PM   PM    PM  
  E  S   S S   S   S S  S  S   S S  S S   S S   
-----------------------------------------------|
-----------------------------------------------|
-----------------------------------------------|
-----------------------------------------------|
--0-----13----12p-10-------8h-10----7----10----|
--0--0-----0---------0--0--------0----0-----0--|


     PM    PM        PM                               
                                     |---3---|        
  E  S   S S   S   S S   S  S  S  S  S   S   S  S  S  
-----------------------------------------------------|
-----------------------------------------------------|
-----------------------------------------------------|
------------------------14-12-10----10h-12p-10-------|
--0-----13----12p-10-------------13------------13-12-|
--0--0-----0---------0-------------------------------|


  PM  PMPM PM                                 
              |--3--|                         
  S   S S  S  S  S  S  S S S S S S  S S S  S  
---------------------------------------------|
---------------------------------------------|
---------------------------------------------|
--------------7h-8p-7------8-7-5---10-8-7----|
--------7--8----------10-8-------8--------10-|
--7--10--------------------------------------|


  PM  PMPM PM                                 
                                |--3--|       
  S   S S  S   S S S  S S S S S S  S  S  S S  
---------------------------------------------|
---------------------------------------------|
---------------------------------------------|
--------------10-8-7----8-7-5---7h-8p-7------|
--------7--8---------10-------8---------10-8-|
--7--10--------------------------------------|


  PM  PMPM PM                                 
              |--3--|                         
  S   S S  S  S  S  S  S S S S S S  S S S  S  
---------------------------------------------|
---------------------------------------------|
---------------------------------------------|
--------------7h-8p-7------8-7-5---10-8-7----|
--------7--8----------10-8-------8--------10-|
--7--10--------------------------------------|


  PM  PMPM PM                                 
                                |--3--|       
  S   S S  S   S S S  S S S S S S  S  S  S S  
---------------------------------------------|
---------------------------------------------|
---------------------------------------------|
--------------10-8-7----8-7-5---7h-8p-7------|
--------7--8---------10-------8---------10-8-|
--7--10--------------------------------------|


  PM PM PM PM   PM   PM    PM   PM PM PM PM  
  S  S  S  S  S S  S S  E  S  S S  S  S  S   
--------------------------------------------|
--------------------------------------------|
--------------------------------------------|
--------------------------------------------|
--0--0--0--0----0----0-----0----0--0--0--0--|
--0--0--0--0----0----0-----0----0--0--0--0--|


  PM PM PM PM   PM   PM    PM   PM PM PM PM  
  S  S  S  S  S S  S S  E  S  S S  S  S  S   
--------------------------------------------|
--------------------------------------------|
--------------------------------------------|
--------------------------------------------|
--0--0--0--0----0----0-----0----0--0--0--0--|
--0--0--0--0----0----0-----0----0--0--0--0--|


  PM PM PM PM   PM   PM    PM   PM PM PM PM  
  S  S  S  S  S S  S S  E  S  S S  S  S  S   
--------------------------------------------|
--------------------------------------------|
--------------------------------------------|
--------------------------------------------|
--5--5--5--5----5----5-----5----5--5--5--5--|
--5--5--5--5----5----5-----5----5--5--5--5--|


  PM PM PM PM   PM   PM    PM   PM PM PM PM                      
  S  S  S  S  S S  S S  E  S  S S  S  S  S     W                 
--------------------------------------------|-------------------|
--------------------------------------------|-------------------|
--------------------------------------------|-------------------|
--------------------------------------------|--0----------------|
--7--7--7--7----7----7-----7----7--7--7--7--|--0----------------|
--7--7--7--7----7----7-----7----7--7--7--7--|--0----------------|


  W                   W                   W                 
-------------------|-------------------|-------------------|
-------------------|-------------------|-------------------|
-------------------|-------------------|-------------------|
--5----------------|--3----------------|--7----------------|
--5----------------|--3----------------|--7----------------|
--5----------------|--3----------------|--7----------------|


                              PM PM           PM PM                   
   E.   E.   E  E.  E.  E     S  S  S  S S  S S  S  S  S S  E  S S S  
---------------------------|-----------------------------------------|
---------------------------|-----------------------------------------|
---------------------------|-----------------------------------------|
--10---10---10--3---3---3--|-----------------------------------------|
---8----8----8--3---3---3--|--------8p-5-5h-7-------8p-5-5h-7--7-7-7-|
---8----8----8--3---3---3--|--0--0------------0--0-------------------|


  PM PM           PM PM                   
  S  S  S  S S  S S  S  S  S S S S S S S  
-----------------------------------------|
-----------------------------------------|
-----------------------------------------|
---------------------------------5-------|
--------8p-5-5h-7-------8p-5-5-7---8-7-5-|
--0--0------------0--0-------------------|


  PM PM             PM PM                        
  S  S   S  S S   S S  S   S  S S   E   S  S  S  
------------------------------------------------|
------------------------------------------------|
------------------------------------------------|
------------------------------------------------|
--------12p-8-8h-10-------12p-8-8h-10--10-10-10-|
--0--0--------------0--0------------------------|


  PM PM             PM PM                                                   
  S  S   S  S S   S S  S   S  S S  S S  S  S S     S   S  S  S  S  S  S  S  
-----------------------------------------------|---------------------------|
-----------------------------------------------|---------------11----------|
-----------------------------------------------|--14p-10-10-12----14-12-10-|
-------------------------------------8---------|---------------------------|
--------12p-8-8h-10-------12p-8-8-10---12-10-8-|---------------------------|
--0--0--------------0--0-----------------------|---------------------------|


  PM PM PM   PM PM    PM PM PM PM PM PM PM PM  
  S  S  S  S S  S  E  S  S  S  S  S  S  S  S   
----------------------------------------------|
----------------------------------------------|
----------------------------------------------|
----------------------------------------------|
--0--0--0----0--0-----0--0--0--0--0--0--0--0--|
--0--0--0----0--0-----0--0--0--0--0--0--0--0--|


  PM PM PM   PM PM    PM PM PM PM PM PM PM PM  
  S  S  S  S S  S  E  S  S  S  S  S  S  S  S   
----------------------------------------------|
----------------------------------------------|
----------------------------------------------|
----------------------------------------------|
--0--0--0----0--0-----0--0--0--0--0--0--0--0--|
--0--0--0----0--0-----0--0--0--0--0--0--0--0--|


  PM PM PM   PM PM    PM PM PM PM PM PM PM PM  
  S  S  S  S S  S  E  S  S  S  S  S  S  S  S   
----------------------------------------------|
----------------------------------------------|
----------------------------------------------|
----------------------------------------------|
--0--0--0----0--0-----0--0--0--0--0--0--0--0--|
--0--0--0----0--0-----0--0--0--0--0--0--0--0--|


  PM PM PM   PM PM    PM PM PM PM PM PM PM PM  
  S  S  S  S S  S  E  S  S  S  S  S  S  S  S   
----------------------------------------------|
----------------------------------------------|
----------------------------------------------|
----------------------------------------------|
--0--0--0----0--0-----0--0--0--0--0--0--0--0--|
--0--0--0----0--0-----0--0--0--0--0--0--0--0--|


    PM PM PM   PM PM    PM PM PM PM PM PM PM PM  
    S  S  S  S S  S  E  S  S  S  S  S  S  S  S   
|-----------------------------------------------|
|-----------------------------------------------|
|*----------------------------------------------|
|*----------------------------------------------|
|---0--0--0----0--0-----0--0--0--0--0--0--0--0--|
|---0--0--0----0--0-----0--0--0--0--0--0--0--0--|


  PM PM PM   PM PM    PM PM PM PM PM PM PM PM  
  S  S  S  S S  S  E  S  S  S  S  S  S  S  S   
----------------------------------------------|
----------------------------------------------|
----------------------------------------------|
----------------------------------------------|
--0--0--0----0--0-----0--0--0--0--0--0--0--0--|
--0--0--0----0--0-----0--0--0--0--0--0--0--0--|


  PM PM PM   PM PM    PM PM PM PM PM PM PM PM  
  S  S  S  S S  S  E  S  S  S  S  S  S  S  S   
----------------------------------------------|
----------------------------------------------|
----------------------------------------------|
----------------------------------------------|
--0--0--0----0--0-----0--0--0--0--0--0--0--0--|
--0--0--0----0--0-----0--0--0--0--0--0--0--0--|


  PM PM PM   PM PM    PM PM PM PM PM PM PM PM    
  S  S  S  S S  S  E  S  S  S  S  S  S  S  S     
-----------------------------------------------||
-----------------------------------------------||
----------------------------------------------*||
----------------------------------------------*||
--0--0--0----0--0-----0--0--0--0--0--0--0--0---||
--0--0--0----0--0-----0--0--0--0--0--0--0--0---||


  PM PM PM PM   PM   PM             PM PM PM PM   PM   PM           
  S  S  S  S  S S  S S  H           S  S  S  S  S S  S S  H         
---------------------------------|---------------------------------|
---------------------------------|---------------------------------|
---------------------------------|---------------------------------|
---------------------------------|---------------------------------|
--0--0--0--0----0----0-----------|--5--5--5--5----5----5-----------|
--0--0--0--0----0----0-----------|--5--5--5--5----5----5-----------|


  PM PM PM PM   PM   PM           
  S  S  S  S  S S  S S  H         
---------------------------------|
---------------------------------|
---------------------------------|
---------------------------------|
--8--8--8--8----8----8-----------|
--8--8--8--8----8----8-----------|


   S  S  S  S  S  S  S  S S  S S  S S  S S  S  
--13-12-10----10---------------8-12-8---------|
-----------13----13-11-10---10--------10------|
--------------------------9--------------9----|
-------------------------------------------10-|
----------------------------------------------|
----------------------------------------------|


     E   S  E   S  S  S  E   S  E   S  S  S    E  S E  S S S E  S E  S S S  
|-------------------------------------------|------------------------------|
|-------------------------------------------|------------------------------|
|*------------------------------------------|------------------------------|
|*--10--10-10--10-10-10-10--10-10--10-10-10-|--3--3-3--3-3-3-7--7-7--7-7-7-|
|----8---8--8---8--8--8--8---8--8---8--8--8-|--3--3-3--3-3-3-3--3-3--3-3-3-|
|----8---8--8---8--8--8--8---8--8---8--8--8-|--3--3-3--3-3-3-3--3-3--3-3-3-|


  E  S E  S S S E  S E  S S S    E  S E  S S S E  S E  S S S    
------------------------------|-------------------------------||
------------------------------|-------------------------------||
------------------------------|------------------------------*||
--7--7-7--7-7-7-7--7-7--7-7-7-|--0--0-0--0-0-0-2--2-2--2-2-2-*||
--5--5-5--5-5-5-5--5-5--5-5-5-|--0--0-0--0-0-0-0--0-0--0-0-0--||
--5--5-5--5-5-5-5--5-5--5-5-5-|--0--0-0--0-0-0-0--0-0--0-0-0--||


   E   S  E   S  S  S  E   S  E   S  S  S    E  S E  S S S E  S E  S S S  
------------------------------------------|------------------------------|
------------------------------------------|------------------------------|
------------------------------------------|------------------------------|
--10--10-10--10-10-10-10--10-10--10-10-10-|--3--3-3--3-3-3-7--7-7--7-7-7-|
---8---8--8---8--8--8--8---8--8---8--8--8-|--3--3-3--3-3-3-3--3-3--3-3-3-|
---8---8--8---8--8--8--8---8--8---8--8--8-|--3--3-3--3-3-3-3--3-3--3-3-3-|


  E  S E  S S S E  S E  S S S    E  S E  S S S E  S E  S S S  
------------------------------|------------------------------|
------------------------------|------------------------------|
------------------------------|------------------------------|
--7--7-7--7-7-7-7--7-7--7-7-7-|--0--0-0--0-0-0-2--2-2--2-2-2-|
--5--5-5--5-5-5-5--5-5--5-5-5-|--0--0-0--0-0-0-0--0-0--0-0-0-|
--5--5-5--5-5-5-5--5-5--5-5-5-|--0--0-0--0-0-0-0--0-0--0-0-0-|


   E   S  E   S  S  S  E   S  E   S  S  S    E  S E  S S S E  S E  S S S  
------------------------------------------|------------------------------|
------------------------------------------|------------------------------|
------------------------------------------|------------------------------|
--10--10-10--10-10-10-10--10-10--10-10-10-|--3--3-3--3-3-3-7--7-7--7-7-7-|
---8---8--8---8--8--8--8---8--8---8--8--8-|--3--3-3--3-3-3-3--3-3--3-3-3-|
---8---8--8---8--8--8--8---8--8---8--8--8-|--3--3-3--3-3-3-3--3-3--3-3-3-|


  E  S E  S S S E  S E  S S S    E  S E  S S S E  S E  S S S  
------------------------------|------------------------------|
------------------------------|------------------------------|
------------------------------|------------------------------|
--7--7-7--7-7-7-7--7-7--7-7-7-|--0--0-0--0-0-0-2--2-2--2-2-2-|
--5--5-5--5-5-5-5--5-5--5-5-5-|--0--0-0--0-0-0-0--0-0--0-0-0-|
--5--5-5--5-5-5-5--5-5--5-5-5-|--0--0-0--0-0-0-0--0-0--0-0-0-|


                              PM PM PM PM PM PM PM PM PM                   
   E.   E.   E  E.  E.  E     S  S  S  S  S  S  S  S  S  S E  Q            
---------------------------|---------------------------------------|-----||
---------------------------|---------------------------------------|-----||
---------------------------|---------------------------------------|-----||
--10---10---10--3---3---3--|---------------------------------------|-----||
---8----8----8--3---3---3--|--0--0--0--0--0--0--0--0--0------------|-----||
---8----8----8--3---3---3--|--0--0--0--0--0--0--0--0--0------------|-----||




Duration Legend
---------------
W - whole
H - half
Q - quarter
E - 8th
S - 16th
T - 32nd
X - 64th
. - note dotted
|-n-|  - n-tuplets


Tablature Legend
----------------
L - tied note
x - dead note
g - grace note
(n) - ghost note
> - accentuded note
NH - natural harmonic
AH - artificial harmonic
TH - tapped harmonic
SH - semi harmonic
PH - pitch harmonic
h - hammer on
p - pull off
b - bend
br - bendRelease
pb - preBend
pbr - preBendRelease
brb - bendReleaseBend
\n/ - tremolo bar dip
\n - tremolo bar dive
-/n - tremolo bar Release up
/n\ - tremolo bar inverted dip
/n - tremolo bar return
-\n - tremolo bar Release down
S - shift slide
s - legato slide
/ -  slide into from below or out of upwards
\ -  slide into from above or out of downwards
~ - vibrato
W - wide vibrato
tr - trill
TP - tremolo picking
T - tapping
S - slap
P - pop
< - fade in
^ - brush up
v - brush down
comments
We did not receive enough feedback on this tab! Please rate:
1 2 3 4 5
I want to post or [tab]
guest
You may want to rate the tab now too:
select rating
Please do not post tabs as comments. Select "correction" instead!