Oops, an error
Loading. Please wait.

Arsenic - My Heartbreak Myth Tab

ver1
ver1

Whole song

Interactive

More versions @911Tabs.com
54 views 1 this week
no commentswrite comment
1 2 3 4 5
please rate
Autoscroll
+/-
esc
set tempo
stop
Contributor
Difficulty
novice
Hey! There's an official Ultimate Guitar app which is ideal
for learning songs when you're away from computer. Get the app
WARNING: You are trying to view
                                    content from Ultimate-Guitar.com
                                    in an unauthorized application,
                                    which is prohibited.

                                    Please use an official Ultimate
                                    Guitar Tabs application for iPhone,
                                    iPad or Android to access legitimate
                                    chords, guitar, bass, and drum tabs
                                    from Ultimate-Guitar.com database.

                                    Type "ultimate guitar tabs" in Apple
                                    App Store's or Android Market's
                                    search to find the application.
120bpm

[INTRO]
----------------|----------------|----------------|----------------|
----------------|----------------|----------------|----------------|
--------11------|--------11------|--------8-------|--------6-------|
-----11---------|-----11---------|-----8----------|-----6----------|
--9-------------|--8-------------|--6-------------|--4-------------|
----------------|----------------|----------------|----------------|

----------------|----------------|----------------|----------------|
----------------|----------------|----------------|----------------|
--------11------|--------11------|--------8-------|--6-------------|
-----11---------|-----11---------|-----8----------|--6-------------|
--9-------------|--8-------------|--6-------------|--4-------------|
----------------|----------------|----------------|----------------|

[VERSE 1]
----------------|----------------|----------------|----------------|
----------------|----------------|----------------|----------------|
--------11------|--------11------|--------8-------|--------6-------|
-----11---------|-----11---------|-----8----------|-----6----------|
--9---------9-7-|--8---------8-6-|--6---------6-4-|--4---------3-1-|
----------------|----------------|----------------|----------------|

----------------|----------------|----------------|----------------|
----------------|----------------|----------------|----------------|
--------11------|--------11------|--------8-------|--------6-------|
-----11---------|-----11---------|-----8----------|-----6----------|
--9---------9-7-|--8---------8-6-|--6---------6-4-|--4---------3-1-|
----------------|----------------|----------------|----------------|

[BREAK]
----------------|----------------|
----------------|----------------|
--4-------------|--6-------------|
--4--------4----|--6--------6----|
--2-----2-------|--4-----4-------|
----------------|----------------|

[VERSE 2]
----------------|----------------|----------------|----------------|
----------------|----------------|----------------|----------------|
--------11------|--------11------|--------8-------|--------6-------|
-----11---------|-----11---------|-----8----------|-----6----------|
--9---------9-7-|--8---------8-6-|--6---------6-4-|--4---------3-1-|
----------------|----------------|----------------|----------------|

----------------|----------------|----------------|----------------|
----------------|----------------|----------------|----------------|
--------11------|--------11------|--------8-------|--------6-------|
-----11---------|-----11---------|-----8----------|-----6----------|
--9---------9-7-|--8---------8-6-|--6---------6-4-|--4-------------|
----------------|----------------|----------------|----------------|

[PRE CHORUS]
----------------|----------------|----------------|----------------|
----------------|----------------|----------------|----------------|
----11------11--|-----8-------6--|----11------11--|-----8---6------|
--11--11--11--11|---8---8---6---6|--11--11--11--11|---8---8-6------|
-9-------8------|-6-------4------|-9-------8------|-6-------4------|
----------------|----------------|----------------|----------------|

[CHORUS]
----------------|----------------|----------------|----------------|
------11------11|------11------11|------11------11|------11------11|
------11------11|------11------11|------11------11|------11------11|
--11--11--11--11|--11--11--11--11|--11--11--11--11|--11--11--11--11|
---9---9---9---9|---9---9---9---9|---8---8---8---8|---8---8---8---8|
----------------|----------------|----------------|----------------|

----------------|----------------|----------------|----------------|
-------8-------8|-------8-------8|-------6-------6|-------6-------6|
-------8-------8|-------8-------8|-------6-------6|-------6-------6|
---8---8---8---8|---8---8---8---8|---6---6---6---6|---6---6---6---6|
---6---6---6---6|---6---6---6---6|---4---4---4---4|---4---4---4---4|
----------------|----------------|----------------|----------------|

----------------|----------------|----------------|----------------|
------11------11|------11------11|------11------11|------11------11|
------11------11|------11------11|------11------11|------11------11|
--11--11--11--11|--11--11--11--11|--11--11--11--11|--11--11--11--11|
---9---9---9---9|---9---9---9---9|---8---8---8---8|---8---8---8---8|
----------------|----------------|----------------|----------------|

----------------|----------------|----------------|----------------|
-------8-------8|---8------------|-------6---6---6|---6------------|
-------8-------8|---8------------|-------6---6---6|---6------------|
---8---8---8---8|---8------------|---6---6---6---6|---6------------|
---6---6---6---6|---6------------|---4---4---4---4|---4------------|
----------------|----------------|----------------|----------------|

[PRE VERSE]
----------------|----------------|----------------|----------------|
----------------|----------------|----------------|----------------|
--------11------|--------11------|--------8-------|--------6-------|
-----11---------|-----11---------|-----8----------|-----6----------|
--9-------------|--8-------------|--6-------------|--4-------------|
----------------|----------------|----------------|----------------|

[VERSE 3]
----------------|----------------|----------------|----------------|
----------------|----------------|----------------|----------------|
--------11------|--------11------|--------8-------|--------6-------|
-----11---------|-----11---------|-----8----------|-----6----------|
--9---------9-7-|--8---------8-6-|--6---------6-4-|--4---------3-1-|
----------------|----------------|----------------|----------------|

----------------|----------------|----------------|----------------|
----------------|----------------|----------------|----------------|
--------11------|--------11------|--------8-------|--------6-------|
-----11---------|-----11---------|-----8----------|-----6----------|
--9---------9-7-|--8---------8-6-|--6---------6-4-|--4-------------|
----------------|----------------|----------------|----------------|

[PRE CHORUS]
----------------|----------------|----------------|----------------|
----------------|----------------|----------------|----------------|
----11------11--|-----8-------6--|----11------11--|-----8---6------|
--11--11--11--11|---8---8---6---6|--11--11--11--11|---8---8-6------|
-9-------8------|-6-------4------|-9-------8------|-6-------4------|
----------------|----------------|----------------|----------------|

[CHORUS 2]
----------------|----------------|----------------|----------------|
----------------|----------------|----------------|----------------|
-11-------------|-11-11----------|-11--8----------|--8--6----------|
-11-------------|-11-11----------|-11--8----------|--8--6----------|
--9-------------|--9--8----------|--8--6----------|--6--4----------|
----------------|----------------|----------------|----------------|

----------------|----------------|----------------|----------------|
----------------|----------------|----------------|----------------|
-11-------------|-11-11----------|-11--8----------|--8--6----------|
-11-------------|-11-11----------|-11--8----------|--8--6----------|
--9-------------|--9--8----------|--8--6----------|--6--4----------|
----------------|----------------|----------------|----------------|

----------------|----------------|----------------|----------------|
----------------|----------------|----------------|----------------|
-11-------------|-11-11----------|-11--8----------|--6-------------|
-11-------------|-11-11----------|-11--8----------|--6-------------|
--9-------------|--9--8----------|--8--6----------|--4-------------|
----------------|----------------|----------------|----------------|

----------------|----------------|----------------|----------------|
----------------|----------------|----------------|----------------|
1111111111111111|-11-------------|----------------|----------------|
1111111111111111|-11-------------|----------------|----------------|
-8-8-8-8-9-9-9-9|--9-------------|----------------|----------------|
----------------|----------------|----------------|----------------|

[CHORUS 3]
---------------------------------|---------------------------------|
---------------------------------|---------------------------------|
-11----11--x-11-11-11-11-11--x--x|-11----11--x-11-11-11-11-11--x--x|
-11----11--x-11-11-11-11-11--x--x|-11----11--x-11-11-11-11-11--x--x|
--9-----9--x--9--9--9--9--9--x--x|--9-----9--x--9--9--9--9--9--x--x|
---------------------------------|---------------------------------|

---------------------------------|---------------------------------|
---------------------------------|---------------------------------|
--8-----8--x--8--8--8--8--8--x--x|--6-----6--x--6--6--6--6--6--x--x|
--8-----8--x--8--8--8--8--8--x--x|--6-----6--x--6--6--6--6--6--x--x|
--6-----6--x--6--6--6--6--6--x--x|--4-----4--x--4--4--4--4--4--x--x|
---------------------------------|---------------------------------|

---------------------------------|---------------------------------|
---------------------------------|---------------------------------|
-11----11--x-11-11-11-11-11--x--x|-11----11--x-11-11-11-11-11--x--x|
-11----11--x-11-11-11-11-11--x--x|-11----11--x-11-11-11-11-11--x--x|
--9-----9--x--9--9--9--9--9--x--x|--9-----9--x--9--9--9--9--9--x--x|
---------------------------------|---------------------------------|

---------------------------------|---------------------------------|
---------------------------------|---------------------------------|
--8-----8--x--8--8--8--8--8--x--x|--6-----6--x--6--6--6--6--6--x--x|
--8-----8--x--8--8--8--8--8--x--x|--6-----6--x--6--6--6--6--6--x--x|
--6-----6--x--6--6--6--6--6--x--x|--4-----4--x--4--4--4--4--4--x--x|
---------------------------------|---------------------------------|

[OUTRO]
---------------------------------|---------------------------------|
---------------------------------|---------------------------------|
-11----11--x-11-11-11-11-11--x--x|-11----11--x-11-11-11-11-11--x--x|
-11----11--x-11-11-11-11-11--x--x|-11----11--x-11-11-11-11-11--x--x|
--9-----9--x--9--9--9--9--9--x--x|--9-----9--x--9--9--9--9--9--x--x|
---------------------------------|---------------------------------|

---------------------------------|---------------------------------|
---------------------------------|---------------------------------|
--8-----8--x--8--8--8--8--8--x--x|--6-----6--x--6--6--6--6--6--x--x|
--8-----8--x--8--8--8--8--8--x--x|--6-----6--x--6--6--6--6--6--x--x|
--6-----6--x--6--6--6--6--6--x--x|--4-----4--x--4--4--4--4--4--x--x|
---------------------------------|---------------------------------|

---------------------------------|---------------------------------|
---------------------------------|---------------------------------|
-11----11--x-11-11-11-11-11--x--x|-11----11--x-11-11-11-11-11--x--x|
-11----11--x-11-11-11-11-11--x--x|-11----11--x-11-11-11-11-11--x--x|
--9-----9--x--9--9--9--9--9--x--x|--9-----9--x--9--9--9--9--9--x--x|
---------------------------------|---------------------------------|

---------------------------------|---------------------------------|
---------------------------------|--6------------------------------|
--8-----8--x--8--8--8--8--8--x--x|--6------------------------------|
--8-----8--x--8--8--8--8--8--x--x|--6------------------------------|
--6-----6--x--6--6--6--6--6--x--x|--4------------------------------|
---------------------------------|---------------------------------|

Check out our Bebo Page - arsenicband.bebo.com 
comments
We did not receive enough feedback on this tab! Please rate:
print report bad tab
1 2 3 4 5
I want to post or [tab]
guest
You may want to rate the tab now too:
select rating
Please do not post tabs as comments. Select "correction" instead!