Oops, an error
Loading. Please wait.

August Oster - Downstream Tab

18 views 3 this week
no commentswrite comment
1 2 3 4 5
please rate
add to favorites launch autoscroll
font size
0
reset
Autoscroll
+/-
esc
set tempo
stop
Contributor
Tuning
D A D F# A D
WARNING: You are trying to view
                                    content from Ultimate-Guitar.com
                                    in an unauthorized application,
                                    which is prohibited.

                                    Please use an official Ultimate
                                    Guitar Tabs application for iPhone,
                                    iPad or Android to access legitimate
                                    chords, guitar, bass, and drum tabs
                                    from Ultimate-Guitar.com database.

                                    Type "ultimate guitar tabs" in Apple
                                    App Store's or Android Market's
                                    search to find the application.
-----------------------------------------------------------------------------
                          Downstream - August Oster
-----------------------------------------------------------------------------

Tabbed by: August Oster
Email: osterhoutben@gmail.com

Tuning: Open D (DADF#AD)

***************************
Legend
h = hammer on
p = pull off
/ = slide up
\ = slide down
***************************



d |------------------4\2p0----------0|----------------0----------------|
A |------2p0----------------0--------|------2p0------------------------|
F#|------------0----------------0----|------------0--------------------|
D |--------------0--------0-------0--|--------------0-------0-------0--|
A |------2p0-------------------------|------2p0------------------------|
D |--0-------0-------0--------0------|--0-------0-------0-------0------|


d |------------------4\2p0----------0|----------------0----------------|
A |------2p0----------------0--------|------2p0------------------------|
F#|------------0----------------0----|------------0--------------------|
D |--------------0--------0-------0--|--------------0-------0-------0--|
A |------2p0-------------------------|------2p0------------------------|
D |--0-------0-------0--------0------|--0-------0-------0-------0------|


d |----------------0----------------|----------------0----------------|
A |------5--------------------------|------5--------------------------|
F#|------------0---------0----------|------------0---------0----------|
D |------5-------5---------------0--|------5-------5---------------0--|
A |---------------------------------|---------------------------------|
D |--0-------0-------0-------0------|--0-------0-------0-------0------|


d |---------------------------------|---------------------------------|
A |----0-------0--------------------|----0-------0--------------------|
F#|--------5-------0----------------|--------5-------0----------------|
D |------0-------0-------0-------0--|------0-------0-------0-------0--|
A |---------------------------------|---------------------------------|
D |--0-------0-------0-------0------|--0-------0-------0-------0------|


d |------------------4\2p0----------0|----------------0----------------|
A |------2p0----------------0--------|------2p0------------------------|
F#|------------0----------------0----|------------0--------------------|
D |--------------0--------0-------0--|--------------0-------0-------0--|
A |------2p0-------------------------|------2p0------------------------|
D |--0-------0-------0--------0------|--0-------0-------0-------0------|


d |------------------4\2p0----------0|----------------0----------------|
A |------2p0----------------0--------|------2p0------------------------|
F#|------------0----------------0----|------------0--------------------|
D |--------------0--------0-------0--|--------------0-------0-------0--|
A |------2p0-------------------------|------2p0------------------------|
D |--0-------0-------0--------0------|--0-------0-------0-------0------|


d |----4---2---0--------------------|----4---2---0---2----------------|
A |----------------4---2---0---2----|---------------------------------|
F#|---------------------------------|---------------------------------|
D |------0-------0-------0-------0--|------0-------0-------0-------0--|
A |---------------------------------|---------------------------------|
D |--0-------0-------0-------0------|--0-------0-------0-------0------|


d |----4---2---0--------------------|--------0------------------------|
A |----------------4---2---0---2----|----2-------2---0----------------|
F#|---------------------------------|---------------------------------|
D |------0-------0-------0-------0--|------0-------0-------0-------0--|
A |---------------------------------|---------------------------------|
D |--0-------0-------0-------0------|--0-------0-------0-------0------|


d |------------------4\2p0----------0|----------------0----------------|
A |------2p0----------------0--------|------2p0------------------------|
F#|------------0----------------0----|------------0--------------------|
D |--------------0--------0-------0--|--------------0-------0-------0--|
A |------2p0-------------------------|------2p0------------------------|
D |--0-------0-------0--------0------|--0-------0-------0-------0------|


d |------------------4\2p0----------0|----------------0----------------|
A |------2p0----------------0--------|------2p0------------------------|
F#|------------0----------------0----|------------0--------------------|
D |--------------0--------0-------0--|--------------0-------0-------0--|
A |------2p0-------------------------|------2p0------------------------|
D |--0-------0-------0--------0------|--0-------0-------0-------0------|


d |----------------0----------------|----------------0----------------|
A |------4--------------------------|------4--------------------------|
F#|------------0--------------------|------------0--------------------|
D |------4-------4-------4-------4--|------4-------4-------4-------4--|
A |---------------------------------|---------------------------------|
D |--0-------0-------0-------0------|--0-------0-------0-------0------|


d |----------------0---------------0|----------------0----------------|
A |-/----5-----------------5--------|--------5---------------5------/7|
F#|------------0-------0-------0----|----0-------0-------0-------0----|
D |-/----5-------5-------5-------5--|------5-------5-------5-------5/-|
A |---------------------------------|---------------------------------|
D |--5-------5-------5-------5------|--5-------5-------5-------5----/-|


d |--------0---------------0--------|--------0---------------0--------|
A |----------------7---------------7|----------------7--------------/9|
F#|----0-------0-------0-------0----|----0-------0-------0-------0----|
D |------7-------7-------7-------7--|------7-------7-------7-------7/-|
A |---------------------------------|---------------------------------|
D |--7-------7-------7-------7------|--7-------7-------7-------7----/-|


d |--------0---------------0--------|--------0------------------------|
A |----------------9---------------9|----------------9------\7------\5|
F#|----0-------0-------0-------0----|----0-------0-------0-------0----|
D |------9-------9-------9-------9--|------9-------9-------9\------7\-|
A |---------------------------------|---------------------------------|
D |--9-------9-------9-------9------|--9-------9-------9----\--7----\-|

                                        ...slow it down till the pause|  
d |--------0---------------0--------|--------0---------------0--------|
A |----------------5---------------5|----------------5---------------0|
F#|----0-------0-------0-------0----|----0-------0-------0-------0----|
D |------5-------5-------5-------5--|------5-------5-------5-------5--|
A |---------------------------------|---------------------------------|
D |--5-------5-------5-------5------|--5-------5-------5-------5------|

        ...pause|                                                    
d |----------0--|
A |----------0--|
F#|----0-----0--|
D |------0---0--|
A |----------0--|
D |--0-------0--|


d |--5-------4-------2-------0------|--0-------0-------0------|
A |------0-------0-------0-------0--|------0-------0-------0--|
F#|---------------------------------|-------------------------|
D |---------------------------------|--0---------------0------|
A |---------------------------------|-------------------------|
D |--5-------4-------2-------0------|----------0--------------|


d |--5-------4-------2-------0------|--0-------0-------0------|
A |------0-------0-------0-------0--|------0-------0-------0--|
F#|---------------------------------|-------------------------|
D |---------------------------------|--0---------------0------|
A |---------------------------------|-------------------------|
D |--5-------4-------2-------0------|----------0--------------|


d |--4p0---0h2---2h4---4p0---0h2---2h4---4p0---0h2-----|
A |-----2h4---4p0---0h2---2h4---4p0---0h2---2h4---4p0--|
F#|----------------------------------------------------|
D |--------0-----------0-----------0-----------0-------|
A |----------------------------------------------------|
D |--0-----------0-----------0------------0------------|

           ...stop and let ring                                        
d |--2h4---4p0---0h2---2h4/7--|--7-----\5-----\2------0--|
A |-----0h2---2h4---4p0-------|----0------0------0----0--|
F#|---------------------------|------7-\----5------0--0--|
D |--------0-----------0------|-----------------------0--|
A |---------------------------|-----------------------0--|
D |--0-----------0------------|-----------------------0--|


d |--4p0---0h2---2h4---4p0---0h2---2h4---4p0---0h2-----|
A |-----2h4---4p0---0h2---2h4---4p0---0h2---2h4---4p0--|
F#|----------------------------------------------------|
D |--------0-----------0-----------0-----------0-------|
A |----------------------------------------------------|
D |--0-----------0-----------0------------0------------|

           ...stop and let ring                                        
d |--2h4---4p0---0h2---2h4/7--|--7-----\5-----\2------0--|
A |-----0h2---2h4---4p0-------|----0------0------0----0--|
F#|---------------------------|------7-\----5------0--0--|
D |--------0-----------0------|-----------------------0--|
A |---------------------------|-----------------------0--|
D |--0-----------0------------|-----------------------0--|


d |----------------0----------------|----------------0----------------|
A |------0---------------4---------0|------0-----------------0--------|
F#|------------5---------------0----|------------2-------2-------2----|
D |------0-------0-------0-------0--|------0-------0-------0-------0--|
A |---------------------------------|---------------------------------|
D |--5-------5-------4-------4------|--2-------2-------2-------2------|


d |----------------0----------------|
A |------0---------------4---------0|
F#|-/----------5---------------0----|
D |------0-------0-------0-------0--|
A |---------------------------------|
D |-/5-------5-------4-------4------|


d |----------------0----------------|----------------0----------------|
A |------0-----------------0--------|------0-----------------0-------0|
F#|------------2-------2-------2----|------------2-------2-------2----|
D |------0-------0-------0-------0--|------0-------0-------0-------0--|
A |---------------------------------|---------------------------------|
D |--2-------2-------2-------2------|--2-------2-------2-------2------|


d |------------------4\2p0----------0|----------------0----------------|
A |------2p0----------------0--------|------2p0------------------------|
F#|------------0----------------0----|------------0--------------------|
D |--------------0--------0-------0--|--------------0-------0-------0--|
A |------2p0-------------------------|------2p0------------------------|
D |--0-------0-------0--------0------|--0-------0-------0-------0------|


d |------------------4\2p0----------0|----------------0----------------|
A |------2p0----------------0--------|------2p0------------------------|
F#|------------0----------------0----|------------0--------------------|
D |--------------0--------0-------0--|--------------0-------0-------0--|
A |------2p0-------------------------|------2p0------------------------|
D |--0-------0-------0--------0------|--0-------0-------0-------0------|


d |----------------0----------------|----------------0----------------|
A |------5--------------------------|------5--------------------------|
F#|------------0---------0----------|------------0---------0----------|
D |------5-------5---------------0--|------5-------5---------------0--|
A |---------------------------------|---------------------------------|
D |--0-------0-------0-------0------|--0-------0-------0-------0------|


d |---------------------------------|---------------------------------|
A |----0-------0--------------------|----0-------0--------------------|
F#|--------5-------0----------------|--------5-------0----------------|
D |------0-------0-------0-------0--|------0-------0-------0-------0--|
A |---------------------------------|---------------------------------|
D |--0-------0-------0-------0------|--0-------0-------0-------0------|


d |----------------0----------------|---------------------------------|
A |------7-----------------7------\5|------5--------------------------|
F#|------------0-------0-------0----|---------------------------------|
D |------7-------7-------7-------7\-|------5---------5-------5-------5|
A |---------------------------------|------------0-0-----0-0-----0-0--|
D |--7-------7-------7-------7----\-|--5-------5-------5-------5------|


d |----------------0----------------|---------------------------------|
A |-/----7-----------------7------\5|------5--------------------------|
F#|------------0-------0-------0----|---------------------------------|
D |-/----7-------7-------7-------7\-|------5---------5-------5-------5|
A |---------------------------------|------------0-0-----0-0-----0-0--|
D |-/7-------7-------7-------7----\-|--5-------5-------5-------5------|


d |---------------------------------|---------------------------------|
A |-\----2--------/4-----4---------0|------0--------------------------|
F#|------------0---------------0----|---------------------------------|
D |-\----2-------2/------4-------0--|------0---------0-------0-------0|
A |---------------------------------|------------0-0-----0-0-----0-0--|
D |-\2-------2----/--4-------4------|--0-------0-------0-------0------|


d |---------------------------------|---------------------------------|
A |------2--------/4-----4---------0|------0--------------------------|
F#|------------0---------------0----|---------------------------------|
D |------2-------2/------4-------0--|------0---------0-------0-------0|
A |---------------------------------|------------0-0-----0-0-----0-0--|
D |--2-------2----/--4-------4------|--0-------0-------0-------0------|


d |---------------------------------|
A |---------------------------------|
F#|---------------------------------|
D |------0-------0-------0-------0--|
A |---------------------------------|
D |--0-------0-------0-------0------|


d |---------------------------------|---------------------------------|
A |--------7-------7-------7------\5|--------5-------5-------5------/7|
F#|----0-0-----0-0-----0-0-----0-0--|----0-0-----0-0-----0-0-----0-0--|
D |--7-------7-------7-------7----\-|--5-------5-------5-------5------|
A |---------------------------------|---------------------------------|
D |---------------------------------|---------------------------------|


d |---------------------------------|---------------------------------|
A |--------7-------7-------7------\5|--------5-------5-------5------/7|
F#|----0-0-----0-0-----0-0-----0-0--|----0-0-----0-0-----0-0-----0-0--|
D |--7-------7-------7-------7----\-|--5-------5-------5-------5----/-|
A |---------------------------------|---------------------------------|
D |---------------------------------|---------------------------------|


d |----------------0----------------|---------------------------------|
A |------7-----------------7------\5|------5--------------------------|
F#|------------0-------0-------0----|---------------------------------|
D |------7-------7-------7-------7\-|------5---------5-------5-------5|
A |---------------------------------|------------0-0-----0-0-----0-0--|
D |--7-------7-------7-------7----\-|--5-------5-------5-------5------|


d |----------------0----------------|---------------------------------|
A |-/----7-----------------7------\5|------5--------------------------|
F#|------------0-------0-------0----|---------------------------------|
D |-/----7-------7-------7-------7\-|------5---------5-------5-------5|
A |---------------------------------|------------0-0-----0-0-----0-0--|
D |-/7-------7-------7-------7----\-|--5-------5-------5-------5------|


d |---------------------------------|---------------------------------|
A |-\----2--------/4-----4---------0|------0--------------------------|
F#|------------0---------------0----|---------------------------------|
D |-\----2-------2/------4-------0--|------0---------0-------0-------0|
A |---------------------------------|------------0-0-----0-0-----0-0--|
D |-\2-------2----/--4-------4------|--0-------0-------0-------0------|


d |---------------------------------|---------------------------------|
A |------2--------/4-----4---------0|------0--------------------------|
F#|------------0---------------0----|---------------------------------|
D |------2-------2/------4-------0--|------0---------0-------0-------0|
A |---------------------------------|------------0-0-----0-0-----0-0--|
D |--2-------2----/--4-------4------|--0-------0-------0-------0------|


d |------------------4\2p0----------0|----------------0----------------|
A |------2p0----------------0--------|------2p0------------------------|
F#|------------0----------------0----|------------0--------------------|
D |--------------0--------0-------0--|--------------0-------0-------0--|
A |------2p0-------------------------|------2p0------------------------|
D |--0-------0-------0--------0------|--0-------0-------0-------0------|


d |------------------4\2p0----------0|----------------0----------------|
A |------2p0----------------0--------|------2p0------------------------|
F#|------------0----------------0----|------------0--------------------|
D |--------------0--------0-------0--|--------------0-------0-------0--|
A |------2p0-------------------------|------2p0------------------------|
D |--0-------0-------0--------0------|--0-------0-------0-------0------|


d |----4---2---0--------------------|----4---2---0---2----------------|
A |----------------4---2---0---2----|---------------------------------|
F#|---------------------------------|---------------------------------|
D |------0-------0-------0-------0--|------0-------0-------0-------0--|
A |---------------------------------|---------------------------------|
D |--0-------0-------0-------0------|--0-------0-------0-------0------|


d |----4---2---0--------------------|--------0------------|
A |----------------4---2---0---2----|----2-------2---0----|
F#|---------------------------------|---------------------|
D |------0-------0-------0-------0--|------0-------0------|
A |---------------------------------|---------------------|
D |--0-------0-------0-------0------|--0-------0-------0--|




***************************************************************
References for the song:
August Oster on Facebook:
https://www.facebook.com/AugustOstermusicandart
August Oster on icompositions:
http://www.icompositions.com/artists/August_Oster/
August Oster on Soundcloud:
https://soundcloud.com/august-oster
August Oster on YouTube:
https://www.youtube.com/channel/UChacbzLpuUUVIod_Z01Gy5g
***************************************************************
comments
We did not receive enough feedback on this tab! Please rate:
print report bad tab
1 2 3 4 5
I want to post or [tab]
guest
You may want to rate the tab now too:
select rating
Please do not post tabs as comments. Select "correction" instead!