Oops, an error
Loading. Please wait.

August Oster - Raven Found Then Lost Tab

21 views 1 this week
no commentswrite comment
1 2 3 4 5
please rate
add to favorites launch autoscroll
font size
0
reset
Autoscroll
+/-
esc
set tempo
stop
Contributor
Tuning
C G C G C E
WARNING: You are trying to view
                                    content from Ultimate-Guitar.com
                                    in an unauthorized application,
                                    which is prohibited.

                                    Please use an official Ultimate
                                    Guitar Tabs application for iPhone,
                                    iPad or Android to access legitimate
                                    chords, guitar, bass, and drum tabs
                                    from Ultimate-Guitar.com database.

                                    Type "ultimate guitar tabs" in Apple
                                    App Store's or Android Market's
                                    search to find the application.
-----------------------------------------------------------------------------
                   Raven Found Then Lost - August Oster
-----------------------------------------------------------------------------

Tabbed by: August Oster
Email: osterhoutben@gmail.com


Tuning: Open C (CGCGCE)

*********************
Legend
h = hammer on
p = pull off
b = bend
bb = multiple bends
/ = slide up
\ = slide down
+ = harmonic
*********************

***Note: Timing is strange for almost the entire song.  Refer to the 
         recording to get it.

e|---------------------------------|--------------------------------|
C|---------------------------------|--------------------------------|
G|----------4b--------------4b-----|----------4b--------------4b/7--|
C|----------5b--------------5b-----|----------5b--------------5b----|
G|---------------------------------|--------------------------------|
C|--0---------------0--------------|--0---------------0-------------|


e|---------------------------------|
C|------------------5-----4-----0--|
G|------5-----7b-------------------|
C|----------------------0-------0--|
G|------0-------0------------------|
C|--0-------0-------0-------0------|


e|---------------------------------|--------------------------------|
C|---------------------------------|--------------------------------|
G|----------4b--------------4b-----|----------4b--------------4b/7--|
C|----------5b--------------5b-----|----------5b--------------5b----|
G|---------------------------------|--------------------------------|
C|--0---------------0--------------|--0---------------0-------------|


e|--------------|-------------------------|
C|--------------|-------------------------|
G|--------------|-------------------------|
C|--7p0---------|-------9------5-------4--|
G|------5h7/10--|------10------7-------5--|
C|--------------|--0-------0-------0------|


e|---------------------------------|--------------------------------|
C|---------------------------------|--------------------------------|
G|----------4bb-------------4bb----|----------4bb-------------4bb/7-|
C|----------5bb-------------5bb----|----------5bb-------------5bb---|
G|---------------------------------|--------------------------------|
C|--0---------------0--------------|--0---------------0-------------|


e|---------------------------------|
C|------------------5-----4-----0--|
G|------5-----7b-------------------|
C|----------------------0-------0--|
G|------0-------0------------------|
C|--0-------0-------0-------0------|


e|---------------------------------|---------------------------------|
C|------------------0--------------|------------------0--------------|
G|--------------0h2----------------|--------------0h2----------------|
C|----------0h2-------------0------|----------0h2-------------0------|
G|------0h2------------------------|------0h2------------------------|
C|--0------------------------------|--0------------------------------|


e|----------0--------------|
C|------0h2-------0--------|
G|-------------------------|
C|------0-------0-------0--|
G|-------------------------|
C|--0-------0-------0------|


e|---------------------------------|---------------------------------|
C|------------------0--------------|------------------0--------------|
G|--------------0h2----------------|--------------0h2----------------|
C|----------0h2-------------0------|----------0h2-------------0------|
G|------0h2------------------------|------0h2------------------------|
C|--0------------------------------|--0------------------------------|


e|----------0-----3--/--5-----3----|--0------|
C|------0h2------------------------|------0--|
G|---------------------------------|---------|
C|------0-------0-------0-------0--|------0--|
G|---------------------------------|---------|
C|--0-------0-------0-------0------|--0------|


e|---------------------------------|---------------------------------|
C|------------------0--------------|------------------0--------------|
G|--------------0h2----------------|--------------0h2----------------|
C|----------0h2-------------0------|----------0h2-------------0------|
G|------0h2------------------------|------0h2------------------------|
C|--0------------------------------|--0------------------------------|


e|---------------------------------|-------------------------|
C|------2/4-------------2/4----4p0-|------2---0--------------|
G|---------------------------------|------2---0--------------|
C|------2/4-----0-------2/4----4p0-|------0-------0-------0--|
G|---------------------------------|-------------------------|
C|--0-------0-------0-------0------|--0-------0-------0------|


e|---------------------------------|-------------------------|
C|------2/4-------------2/4----4p0-|------2---0--------------|
G|---------------------------------|------2---0--------------|
C|------2/4-----0-------2/4----4p0-|------0-------0-------0--|
G|---------------------------------|-------------------------|
C|--0-------0-------0-------0------|--0-------0-------0------|

                                      ...briefly pause|
e|---------------------------------|----------------8-|
C|------0---------------0----------|------0-----------|
G|---------------2/4------------4/7|------------------|
C|------0-----0---------0----0-----|------0-----0-----|
G|--------------2-/4-----------4-/7|--------------7---|
C|--0-------0-------0-------0------|--0-------0-------|

                                      ...briefly pause|
e|---------------------------------|----------------8-|
C|------0---------------0----------|------0-----------|
G|---------------2/4------------4/7|------------------|
C|------0-----0---------0----0-----|------0-----0-----|
G|--------------2-/4-----------4-/7|--------------7---|
C|--0-------0-------0-------0------|--0-------0-------|


e|---------------------------------|---------------------------------|
C|------------------0--------------|------------------0--------------|
G|--------------0h2----------------|--------------0h2----------------|
C|----------0h2-------------0------|----------0h2-------------0------|
G|------0h2------------------------|------0h2------------------------|
C|--0------------------------------|--0------------------------------|


e|----------0--------------|
C|------0h2-------0--------|
G|-------------------------|
C|------0-------0-------0--|
G|-------------------------|
C|--0-------0-------0------|


e|---------------------------------|---------------------------------|
C|------------------0--------------|------------------0--------------|
G|--------------0h2----------------|--------------0h2----------------|
C|----------0h2-------------0------|----------0h2-------------0------|
G|------0h2------------------------|------0h2------------------------|
C|--0------------------------------|--0------------------------------|


e|----------0-----3--/--8-----5----|--0---3--|
C|------0h2------------------------|---------|
G|---------------------------------|---------|
C|------0-------0-------0-------0--|------0--|
G|---------------------------------|---------|
C|--0-------0-------0-------0------|--0------|


e|---------------------------------|---------------------------------|
C|------------------0--------------|------------------0--------------|
G|--------------0h2----------------|--------------0h2----------------|
C|----------0h2-------------0------|----------0h2-------------0------|
G|------0h2------------------------|------0h2------------------------|
C|--0------------------------------|--0------------------------------|


e|---------------------------------|-------------------------|
C|------2/4-------------2/4----4p0-|------2---0--------------|
G|---------------------------------|------2---0--------------|
C|------2/4-----0-------2/4----4p0-|------0-------0-------0--|
G|---------------------------------|-------------------------|
C|--0-------0-------0-------0------|--0-------0-------0------|


e|---------------------------------|-------------------------|
C|------2/4-------------2/4----4p0-|------2---0--------------|
G|---------------------------------|------2---0--------------|
C|------2/4-----0-------2/4----4p0-|------0-------0-------0--|
G|---------------------------------|-------------------------|
C|--0-------0-------0-------0------|--0-------0-------0------|


                                      ...briefly pause|
e|---------------------------------|----------------8-|
C|------0---------------0----------|------0-----------|
G|---------------2/4------------4/7|------------------|
C|------0-----0---------0----0-----|------0-----0-----|
G|--------------2-/4-----------4-/7|--------------7---|
C|--0-------0-------0-------0------|--0-------0-------|

                                      ...briefly pause|
e|---------------------------------|---------------8--|
C|------0---------------0----------|------0-----------|
G|---------------2/4------------4/7|------------------|
C|------0-----0---------0----0-----|------0-----0-----|
G|--------------2-/4-----------4-/7|--------------7---|
C|--0-------0-------0-------0------|--0-------0-------|


e|---------------------------------|--------------------------------|
C|--------------2-----------0------|-------------4-----------0------|
G|------0--------------------------|-----0-------------------0------|
C|----------4---------------0------|---------2----------------------|
G|--2------------------------------|--4--------------2--------------|
C|------------------0--------------|--------------------------------|


e|---------------------------------|--------------------------------|
C|--------------2-----------0------|-------------4-----------0------|
G|------0--------------------------|-----0-------------------0------|
C|----------4---------------0------|---------2----------------------|
G|--2------------------------------|--4--------------2--------------|
C|------------------0--------------|--------------------------------|


e|---------------------------------|---------------------------------|
C|---------------------------------|---------------------------------|
G|-------2/4-----\2------2/7-----\2|-------2/4-----\2------2/7-----\2|
C|----0-------0-------0-------0----|----0-------0-------0-------0----|
G|------0-------0-------0-------0--|------0-------0-------0-------0--|
C|--2-----/-4-----\-2-----/-7----\-|--2-----/-4-----\-2-----/-7----\-|


e|---------------------------------|---------------------------------|
C|---------------------------------|---------------------------------|
G|-------2/4-----\2------2/7-----\2|-------2/4-----\2------2/7-----\2|
C|----0-------0-------0-------0----|----0-------0-------0-------0----|
G|------0-------0-------0-------0--|------0-------0-------0-------0--|
C|--2-----/-4-----\-2-----/-7----\-|--2-----/-4-----\-2-----/-7----\-|


 |.....speed up faster and faster.......
e|---------------------------------|---------------------------------|
C|---------------------------------|---------------------------------|
G|--------2-------2-------2-------2|--------2-------2-------2-------0|
C|----0-------0-------0-------0----|----0-------0-------0-------0----|
G|------0-------0-------0-------0--|------0-------0-------0-------0--|
C|--2-------2-------2-------2------|--2-------2-------2-------2------|

                      ...slowly................|   
e|---------------------------|--0--------------|
C|-----------------------0h2-|--------0--------|
G|-----------------------0---|-----------------|
C|---------------------------|------0-------0--|
G|---------------------------|-----------------|
C|--0------------------------|--0-------0------|

                                   
e|---------------------------------|
C|------------------0--------------|
G|--------------0h2----------------|
C|----------0h2-------------0------|
G|------0h2------------------------|
C|--0------------------------------|

 |.....back to "normal" speed.....
e|---------------------------------|--------------------------------|
C|---------------------------------|--------------------------------|
G|----------4bb-------------4bb----|----------4bb-------------4bb/7-|
C|----------5bb-------------5bb----|----------5bb-------------5bb---|
G|---------------------------------|--------------------------------|
C|--0---------------0--------------|--0---------------0-------------|


e|--------------|--------------------------------0|
C|--------------|----------------0----------------|
G|--------------|--------0---------------0--------|
C|--7p0---------|----9-------9-------9-------9----|
G|------5h7/10--|------10------10------10------10-|
C|--------------|--0-------0-------0-------0------|


e|--------------------------------0|---------------------------------|
C|----------------0----------------|---------------------------------|
G|--------0---------------0--------|--------7-------7-------7-------7|
C|----9-------9-------9-------9----|----5-------5-------5-------5----|
G|------10------10------10------10-|-\----7-------7-------7-------7--|
C|--0-------0-------0-------0------|--0-------0-------0-------0------|


e|------------------------0--------|------------------------0--------|
C|----------------0---------------0|----------------5---------------0|
G|--------7------------------------|--------0------------------------|
C|----5-------5-------5-------5----|----4-------4-------4-------4----|
G|------7-------7-------7-------7--|------5-------5-------5-------5--|
C|--0-------0-------0-------0------|--0-------0-------0-------0------|


e|------------------------0--------|---------------------------------|
C|----------------5---------------0|---------------------------------|
G|--------0------------------------|--------7-------7-------7-------7|
C|----4-------4-------4-------4----|----5-------5-------5-------5----|
G|------5-------5-------5-------5--|------7-------7-------7-------7--|
C|--0-------0-------0-------0------|--0-------0-------0-------0------|


e|------------------------0--------|--------------------------------0|
C|----------------0---------------0|----------------0----------------|
G|--------7------------------------|--------0---------------0--------|
C|----5-------5-------5-------5----|----9-------9-------9-------9----|
G|------7-------7-------7-------7--|------10------10------10------10-|
C|--0-------0-------0-------0------|--0-------0-------0-------0------|


e|--------------------------------0|
C|----------------0----------------|
G|--------0---------------0--------|
C|----9-------9-------9-------9----|
G|------10------10------10------10-|
C|--0-------0-------0-------0------|


e|---------------------------------|--------------------------------|
C|---------------------------------|--------------------------------|
G|----------4bb-------------4bb----|----------4bb-------------4bb/7-|
C|----------5bb-------------5bb----|----------5bb-------------5bb---|
G|---------------------------------|--------------------------------|
C|--0---------------0--------------|--0---------------0-------------|


e|------------------------------12+|
C|------------------5-----4-----12+|
G|------5-----7b----------------12+|
C|----------------------0-------12+|
G|------0-------0---------------12+|
C|--0-------0-------0-------0---12+|




**********************************************************
References for Song:
August Oster on Facebook:
https://www.facebook.com/AugustOstermusicandart
August Oster on icompositions:
http://www.icompositions.com/artists/August_Oster/
August Oster on Soundcloud:
https://soundcloud.com/august-oster
August Oster on YouTube:
https://www.youtube.com/channel/UChacbzLpuUUVIod_Z01Gy5g
**********************************************************
comments
We did not receive enough feedback on this tab! Please rate:
print report bad tab
1 2 3 4 5
I want to post or [tab]
guest
You may want to rate the tab now too:
select rating
Please do not post tabs as comments. Select "correction" instead!