Oops, an error
Loading. Please wait.

Author And Finisher - Furrrocious Tab

150 views 3 this week
no commentswrite comment
1 2 3 4 5
please rate
add to favorites launch autoscroll
font size
0
reset
Autoscroll
+/-
esc
set tempo
stop
Contributor
Difficulty
Tuning
intermediate
C# G# C# F# A# D#
WARNING: You are trying to view
                                    content from Ultimate-Guitar.com
                                    in an unauthorized application,
                                    which is prohibited.

                                    Please use an official Ultimate
                                    Guitar Tabs application for iPhone,
                                    iPad or Android to access legitimate
                                    chords, guitar, bass, and drum tabs
                                    from Ultimate-Guitar.com database.

                                    Type "ultimate guitar tabs" in Apple
                                    App Store's or Android Market's
                                    search to find the application.
Guitar 1
      S S E  E  E  E  E  E  E     E  E  E  E  E  E  E  E   
D#||---------------------------|--------------------------|
A#||---------------------------|--------------------------|
F#||---------------------------|--------------------------|
C#||---------------------------|--------------------------|
G#||--0-0-0--0--0--0--0--------|-----0--0--0-----0--0--0--|
C#||--0-0-0--0--0--0--0--------|-----0--0--0-----0--0--0--|


  S S E  E  E  S S E  S S E     S S E  E  E  E  E  E  E   
-----------------------------|---------------------------|
-----------------------------|---------------------------|
-----------------------------|---------------------------|
-----------------------------|---------------------------|
--0-0-0--0--0--0-0-0--0-0-0--|--0-0-0--0--0--0--0--0--0--|
--0-0-0--0--0--0-0-0--0-0-0--|--0-0-0--0--0--0--0--0--0--|


  E  E  E  E  E  E  E  E     S S E  S S E     S S E  E  E  E  E  E  E   
--------------------------|----------------|---------------------------|
--------------------------|----------------|---------------------------|
--------------------------|----------------|---------------------------|
--------------------------|----------------|---------------------------|
--------------0--0--0--0--|--0-0-0--0-0-0--|--0-0-0--0--0--0--0--------|
--------------0--0--0--0--|--0-0-0--0-0-0--|--0-0-0--0--0--0--0--------|


  E  E  E  E  E  E  E  E     S S E  E  E  S S E  S S E   
--------------------------|-----------------------------|
--------------------------|-----------------------------|
--------------------------|-----------------------------|
--------------------------|-----------------------------|
-----0--0--0-----0--0--0--|--0-0-0--0--0--0-0-0--0-0-0--|
-----0--0--0-----0--0--0--|--0-0-0--0--0--0-0-0--0-0-0--|


  S S E  E  E  E  E  E  E     E  E  E  E  E  E  E  E     S S E  S S E   
---------------------------|--------------------------|----------------|
---------------------------|--------------------------|----------------|
---------------------------|--------------------------|----------------|
---------------------------|--------------------------|----------------|
--0-0-0--0--0--0--0--0--0--|--------------0--0--0--0--|--0-0-0--0-0-0--|
--0-0-0--0--0--0--0--0--0--|--------------0--0--0--0--|--0-0-0--0-0-0--|


  S S E  E  E  E  E  E  E     E  E  E  E  E  E  E  E   
---------------------------|--------------------------|
---------------------------|--------------------------|
---------------------------|--------------------------|
---------------------------|--------------------------|
--0-0-0--0--0--0--0--------|-----0--0--0-----0--0--0--|
--0-0-0--0--0--0--0--------|-----0--0--0-----0--0--0--|


  S S E  E  E  S S E  S S E     S S E  E  E  E  E  E  E   
-----------------------------|---------------------------|
-----------------------------|---------------------------|
-----------------------------|---------------------------|
-----------------------------|---------------------------|
--0-0-0--0--0--0-0-0--0-0-0--|--0-0-0--0--0--0--0--0--0--|
--0-0-0--0--0--0-0-0--0-0-0--|--0-0-0--0--0--0--0--0--0--|


  E  E  E  E  E  E  E  E     S S E  S S E     W                 
--------------------------|----------------|-------------------|
--------------------------|----------------|-------------------|
--------------------------|----------------|-------------------|
--------------------------|----------------|--0----------------|
--------------0--0--0--0--|--0-0-0--0-0-0--|--0----------------|
--------------0--0--0--0--|--0-0-0--0-0-0--|--0----------------|


  W                   W                 E  E   E   E   
-------------------|----------------------------------|
-------------------|----------------------------------|
-------------------|----------------------------------|
--L----------------|--L-------------------------------|
--L----------------|--L----------------12-------------|
--L----------------|--L--------------------0--12--13--|


   E   E   E  E   E   E   E  E     E  E   E  E   E   E   E  E   
--------------------------------|------------------------------|
--------------------------------|------------------------------|
--------------------------------|------------------------------|
--------------------------------|------------------------------|
----------12--------------------|--------10--------------------|
---L--13------0--12--13--13--0--|--L--0------0--10--13--13--0--|


  E  E   E  E   E   E   E   E      E   E   E   E  E   E   E  E   
-------------------------------|--------------------------------|
-------------------------------|--------------------------------|
-------------------------------|--------------------------------|
-------------------------------|--------------------------------|
--------12---------------------|--------------------------------|
--L--0------0--12--13--13--13--|--10--12--12--12--8--10--10--0--|


  E  E   E  E   E   E   E  E     E  E   E  E   E   E   E  E   
------------------------------|------------------------------|
------------------------------|------------------------------|
------------------------------|------------------------------|
------------------------------|------------------------------|
--------12--------------------|--------10--------------------|
--L--0------0--12--13--13--0--|--L--0------0--10--13--13--0--|


  E  E   E  E   E   E   E   E      E   E   E   E  E   E   E  E   
-------------------------------|--------------------------------|
-------------------------------|--------------------------------|
-------------------------------|--------------------------------|
-------------------------------|--------------------------------|
--------12---------------------|--------------------------------|
--L--0------0--12--13--13--13--|--10--12--12--12--8--10--10--0--|


   E  E   E  E   E   E   E  E     E  E   E  E   E   E   E  E   
-------------------------------|------------------------------|
-------------------------------|------------------------------|
-------------------------------|------------------------------|
-------------------------------|------------------------------|
---------12--------------------|--------12--------------------|
---L--0------0--12--13--13--0--|--L--0------0--13--12--12--0--|


  E  E   E  E   E   E   E   E      E   E   E   E  E   E  E  E   
-------------------------------|-------------------------------|
-------------------------------|-------------------------------|
-------------------------------|-------------------------------|
-------------------------------|-------------------------------|
--------12---------------------|-------------------------------|
--L--0------0--12--13--13--13--|--10--12--12--12--8--10--8--7--|


  E  E  E  E  E  E  E  E      E   E   E   E   E   E   E  E   
--------------------------|---------------------------------|
--------------------------|---------------------------------|
--------------------------|---------------------------------|
--------------------------|---------------------------------|
--------------------------|---------------------------------|
--L--7--7--7--7--7--7--7--|--10--10--10--10--10--10--10--8--|


  E  E  E  E  E  E  E  E      E   E   E   E   E   E   E   E   
--------------------------|----------------------------------|
--------------------------|----------------------------------|
--------------------------|----------------------------------|
--------------------------|----------------------------------|
--------------------------|----------------------------------|
--L--8--8--8--8--8--8--8--|--13--13--13--13--12--12--12--12--|


   E   E   E   E   E   E   E   E      E   E   E   E   E   E   E   E   
----------------------------------|----------------------------------|
----------------------------------|----------------------------------|
----------------------------------|----------------------------------|
----------------------------------|----------------------------------|
----------------------------------|----------------------------------|
--12--12--12--12--12--12--12--12--|--12--12--12--12--12--12--12--12--|


   E   E   E   E   E   E   E   E     E  E  E  E  E  E  E  E   
----------------------------------|--------------------------|
----------------------------------|--------------------------|
----------------------------------|--------------------------|
----------------------------------|--------------------------|
----------------------------------|--------------------------|
--12--12--12--12--12--12--12--12--|--8--8--8--8--8--8--8--8--|


   E   E   E   E  E  E  E  E     E  E  E  E  E  E  E  E   
------------------------------|--------------------------|
------------------------------|--------------------------|
------------------------------|--------------------------|
------------------------------|--------------------------|
------------------------------|--------------------------|
--12--12--12--12--5--5--5--5--|--5--5--5--5--5--5--5--5--|


  E  E  E  E  E  E  E  E     E  E  E  E   E   E   E   E   
--------------------------|------------------------------|
--------------------------|------------------------------|
--------------------------|------------------------------|
--------------------------|------------------------------|
--------------------------|------------------------------|
--5--5--5--5--5--5--5--5--|--0--0--0--0--13--13--13--13--|


  E  E  E  E   E   E   E   E      E   E   E   E   E   E   E   E   
------------------------------|----------------------------------|
------------------------------|----------------------------------|
------------------------------|----------------------------------|
------------------------------|----------------------------------|
------------------------------|----------------------------------|
--0--0--0--0--13--15--13--12--|--12--12--12--12--12--12--12--12--|


   E   E   E   E   E   E   E   E     E  E  E  E  E  E  E  E   
----------------------------------|--------------------------|
----------------------------------|--------------------------|
----------------------------------|--------------------------|
----------------------------------|--------------------------|
----------------------------------|--------------------------|
--12--12--12--12--12--12--12--12--|--8--8--8--8--8--8--8--8--|


   E   E   E   E  E  E  E  E     E  E  E  E  E  E  E  E   
------------------------------|--------------------------|
------------------------------|--------------------------|
------------------------------|--------------------------|
------------------------------|--------------------------|
------------------------------|--------------------------|
--12--12--12--12--5--5--5--5--|--5--5--5--5--5--5--5--5--|


  E  E  E  E  E  E  E  E      E  E  E  E  E  E   E  E   
--------------------------|----------------------------|
--------------------------|----------------------------|
--------------------------|----------------------------|
--------------------------|----------------------------|
--------------------------|----------------------------|
--5--5--5--5--5--5--5--5--|--13--0--L--0--L--0--13--0--|


  E  E  E  E  E  E  E  E     E  E  E  E  E  E  E  E   
--------------------------|--------------------------|
--------------------------|--------------------------|
--------------------------|--------------------------|
--------------------------|--------------------------|
--------------0--0--0--0--|--0-----------------------|
--L--0--L--0--0--0--0--0--|--0-----------------------|


  S S E  E  E  E  E  E  E     E  E  E  E  E  E  E  E   
---------------------------|--------------------------|
---------------------------|--------------------------|
---------------------------|--------------------------|
---------------------------|--------------------------|
--0-0-0--0--0--0--0--------|-----0--0--0-----0--0--0--|
--0-0-0--0--0--0--0--------|-----0--0--0-----0--0--0--|


  S S E  E  E  S S E  S S E     S S E  E  E  E  E  E  E   
-----------------------------|---------------------------|
-----------------------------|---------------------------|
-----------------------------|---------------------------|
-----------------------------|---------------------------|
--0-0-0--0--0--0-0-0--0-0-0--|--0-0-0--0--0--0--0--0--0--|
--0-0-0--0--0--0-0-0--0-0-0--|--0-0-0--0--0--0--0--0--0--|


  E  E  E  E  E  E  E  E     S S E  S S E     S S E  E  E  E  E  E  E   
--------------------------|----------------|---------------------------|
--------------------------|----------------|---------------------------|
--------------------------|----------------|---------------------------|
--------------------------|----------------|---------------------------|
--------------0--0--0--0--|--0-0-0--0-0-0--|--0-0-0--0--0--0--0--------|
--------------0--0--0--0--|--0-0-0--0-0-0--|--0-0-0--0--0--0--0--------|


  E  E  E  E  E  E  E  E     S S E  E  E  S S E  S S E   
--------------------------|-----------------------------|
--------------------------|-----------------------------|
--------------------------|-----------------------------|
--------------------------|-----------------------------|
-----0--0--0-----0--0--0--|--0-0-0--0--0--0-0-0--0-0-0--|
-----0--0--0-----0--0--0--|--0-0-0--0--0--0-0-0--0-0-0--|


  S S E  E  E  E  E  E  E     E  E  E  E  E  E  E  E     S S E  S S E   
---------------------------|--------------------------|----------------|
---------------------------|--------------------------|----------------|
---------------------------|--------------------------|----------------|
---------------------------|--------------------------|----------------|
--0-0-0--0--0--0--0--0--0--|--------------0--0--0--0--|--0-0-0--0-0-0--|
--0-0-0--0--0--0--0--0--0--|--------------0--0--0--0--|--0-0-0--0-0-0--|


  S S E  E  E  E  E  E  E     E  E  E  E  E  E  E  E   
---------------------------|--------------------------|
---------------------------|--------------------------|
---------------------------|--------------------------|
---------------------------|--------------------------|
--0-0-0--0--0--0--0--------|-----0--0--0-----0--0--0--|
--0-0-0--0--0--0--0--------|-----0--0--0-----0--0--0--|


  S S E  E  E  S S E  S S E     S S E  E  E  E  E  E  E   
-----------------------------|---------------------------|
-----------------------------|---------------------------|
-----------------------------|---------------------------|
-----------------------------|---------------------------|
--0-0-0--0--0--0-0-0--0-0-0--|--0-0-0--0--0--0--0--0--0--|
--0-0-0--0--0--0-0-0--0-0-0--|--0-0-0--0--0--0--0--0--0--|


  E  E  E  E  E  E  E  E     S S E  S S E     E  E  E  E  E  E  E  E   
--------------------------|----------------|--------------------------|
--------------------------|----------------|--------------------------|
--------------------------|----------------|--------------------------|
--------------------------|----------------|--------------------------|
--------------0--0--0--0--|--0-0-0--0-0-0--|--------------------------|
--------------0--0--0--0--|--0-0-0--0-0-0--|--0--0--0--0--0--0--------|


                                                     PM PM PM     
  E  E  E  E  E  E  E  E     E  E  E  E  E  E  E  E  E  E  E  E   
--------------------------|--------------------------------------|
--------------------------|--------------------------------------|
--------------------------|--------------------------------------|
--------------------------|--------------------------------------|
--------------------------|--------------------------0--0--0-----|
-----0--0--0-----0--0--0--|--0--0--0--0--0--0--0--0--0--0--0--0--|


  E  E   E  E   E   E   E  E     E  E   E  E   E   E   E  E   
------------------------------|------------------------------|
------------------------------|------------------------------|
------------------------------|------------------------------|
------------------------------|------------------------------|
--------12--------------------|--------10--------------------|
--L--0------0--12--13--13--0--|--L--0------0--10--13--13--0--|


  E  E   E  E   E   E   E   E      E   E   E   E  E   E   E  E   
-------------------------------|--------------------------------|
-------------------------------|--------------------------------|
-------------------------------|--------------------------------|
-------------------------------|--------------------------------|
--------12---------------------|--------------------------------|
--L--0------0--12--13--13--13--|--10--12--12--12--8--10--10--0--|


  E  E   E  E   E   E   E  E     E  E   E  E   E   E   E  E   
------------------------------|------------------------------|
------------------------------|------------------------------|
------------------------------|------------------------------|
------------------------------|------------------------------|
--------12--------------------|--------10--------------------|
--L--0------0--12--13--13--0--|--L--0------0--10--13--13--0--|


  E  E   E  E   E   E   E   E      E   E   E   E  E   E   E  E   
-------------------------------|--------------------------------|
-------------------------------|--------------------------------|
-------------------------------|--------------------------------|
-------------------------------|--------------------------------|
--------12---------------------|--------------------------------|
--L--0------0--12--13--13--13--|--10--12--12--12--8--10--10--0--|


   E  E   E  E   E   E   E  E     E  E   E  E   E   E   E  E   
-------------------------------|------------------------------|
-------------------------------|------------------------------|
-------------------------------|------------------------------|
-------------------------------|------------------------------|
---------12--------------------|--------12--------------------|
---L--0------0--12--13--13--0--|--L--0------0--13--12--12--0--|


  E  E   E  E   E   E   E   E      E   E   E   E  E   E  E  E   
-------------------------------|-------------------------------|
-------------------------------|-------------------------------|
-------------------------------|-------------------------------|
-------------------------------|-------------------------------|
--------12---------------------|-------------------------------|
--L--0------0--12--13--13--13--|--10--12--12--12--8--10--8--7--|


  E  E  E  E  E  E  E  E      E   E   E   E   E   E   E  E   
--------------------------|---------------------------------|
--------------------------|---------------------------------|
--------------------------|---------------------------------|
--------------------------|---------------------------------|
--------------------------|---------------------------------|
--L--7--7--7--7--7--7--7--|--10--10--10--10--10--10--10--8--|


  E  E  E  E  E  E  E  E      E   E   E   E   E   E   E   E   
--------------------------|----------------------------------|
--------------------------|----------------------------------|
--------------------------|----------------------------------|
--------------------------|----------------------------------|
--------------------------|----------------------------------|
--L--8--8--8--8--8--8--8--|--13--13--13--13--12--12--12--12--|


   E   E   E   E   E   E   E   E      E   E   E   E   E   E   E   E   
----------------------------------|----------------------------------|
----------------------------------|----------------------------------|
----------------------------------|----------------------------------|
----------------------------------|----------------------------------|
----------------------------------|----------------------------------|
--12--12--12--12--12--12--12--12--|--12--12--12--12--12--12--12--12--|


   E   E   E   E   E   E   E   E     E  E  E  E  E  E  E  E   
----------------------------------|--------------------------|
----------------------------------|--------------------------|
----------------------------------|--------------------------|
----------------------------------|--------------------------|
----------------------------------|--------------------------|
--12--12--12--12--12--12--12--12--|--8--8--8--8--8--8--8--8--|


   E   E   E   E  E  E  E  E     E  E  E  E  E  E  E  E   
------------------------------|--------------------------|
------------------------------|--------------------------|
------------------------------|--------------------------|
------------------------------|--------------------------|
------------------------------|--------------------------|
--12--12--12--12--5--5--5--5--|--5--5--5--5--5--5--5--5--|


  E  E  E  E  E  E  E  E     E  E  E  E   E   E   E   E   
--------------------------|------------------------------|
--------------------------|------------------------------|
--------------------------|------------------------------|
--------------------------|------------------------------|
--------------------------|------------------------------|
--5--5--5--5--5--5--5--5--|--0--0--0--0--13--13--13--13--|


  E  E  E  E   E   E   E   E      E   E   E   E   E   E   E   E   
------------------------------|----------------------------------|
------------------------------|----------------------------------|
------------------------------|----------------------------------|
------------------------------|----------------------------------|
------------------------------|----------------------------------|
--0--0--0--0--13--15--13--12--|--12--12--12--12--12--12--12--12--|


   E   E   E   E   E   E   E   E     E  E  E  E  E  E  E  E   
----------------------------------|--------------------------|
----------------------------------|--------------------------|
----------------------------------|--------------------------|
----------------------------------|--------------------------|
----------------------------------|--------------------------|
--12--12--12--12--12--12--12--12--|--8--8--8--8--8--8--8--8--|


   E   E   E   E  E  E  E  E     E  E  E  E  E  E  E  E   
------------------------------|--------------------------|
------------------------------|--------------------------|
------------------------------|--------------------------|
------------------------------|--------------------------|
------------------------------|--------------------------|
--12--12--12--12--5--5--5--5--|--5--5--5--5--5--5--5--5--|


  E  E  E  E  E  E  E  E      E  E  E  E  E  E   E  E   
--------------------------|----------------------------|
--------------------------|----------------------------|
--------------------------|----------------------------|
--------------------------|----------------------------|
--------------------------|----------------------------|
--5--5--5--5--5--5--5--5--|--13--0--L--0--L--0--13--0--|


  E  E  E  E  E  E  E  E     W                   W                 
--------------------------|-------------------|-------------------|
--------------------------|-------------------|-------------------|
--------------------------|-------------------|-------------------|
--------------------------|--0----------------|--L----------------|
--------------0--0--0--0--|--0----------------|--L----------------|
--L--0--L--0--0--0--0--0--|--0----------------|--L----------------|


  W                   W                   W                   W                 
-------------------|-------------------|-------------------|-------------------|
-------------------|-------------------|-------------------|-------------------|
-------------------|-------------------|-------------------|-------------------|
--L----------------|--L----------------|--L----------------|--L----------------|
--L----------------|--L----------------|--L----------------|--L----------------|
--L----------------|--L----------------|--L----------------|--L----------------|


  W                   W                   W                   W                 
-------------------|-------------------|-------------------|-------------------|
-------------------|-------------------|-------------------|-------------------|
-------------------|-------------------|-------------------|-------------------|
--L----------------|--L----------------|--0----------------|--L----------------|
--L----------------|--L----------------|--0----------------|--L----------------|
--L----------------|--L----------------|--0----------------|--L----------------|


  W                   W                   W                   W                 
-------------------|-------------------|-------------------|-------------------|
-------------------|-------------------|-------------------|-------------------|
-------------------|-------------------|-------------------|-------------------|
--L----------------|--L----------------|--L----------------|--L----------------|
--L----------------|--L----------------|--L----------------|--L----------------|
--L----------------|--L----------------|--L----------------|--L----------------|


  W                   W                   E  E  E  E  E  E  E  E   
-------------------|-------------------|--0--L--L--L--L--L--L--L--|
-------------------|-------------------|-----------6-----------L--|
-------------------|-------------------|--------------------7--L--|
--L----------------|--L----------------|--------------------------|
--L----------------|--L----------------|--------------------------|
--L----------------|--L----------------|--------------------------|


  E  E  E  E  E  E  E  E     E  E  E  E  E  E  E  E   
--------------------------|--------------------------|
--------------------------|--------------------------|
--------------------------|--------------------------|
--0--0--0--0--0--0--0--0--|--0--0--0--0--0--0--0--0--|
--0--0--0--0--0--0--0--0--|--0--0--0--0--0--0--0--0--|
--0--0--0--0--0--0--0--0--|--0--0--0--0--0--0--0--0--|


  E  E  E  E  E  E  E  E     E  E  E  E  E  E  E  E   
--------------------------|--------------------------|
--------------------------|--------------------------|
--------------------------|--------------------------|
--3--3--3--3--3--3--3--3--|--2--2--2--2--2--2--2--2--|
--3--3--3--3--3--3--3--3--|--3--3--3--3--3--3--3--3--|
--3--3--3--3--3--3--3--3--|--2--2--2--2--2--2--2--2--|


  E  E  E  E  E  E  E  E     E  E  E  E  E  E  E  E   
--------------------------|--------------------------|
--------------------------|--------------------------|
--------------------------|--------------------------|
--7--7--7--7--7--7--7--7--|--7--7--7--7--7--7--7--7--|
--8--8--8--8--8--8--8--8--|--8--8--8--8--8--8--8--8--|
--8--8--8--8--8--8--8--8--|--8--8--8--8--8--8--8--8--|


  E  E  E  E  E  E  E  E     E  E  E  E  E  E  E  E   
--------------------------|--------------------------|
--------------------------|--------------------------|
--------------------------|--------------------------|
--3--3--3--3--3--3--2--2--|--7--7--7--7--7--7--7--7--|
--0--0--0--0--0--0--0--0--|--7--7--7--7--7--7--7--7--|
--3--3--3--3--3--3--2--2--|--7--7--7--7--7--7--7--7--|


  E  E  E  E  E  E  E  E     E  E  E  E  E  E  E  E   
--------------------------|--------------------------|
--------------------------|--------------------------|
--------------------------|--------------------------|
--0--0--0--0--0--0--0--0--|--0--0--0--0--0--0--0--0--|
--0--0--0--0--0--0--0--0--|--0--0--0--0--0--0--0--0--|
--0--0--0--0--0--0--0--0--|--0--0--0--0--0--0--0--0--|


  E  E  E  E  E  E  E  E     E  E  E  E  E  E  E  E   
--------------------------|--------------------------|
--------------------------|--------------------------|
--------------------------|--------------------------|
--3--3--3--3--3--3--3--3--|--2--2--2--2--2--2--2--2--|
--3--3--3--3--3--3--3--3--|--3--3--3--3--3--3--3--3--|
--3--3--3--3--3--3--3--3--|--2--2--2--2--2--2--2--2--|


  E  E  E  E  E  E  E  E     E  E  E  E  E  E  E  E   
--------------------------|--------------------------|
--------------------------|--------------------------|
--------------------------|--------------------------|
--7--7--7--7--7--7--7--7--|--7--7--7--7--7--7--7--7--|
--8--8--8--8--8--8--8--8--|--8--8--8--8--8--8--8--8--|
--8--8--8--8--8--8--8--8--|--8--8--8--8--8--8--8--8--|


  E  E  E  E  E  E  E  E     E  E  E  E  E  E  E  E   
--------------------------|--------------------------|
--------------------------|--------------------------|
--------------------------|--------------------------|
--7--7--7--7--7--7--7--7--|--------------------------|
--7--7--7--7--7--7--7--7--|--------5--5--------4--4--|
--7--7--7--7--7--7--7--7--|--3--3--------2--2--------|


  E  E  E  E  E  E  E  E     E  E  E  E  E  E  E  E   
--------------------------|--------------------------|
--------------------------|--------------------------|
--------------------------|--------------------------|
--0--0--0--0--0--0--0--0--|--0--0--0--0--0--0--0--0--|
--0--0--0--0--0--0--0--0--|--0--0--0--0--0--0--0--0--|
--0--0--0--0--0--0--0--0--|--0--0--0--0--0--0--0--0--|


  E  E  E  E  E  E  E  E     E  E  E  E  E  E  E  E   
--------------------------|--------------------------|
--------------------------|--------------------------|
--------------------------|--------------------------|
--3--3--3--3--3--3--3--3--|--2--2--2--2--2--2--2--2--|
--3--3--3--3--3--3--3--3--|--3--3--3--3--3--3--3--3--|
--3--3--3--3--3--3--3--3--|--2--2--2--2--2--2--2--2--|


  E  E  E  E  E  E  E  E     E  E  E  E  E  E  E  E   
--------------------------|--------------------------|
--------------------------|--------------------------|
--------------------------|--------------------------|
--7--7--7--7--7--7--7--7--|--7--7--7--7--7--7--7--7--|
--8--8--8--8--8--8--8--8--|--8--8--8--8--8--8--8--8--|
--8--8--8--8--8--8--8--8--|--8--8--8--8--8--8--8--8--|


  E  E  E  E  E  E  E  E     E  E  E  E  E  E  E  E   
--------------------------|--------------------------|
--------------------------|--------------------------|
--------------------------|--------------------------|
--3--3--3--3--3--3--2--2--|--7--7--7--7--7--7--7--7--|
--0--0--0--0--0--0--0--0--|--7--7--7--7--7--7--7--7--|
--3--3--3--3--3--3--2--2--|--7--7--7--7--7--7--7--7--|


  E  E  E  E  E  E  E  E     E  E  E  E  E  E  E  E   
--------------------------|--------------------------|
--------------------------|--------------------------|
--------------------------|--------------------------|
--0--0--0--0--0--0--0--0--|--0--0--0--0--0--0--0--0--|
--0--0--0--0--0--0--0--0--|--0--0--0--0--0--0--0--0--|
--0--0--0--0--0--0--0--0--|--0--0--0--0--0--0--0--0--|


  E  E  E  E  E  E  E  E     E  E  E  E  E  E  E  E   
--------------------------|--------------------------|
--------------------------|--------------------------|
--------------------------|--------------------------|
--3--3--3--3--3--3--3--3--|--2--2--2--2--2--2--2--2--|
--3--3--3--3--3--3--3--3--|--3--3--3--3--3--3--3--3--|
--3--3--3--3--3--3--3--3--|--2--2--2--2--2--2--2--2--|


  E  E  E  E  E  E  E  E     E  E  E  E  E  E  E  E   
--------------------------|--------------------------|
--------------------------|--------------------------|
--------------------------|--------------------------|
--7--7--7--7--7--7--7--7--|--7--7--7--7--7--7--7--7--|
--8--8--8--8--8--8--8--8--|--8--8--8--8--8--8--8--8--|
--8--8--8--8--8--8--8--8--|--8--8--8--8--8--8--8--8--|


  E  E  E  E  E  E  E  E     E  E  E  E  E  E  E  E    
--------------------------|--------------------------||
--------------------------|--------------------------||
--------------------------|--------------------------||
--7--7--7--7--7--7--7--7--|--3--3--3--3--2--2--2--2--||
--7--7--7--7--7--7--7--7--|--5--5--5--5--4--4--4--4--||
--7--7--7--7--7--7--7--7--|--3--3--3--3--2--2--2--2--||











Duration Legend
---------------
W - whole
H - half
Q - quarter
E - 8th
S - 16th
T - 32nd
X - 64th
. - note dotted
|-n-|  - n-tuplets


Tablature Legend
----------------
L - tied note
x - dead note
g - grace note
(n) - ghost note
> - accentuded note
NH - natural harmonic
AH - artificial harmonic
TH - tapped harmonic
SH - semi harmonic
PH - pitch harmonic
h - hammer on
p - pull off
b - bend
br - bendRelease
pb - preBend
pbr - preBendRelease
brb - bendReleaseBend
\n/ - tremolo bar dip
\n - tremolo bar dive
-/n - tremolo bar Release up
/n\ - tremolo bar inverted dip
/n - tremolo bar return
-\n - tremolo bar Release down
S - shift slide
s - legato slide
/ -  slide into from below or out of upwards
\ -  slide into from above or out of downwards
~ - vibrato
W - wide vibrato
tr - trill
TP - tremolo picking
T - tapping
S - slap
P - pop
< - fade in
^ - brush up
v - brush down
comments
We did not receive enough feedback on this tab! Please rate:
1 2 3 4 5
I want to post or [tab]
guest
You may want to rate the tab now too:
select rating
Please do not post tabs as comments. Select "correction" instead!