Oops, an error
Loading. Please wait.

Autoplay Conspiracy - Where Something Fades To Nothing Tab

42 views 1 this week
no commentswrite comment
1 2 3 4 5
please rate
Autoscroll
+/-
esc
set tempo
stop
Contributor
Difficulty
Tuning
intermediate
D A D G B E
Hey! There's an official Ultimate Guitar app which is ideal
for learning songs when you're away from computer. Get the app
WARNING: You are trying to view
                                    content from Ultimate-Guitar.com
                                    in an unauthorized application,
                                    which is prohibited.

                                    Please use an official Ultimate
                                    Guitar Tabs application for iPhone,
                                    iPad or Android to access legitimate
                                    chords, guitar, bass, and drum tabs
                                    from Ultimate-Guitar.com database.

                                    Type "ultimate guitar tabs" in Apple
                                    App Store's or Android Market's
                                    search to find the application.
Where Something fades to Nothing
1st guitar - lead guitar
2nd guitar - rythm guitar/vocals

Drop D

1st guitar
e|------------------------------------------------------------------|
B|------------------------------------------------------------------|
G|------------------------------------------------------------------| 
D|-00000~-0000-----00000~-0000-----00000~-0000-----00000~-0000------|
A|-00000~-0000-8-7-00000~-0000-8-7-00000~-0000-8-7-00000~-0000-8-7--|
D|-00000~-0000-----00000~-0000-----00000~-0000-----00000~-0000------|
   .....  ....     .....  ....     .....  ....     .....  ....

e|------------------------------------------------------------------|
B|------------------------------------------------------------------|
G|------------------------------------------------------------------|
D|-88888~-8888-----88888~-8888-----88888~-8888-----88888~-8888------|
A|-88888~-8888-8-7-88888~-8888-8-7-88888~-8888-8-7-88888~-8888-8-7--|
D|-88888~-8888-----88888~-8888-----88888~-8888-----88888~-8888------|
   .....  ....     .....  ....     .....  ....     .....  ....
Repeat 2x's


2nd guitar
e|----------------------------------------------------------|
B|----------------------------------------------------------|
G|----------------------------------------------------------|
D|-00000~-00000~-00000~-00000~-00000~-00000~-00000~-00000~--|
A|-00000~-00000~-00000~-00000~-00000~-00000~-00000~-00000~--|
D|-00000~-00000~-00000~-00000~-00000~-00000~-00000~-00000~--|
   .....  .....  .....  .....  .....  .....  .....  .....

e|----------------------------------------------------------|
B|----------------------------------------------------------|
G|----------------------------------------------------------|
D|-88888~-88888~-88888~-88888~-88888~-88888~-88888~-88888~--|
A|-88888~-88888~-88888~-88888~-88888~-88888~-88888~-88888~--|
D|-88888~-88888~-88888~-88888~-88888~-88888~-88888~-88888~--|
   .....  .....  .....  .....  .....  .....  .....  .....
Repeat 2x's

1st guitar:
e|----------------------------------------------------------------------------|
B|----------------------------------------------------------------------------|
G|----------------------------------------------------------------------------|x2
d|-8---------10---------000000000~-00000000-14~-000000000~-00000000-14~--15~--|
A|-8-(16x's)-10-(16x's)-000000000~-00000000-x-~-000000000~-00000000-x-~--x-~--|
D|-8---------10---------000000000~-00000000-12~-000000000~-00000000-12~--13~--|
                        .........  ........     .........  ........

2nd guitar:
e|-------------------------------------------------------------------|
B|-------------------------------------------------------------------|
G|-------------------------------------------------------------------|x2
d|-8---------10---------000000000~-000000000~-000000000~-000000000~--|
A|-8-(16x's)-10-(16x's)-000000000~-000000000~-000000000~-000000000~--|
D|-8---------10---------000000000~-000000000~-000000000~-000000000~--|
                        .........  .........  .........  .........

1st guitar:
e|-----------------------------------------------------------------------|
B|-----------------------------------------------------------------------|
G|-----------------------------------------------------------------------|
d|-0-0-000~-0-0-000~-0-0-000-0-------0-0-000~-0-0-000~-0-0-000-0---------|
A|-0-0-000~-0-0-000~-0-0-000-0-8-7-8-0-0-000~-0-0-000~-0-0-000-0-8-7-10--|
D|-0-0-000~-0-0-000~-0-0-000-0-------0-0-000~-0-0-000~-0-0-000-0---------|
   . . ...  . . ...  . . ... .       . . ...  . . ...  . . ... .

e|-----------------------------------------------------------------------|
B|-----------------------------------------------------------------------|
G|-----------------------------------------------------------------------|
d|-8-8-888~-8-8-888~-8-8-888-8-------8-8-888~-8-8-888~-8-8-888-8-----10--|
A|-8-8-888~-8-8-888~-8-8-888-8-8-7-8-8-8-888~-8-8-888~-8-8-888-8-8-7-----|
D|-8-8-888~-8-8-888~-8-8-888-8-------8-8-888~-8-8-888~-8-8-888-8---------|
   . . ...  . . ...  . . ... .       . . ...  . . ...  . . ... .
repeat 6x's

2nd guitar:
e|-------------------|
B|-------------------|
G|-------------------|
d|-0-0-000~----------|
A|-0-0-000~-(8x's)---|
D|-0-0-000~----------|
   . . ...  

e|-------------------|
B|-------------------|
G|-------------------|
d|-8-8-888~----------|
A|-8-8-888~-(8x's)---|
D|-8-8-888~----------|
   . . ...  
repeat 6x's

Both guitars:
e|------|
B|------|
G|------|
d|--0~--|
A|--0~--|
D|--0~--|

1st guitar:
e|-------------------------------------------------------------------|
B|-------------------------------------------------------------------|
G|-------------------------------------------------------------------|x2
d|-8---------10---------0000--7--0000--5--0000--3--0000--2-----------|
A|-8-(16x's)-10-(16x's)-0000--7--0000--5--0000--3--0000--2--(2x's)---|
D|-8---------10---------0000--7--0000--5--0000--3--0000--2-----------|
                        ....     ....     ....     ....

2nd guitar:
e|-------------------------------------------------------------------|
B|-------------------------------------------------------------------|
G|-------------------------------------------------------------------|x2
d|-8---------10---------0000--7--0000--5--0000--5--0000--4-----------|
A|-8-(16x's)-10-(16x's)-0000--x--0000--x--0000--x--0000--x--(2x's)---|
D|-8---------10---------0000--9--0000--7--0000--3--0000--2-----------|
                        ....     ....     ....     ....


1st guitar:
e|-----------------------------------------------------------------------|
B|-----------------------------------------------------------------------|
G|-----------------------------------------------------------------------|
d|-0-0-000~-0-0-000~-0-0-000-0-------0-0-000~-0-0-000~-0-0-000-0---------|
A|-0-0-000~-0-0-000~-0-0-000-0-8-7-8-0-0-000~-0-0-000~-0-0-000-0-8-7-10--|
D|-0-0-000~-0-0-000~-0-0-000-0-------0-0-000~-0-0-000~-0-0-000-0---------|
   . . ...  . . ...  . . ... .       . . ...  . . ...  . . ... .

e|-----------------------------------------------------------------------|
B|-----------------------------------------------------------------------|
G|-----------------------------------------------------------------------|
d|-8-8-888~-8-8-888~-8-8-888-8-------8-8-888~-8-8-888~-8-8-888-8-----10--|
A|-8-8-888~-8-8-888~-8-8-888-8-8-7-8-8-8-888~-8-8-888~-8-8-888-8-8-7-----|
D|-8-8-888~-8-8-888~-8-8-888-8-------8-8-888~-8-8-888~-8-8-888-8---------|
   . . ...  . . ...  . . ... .       . . ...  . . ...  . . ... .
repeat 6x's

2nd guitar:
e|-------------------|
B|-------------------|
G|-------------------|
d|-0-0-000~----------|
A|-0-0-000~-(8x's)---|
D|-0-0-000~----------|
   . . ...  

e|-------------------|
B|-------------------|
G|-------------------|
d|-8-8-888~----------|
A|-8-8-888~-(8x's)---|
D|-8-8-888~----------|
   . . ...  
repeat 6x's

Both guitars:
e|------|
B|------|
G|------|
d|--0~--|
A|--0~--|
D|--0~--|

1st guitar:
e|------------------------------------------------------------------------------|
B|------------------------------------------------------------------------------|
G|------------------------------------------------------------------------------|
d|-0000-----10--------0000-----10--------0000-----10--------0000-----10---------|
A|-0000-8-7----8-7-10-0000-8-7----8-7-10-0000-8-7----8-7-10-0000-8-7----8-7-10--|
D|-0000---------------0000---------------0000---------------0000----------------|
   ....               ....               ....               ....

e|------------------------------------------------------------------------------|
B|------------------------------------------------------------------------------|
G|------------------------------------------------------------------------------|
d|-8888-----10--------8888-----10--------8888-----10--------8888-----10---------|
A|-8888-8-7----8-7-10-8888-8-7----8-7-10-8888-8-7----8-7-10-8888-8-7----8-7-10--|
D|-8888---------------8888---------------8888---------------8888----------------|
   ....               ....               ....               ....

e|------------------------------------------------------------------------------|
B|------------------------------------------------------------------------------|
G|------------------------------------------------------------------------------|
d|-0000-----10--------0000-----10--------0000-----10--------0000-----10---------|
A|-0000-8-7----8-7-10-0000-8-7----8-7-10-0000-8-7----8-7-10-0000-8-7----8-7-10--|
D|-0000---------------0000---------------0000---------------0000----------------|
   ....               ....               ....               ....

e|------------------------------------------------------------------------------|
B|------------------------------------------------------------------------------|
G|------------------------------------------------------------------------------|
d|-8888-----10--------8888-----10--------8888-----10--------8888-----10---------|
A|-8888-8-7----8-7-10-8888-8-7----8-7-10-8888-8-7----8-7-10-8888-8-7----8-7-10--|
D|-8888---------------8888---------------8888---------------8888----------------|
   ....               ....               ....               ....

e|------------------------------------------------------------------------------|
B|------------------------------------------------------------------------------|
G|------------------------------------------------------------------------------|
d|-0000------------10-0000------------10-0000------------10-0000------------10--|
A|-0000-7-8-10-8-7----0000-7-8-10-8-7----0000-7-8-10-8-7----0000-7-8-10-8-7-----|
D|-0000---------------0000---------------0000---------------0000----------------|
   ....               ....               ....               ....

e|------------------------------------------------------------------------------|
B|------------------------------------------------------------------------------|
G|------------------------------------------------------------------------------|
d|-8888------------10-8888------------10-8888------------10-8888------------10--|
A|-8888-8-7-10-8-7----8888-8-7-10-8-7----8888-8-7-10-8-7----8888-8-7-10-8-7-----|
D|-8888---------------8888---------------8888---------------8888----------------|
   ....               ....               ....               ....

e|------------------------------------------------------------------------------|
B|------------------------------------------------------------------------------|
G|------------------------------------------------------------------------------|
d|-0000-----10--------0000-----10--------0000-----10--------0000-----10---------|
A|-0000-8-7----8-7-10-0000-8-7----8-7-10-0000-8-7----8-7-10-0000-8-7----8-7-10--|
D|-0000---------------0000---------------0000---------------0000----------------|
   ....               ....               ....               ....

e|------------------------------------------------------------------------------|
B|------------------------------------------------------------------------------|
G|------------------------------------------------------------------------------|
d|-8888-----10--------8888-----10--------8888-----10--------8888-----10---------|
A|-8888-8-7----8-7-10-8888-8-7----8-7-10-8888-8-7----8-7-10-8888-8-7----8-7-10--|
D|-8888---------------8888---------------8888---------------8888----------------|
   ....               ....               ....               ....

2nd guitar:
e|------------------------------------------------------------------------------|
B|------------------------------------------------------------------------------|
G|------------------------------------------------------------------------------|
d|-0000---------------0000---------------0000---------------0000----0000--------|
A|-0000---------------0000---------------0000---------------0000----0000--------|
D|-0000---------------0000---------------0000---------------0000----0000--------|
   ....               ....               ....               ....    ....

e|------------------------------------------------------------------------------|
B|------------------------------------------------------------------------------|
G|------------------------------------------------------------------------------|
d|-8888---------------8888---------------8888---------------8888----8888--------|
A|-8888---------------8888---------------8888---------------8888----8888--------|
D|-8888---------------8888---------------8888---------------8888----8888--------|
   ....               ....               ....               ....    ....
Repeat 4x's

Both guitars:
e|-----------------------------------------------------------------------|
B|-----------------------------------------------------------------------|
G|-----------------------------------------------------------------------|
d|-0--0-0-000-0-0----0--0-0-000-0-0----8--8-8-888-8-8----8--8-8-888-8-8--|
A|-0--0-0-000-0-0----0--0-0-000-0-0----8--8-8-888-8-8----8--8-8-888-8-8--|
D|-0--0-0-000-0-0----0--0-0-000-0-0----8--8-8-888-8-8----8--8-8-888-8-8--|
   .  . . ... . .    .  . . ... . .    .  . . ... . .    .  . . ... . .
Repeat 4x's


End on:
e|------|
B|------|
G|------|
d|--0~--|
A|--0~--|
D|--0~--|
comments
We did not receive enough feedback on this tab! Please rate:
print report bad tab
1 2 3 4 5
I want to post or [tab]
guest
You may want to rate the tab now too:
select rating
Please do not post tabs as comments. Select "correction" instead!