Oops, an error
Loading. Please wait.

Axecrazy - Harmonies Tab

47 views 1 this week
no commentswrite comment
1 2 3 4 5
please rate
Autoscroll
+/-
esc
set tempo
stop
Contributor
Difficulty
advanced
WARNING: You are trying to view
                                    content from Ultimate-Guitar.com
                                    in an unauthorized application,
                                    which is prohibited.

                                    Please use an official Ultimate
                                    Guitar Tabs application for iPhone,
                                    iPad or Android to access legitimate
                                    chords, guitar, bass, and drum tabs
                                    from Ultimate-Guitar.com database.

                                    Type "ultimate guitar tabs" in Apple
                                    App Store's or Android Market's
                                    search to find the application.
-------------------------------------------------------------------------------
                             Harmonies - Axe Crazy
-------------------------------------------------------------------------------
Tabbed by: AxeCrazy
Email:

Tuning: Standard

Guitar 1: P1

e|---------------------------------------------------------------------------|
B|---------------------------------------------------------------------------|
G|-2-4-2-6-2-4-7-6-4-2-----5-2-5-7-5-2-------5-2-----------------------------|
D|-2-4-2-6-2-4-7-6-4-2-5-7-5-2-5-7-5-2-5-2-7-5-2-5-4-------------------------|
A|-0-2-0-4-0-2-5-4-2-0-5-7-3-0-3-5-3-0-5-2-7-3-0-5-7-------------------------|
E|---------------------3-5-------------3-0-5-----3-5-------------------------|

Guitar 2: P1

e|----------------------------------------------8-5-8-5-8-5-8-5-8-5-8---5----|
B|--------------------------------------------------------------------8---8--|
G|-----5-------7b-7-5--------------------------------------------------------|
D|-5-7---7-5-7--------7-5-7--------------------------------------------------|
A|--------------------------5---5-7-5----------------------------------------|
E|----------------------------8-------8-0-3-5--------------------------------|

Guitar 1: P2

e|-17-15-12-17-15-12-17-15-12-17-17b-15--------------------------------------|
B|--------------------------------------17-16-15----15-----------------------|
G|-----------------------------------------------17----17-14-----------------|
D|---------------------------------------------------------------------------|
A|---------------------------------------------------------------------------|
E|---------------------------------------------------------------------------|

Guitar 2: P2

e|---------------------------------------------------------------------------|
B|---------3-------------3-------------3-------------------------------------|
G|-2-2-4-5-2-5-2-2-2-4-5-2-5-2---2-4-5-2-5-2---------------------------------|
D|-2-2-4-5-0-5-2-2-2-4-5-0-5-2-5-2-4-5-0-5-2-5-6-7-5-6-7---------------------|
A|-0-0-2-3---3-0-0-0-2-3---3-0-5-0-2-3---3-0-5-6-7-5-6-7---------------------|
E|-----------------------------3-------------3-4-5-3-4-5---------------------|

Guitar 1: P3

e|-------------5-5-----------8-5-8-5---5-11-11-11-10-8-----------------------|
B|---------5-8-----8-5---------------8-----------------10--------------------|
G|-----5-7-------------7-5---------------------------------------------------|
D|-5-7---------------------7------------------------------7-10-7-10-7-10-----|
A|---------------------------------------------------------------------------|
E|---------------------------------------------------------------------------|

Guitar 2: P3

e|-------------12-15-17-20-17-15-12----------17-15-17-15-20-17-15-17-15-17---|
B|-------13-15----------------------15-13------------------------------------|
G|-12-14----------------------------------14---------------------------------|
D|---------------------------------------------------------------------------|
A|---------------------------------------------------------------------------|
E|---------------------------------------------------------------------------|

Guitar 1: P4

e|---------------------5-5-5-5-3-5-------------------------------------------|
B|---------------------3-3-3-3-6-3-------------------------------------------|
G|-----2-2-2-2-5-2-5-7-2-2-2-2-5-2-----2-2-2-2-5-2---4-4-4-5-4-2-4-----------|
D|-5-7-2-2-2-2-5-0-5-7-0-0-0-0-3-0-5-7-2-2-2-2-5-2-5-4-4-4-5-4-2-4-----------|
A|-5-7-0-0-0-0-3-0-3-5-------------5-7-0-0-0-0-3-0-5-2-2-2-3-2-0-2-----------|
E|-3-5-----------------------------3-5-------------3-------------------------|

Guitar 2: P4

e|---------------------------------------------------------------------------|
B|---------------------------------------------------------------------------|
G|-----5-7-5-------5-7-5-------5-7-5-----7-5-----7-5---------5-7-5-----------|
D|-5-7-------7-5-7-------7-5-7-------7-5-----7-5-----7-5-5-7-------7b--------|
A|---------------------------------------------------------------------------|
E|---------------------------------------------------------------------------|

Guitar 1: P5

e|-10-12-10-12-10-12-10-12-------10-------10----12-10-8----------------------|
B|-------------------------10-12----10-10----10---------8-10-----------------|
G|---------------------------------------------------------------------------|
D|---------------------------------------------------------------------------|
A|---------------------------------------------------------------------------|
E|---------------------------------------------------------------------------|

Guitar 2: P5

e|---------------------------------------------------------------------------|
B|---------------------------------------------------------------------------|
G|-2-2-7-5-2-2-7-5-2-2-7-5-----2-2-7-5-2-2-----2-2---------------------------|
D|-2-2-7-5-2-2-7-5-2-2-7-5-5-7-2-2-7-5-2-2-7-5-2-2-7-5-5-7-------------------|
A|-0-0-5-3-0-0-5-3-0-0-5-3-5-7-0-0-5-3-0-0-5-3-0-0-5-3-5-7-------------------|
E|-------------------------3-5-------------------------3-5-------------------|

Guitar 1: P6

e|---------------------------------------------------------------------------|
B|---------------------------------------------------------------------------|
G|-2-2-2-2-2-2-2-2-2-2-2-2-2-2-5-7-5-2-2-2-2-2-2-2-2-2-2-2-2-2-2-----2-------|
D|-2-2-2-2-2-2-2-2-2-2-2-2-2-2-5-7-5-2-2-2-2-2-2-2-2-2-2-2-2-2-2-5-7-2-------|
A|-0-0-0-0-0-0-0-0-0-0-0-0-0-0-3-5-3-0-0-0-0-0-0-0-0-0-0-0-0-0-0-5-7-0-------|
E|---------------------------------------------------------------3-5---------|

Guitar 2: P6

e|-5-3-0-5-3-0-5-3-0-7b-7b-7b-5-3-5-3-5-3-5-3-5-0-0-0-0----------------------|
B|------------------------------------------------------1--------------------|
G|--------------------------------------------------------2-0-2-0-2-0-2-0-2--|
D|---------------------------------------------------------------------------|
A|---------------------------------------------------------------------------|
E|---------------------------------------------------------------------------|

Guitar 1: P7

e|---------------------------------------------------------------------------|
B|-----------------------5---------------------------------------------------|
G|-----5-7-5-------5-7-5---------------------------------------------5-------|
D|-5-7-------7-5-7---------5-7-7-5-7-7-5-7-7-5-7-7-5-7-7-5-7-7-5-7-7---5-----|
A|---------------------------------------------------------------------------|
E|---------------------------------------------------------------------------|

Guitar 2: P7

e|---------------------------------------------------------------------------|
B|---------------------------------------------------------------------------|
G|-------------------------------------------2-2-2-5-2-2-2-2-2-2-5-----0-2---|
D|-2-2-2-5-2-2-2-2-5-2-2-2-2-5-0-------------2-2-2-5-2-2-2-2-2-2-5-----------|
A|-0-0-0-3-0-0-0-0-3-0-0-0-0-3-0-----3-5-3---0-0-0-3-0-0-0-0-0-0-3-5-3-------|
E|-------------------------------3-5-------5---------------------------------|

Guitar 1: P8

e|---------------------------------------------------------------------------|
B|---------------------------------------------------------------------------|
G|-------------------------------------------2-2-2-5-2-2-2-2-2-2-5-----0-2---|
D|-2-2-2-5-2-2-2-2-5-2-2-2-2-5-0-------------2-2-2-5-2-2-2-2-2-2-5-----------|
A|-0-0-0-3-0-0-0-0-3-0-0-0-0-3-0-----3-5-3---0-0-0-3-0-0-0-0-0-0-3-5-3-------|
E|-------------------------------3-5-------5---------------------------------|

Guitar 2: P8

e|----------------------------------------------------------------3b---------|
B|--------------------------------------8b-8b-8b-8b-8-5----------------------|
G|-----------------5-7-5-7-5---5-7b-7-5-----------------7-5-7-5--------------|
D|-5-7-5-7-5-7-5-7-----------7----------------------------------7------------|
A|---------------------------------------------------------------------------|
E|---------------------------------------------------------------------------|

Guitar 1: P9

e|---------------------------------------------------------------------------|
B|-------------1-3-----------------------------1-3-1-------------------------|
G|-0-2-2-0-2-2-----0-2-2-0-2-2-0---0-2-2-0-2-2-------2-0---------------------|
D|-------------------------------0-----------------------2-0-----------------|
A|-----------------------------------------------------------3-0-------------|
E|---------------------------------------------------------------3-5---------|

e|-15-17-17-15-17-17-20-17-20-17---------------------------------------------|
B|-------------------------------20-17---------------------------------------|
G|-------------------------------------19------------------------------------|
D|----------------------------------------19-17-19---------------------------|
A|-------------------------------------------------0-0-3-5-3-5-3-5-5b-5-3-0--|
E|---------------------------------------------------------------------------|

Guitar 1: P10

e|------------------------------------5------------8-5-3-8-5-3-8-5-3-3b-3b-----|
B|-8b-8-5----------------------------------------------------------------------|
G|--------7b-7-5-7-5-----------7-9-7b---7b-5-----------------------------------|
D|-------------------7-5-6-7----------------7-5-7------------------------------|
A|-----------------------------------------------------------------------------|
E|-----------------------------------------------------------------------------|
Guitar 2: P10

e|-15b-20-17-15-12-------------------------20-17-15-20-17-15-20-17-15-15b----|
B|-----------------15-13-----------------------------------------------------|
G|-----------------------14-12-14-14-14-12-----------------------------------|
D|---------------------------------------------------------------------------|
A|---------------------------------------------------------------------------|
E|---------------------------------------------------------------------------|

************************************

| /   slide up
| \   slide down
| h   hammer-on
| p   pull-off
| ~   vibrato
| +   harmonic
| x   Mute note
| b   Bend
| pb  Pre-bend
| br  Bend release
| pbr Pre-bend release
| brb Bend release bend

************************************
comments
We did not receive enough feedback on this tab! Please rate:
print report bad tab
1 2 3 4 5
I want to post or [tab]
guest
You may want to rate the tab now too:
select rating
Please do not post tabs as comments. Select "correction" instead!