Oops, an error
Loading. Please wait.

Babylon Fell - Soul Eater Bass Tab

790 views 1 this week
no commentswrite comment
1 2 3 4 5
please rate
add to favorites launch autoscroll
font size
0
reset
Autoscroll
+/-
esc
set tempo
stop
Contributor
Difficulty
Tuning
intermediate
D A D G B E
WARNING: You are trying to view
                                    content from Ultimate-Guitar.com
                                    in an unauthorized application,
                                    which is prohibited.

                                    Please use an official Ultimate
                                    Guitar Tabs application for iPhone,
                                    iPad or Android to access legitimate
                                    chords, guitar, bass, and drum tabs
                                    from Ultimate-Guitar.com database.

                                    Type "ultimate guitar tabs" in Apple
                                    App Store's or Android Market's
                                    search to find the application.
Soul Eater-Bass
Babylon Fell
Written Andrew L.
             E  S S E  E  E  E  E  E     E  E  Q    E  E  Q     
G||-------|---------------------------|------------------------|
D||-------|---------------------------|--------3----------2----|
A||-------|---------------------------|------------------------|
D||-------|--0--0-0-0--0--3--2--0--2--|--0--0-------0--0-------|


  E  E  E  E  E  E  E  E     E  S S E  E  E  E  E  E     E  E  Q    E  E  Q     
--------------------------|---------------------------|------------------------|
--7--7--5--5--8--8--------|---------------------------|--------3----------2----|
--------------------7--7--|---------------------------|------------------------|
--------------------------|--0--0-0-0--0--3--2--0--2--|--0--0-------0--0-------|


  E  E  E  E  E  E  E  E      E   E   E   E   E   E   E   E   
--------------------------|----------------------------------|
--------------------------|--10--10--10--10--10--10--10--10--|
--7--7--7--7--7--7--7--7--|----------------------------------|
--------------------------|----------------------------------|


  E  E   E  E   E  E   E  E     E  E   E  E   E  E   E  E   
-----------------------------|---------------12------------|
--------15-----14-----10-----|--------15------------14-----|
-----------------------------|-----------------------------|
--0--0------0------0------0--|--0--0------0------0------0--|


  E  E  E  E  E  E  E  E      E   E   E   E  E  E  E  E   
--------------------------|------------------------------|
--8--8--8--8--------------|------------------------------|
--------------------------|------------------8--8--------|
--------------7--7--7--7--|--10--10--10--10--------7--7--|


  E  E   E  E   E  E   E  E     E  E   E  E   E  E   E  E   
-----------------------------|---------------12------------|
--------15-----14-----10-----|--------15------------14-----|
-----------------------------|-----------------------------|
--0--0------0------0------0--|--0--0------0------0------0--|


   E   E   E   E   E   E   E   E      E   E   E   E   E   E   E   E   
----------------------------------|----------------------------------|
----------------------------------|----------------------------------|
--13--13--13--13--13--13--13--13--|----------------------------------|
----------------------------------|--10--10--10--10--14--14--10--10--|


  E  S S E  E  E  E  E  E     E  E  Q    E  E  Q     
---------------------------|------------------------|
---------------------------|--------3----------2----|
---------------------------|------------------------|
--0--0-0-0--0--3--2--0--2--|--0--0-------0--0-------|


  E  S S E  E  E  E  E  E     E  E  Q    E  E  Q     
---------------------------|------------------------|
---------------------------|------------------------|
---------------------------|------------------------|
--0--0-0-0--0--3--2--0--2--|--0--0-------0--0-------|


  E  S S E  E  E  E  E  E     E  E  Q    E  E  Q     
---------------------------|------------------------|
---------------------------|--------3----------2----|
---------------------------|------------------------|
--0--0-0-0--0--3--2--0--2--|--0--0-------0--0-------|


  E  S S E  E  E  E  E  E     E  E  E  E   E   E  E  E           
---------------------------|----------------------------|-------|
---------------------------|----------------------------|-------|
---------------------------|--8--8--8--8--10--10--7--7--|-------|
--0--0-0-0--0--3--2--0--2--|----------------------------|-------|


    E  E  E  E  E  E  E  E     E  E  E  E  E  E  E  E   
|---------------------------|--------------------------|
|*--------------------------|--3--3--3--3--3--3--3--3--|
|*--5--5--5--5--5--5--5--5--|--------------------------|
|---------------------------|--------------------------|


  E  E  E  E  E  E  E  E     E  E  E  E  E  E  E  E   
--------------------------|--------------------------|
--------------------------|--6--6--6--6--------------|
--3--3--3--3--3--3--3--3--|--------------4--4--4--4--|
--------------------------|--------------------------|


  E  E  E  E  E  E  E  E     E  E  E  E  E  E  E  E   
--------------------------|--------------------------|
--------------------------|--3--3--3--3--3--3--3--3--|
--3--3--3--3--3--3--3--3--|--------------------------|
--------------------------|--------------------------|


  E  E  E  E  E  E  E  E     E  E  E  E  E  E  E  E       W                 
--------------------------|---------------------------||-------------------|
--1--1--1--1--1--1--1--1--|--------------------------*||-------------------|
--------------------------|--1--1--1--1--1--1--1--1--*||--8----------------|
--------------------------|---------------------------||-------------------|


  W                   E  E  E  E  E  E  E  E     E  E  E  E  E  E  E  E   
-------------------|--------------------------|--------------------------|
-------------------|--------------------------|--------------------------|
--7----------------|--5--5--5--5--5--5--5--5--|--8--8--8--8--8--8--8--8--|
-------------------|--------------------------|--------------------------|


  E  E  E  E  E  E  E  E     E  E  E  E  E  E  E  E   
--------------------------|--------------------------|
--------------------------|--8--8--8--8--5--5--------|
--3--3--3--3--3--3--3--3--|--------------------5--5--|
--------------------------|--------------------------|


  E  E  E  E  E  E  E  E     E  E  E  E  E  E  E  E   
--------------------------|--------------------------|
--------------------------|--------------------------|
--5--5--5--5--5--5--5--5--|--8--8--8--8--8--8--8--8--|
--------------------------|--------------------------|


  E  E  E  E  E  E  E  E     E  E  Q    E  E  Q       E  S S E  E  E  E  E  E   
--------------------------|------------------------|---------------------------|
--------------------------|------------------------|---------------------------|
--3--3--3--3--3--3--3--3--|------------------------|---------------------------|
--------------------------|--0--0-------0--0-------|--0--0-0-0--0--3--2--0--2--|


  E  E  Q    E  E  Q       E  E  E  E  E  E  E  E     E  S S E  E  E  E  E  E   
------------------------|--------------------------|---------------------------|
--------3----------2----|--7--7--5--5--8--8--------|---------------------------|
------------------------|--------------------7--7--|---------------------------|
--0--0-------0--0-------|--------------------------|--0--0-0-0--0--3--2--0--2--|


  E  E  Q    E  E  Q       E  E  E  E  E  E  E  E   
------------------------|--------------------------|
--------3----------2----|--------------------------|
------------------------|--7--7--7--7--7--7--7--7--|
--0--0-------0--0-------|--------------------------|


   E   E   E   E   E   E   E   E     E  E   E  E   E  E   E  E   
----------------------------------|-----------------------------|
--10--10--10--10--10--10--10--10--|--------15-----14-----10-----|
----------------------------------|-----------------------------|
----------------------------------|--0--0------0------0------0--|


  E  E   E  E   E  E   E  E     E  E  E  E  E  E  E  E   
---------------12------------|--------------------------|
--------15------------14-----|--8--8--8--8--------------|
-----------------------------|--------------------------|
--0--0------0------0------0--|--------------7--7--7--7--|


   E   E   E   E  E  E  E  E     E  E   E  E   E  E   E  E   
------------------------------|-----------------------------|
------------------------------|--------15-----14-----10-----|
------------------8--8--------|-----------------------------|
--10--10--10--10--------7--7--|--0--0------0------0------0--|


  E  E   E  E   E  E   E  E      E   E   E   E   E   E   E   E   
---------------12------------|----------------------------------|
--------15------------14-----|----------------------------------|
-----------------------------|--13--13--13--13--13--13--13--13--|
--0--0------0------0------0--|----------------------------------|


   E   E   E   E   E   E   E   E     E  S S E  E  E  E  E  E   
----------------------------------|---------------------------|
----------------------------------|---------------------------|
----------------------------------|---------------------------|
--10--10--10--10--14--14--10--10--|--0--0-0-0--0--3--2--0--2--|


  E  E  Q    E  E  Q       E  S S E  E  E  E  E  E     E  E  Q    E  E  Q     
------------------------|---------------------------|------------------------|
--------3----------2----|---------------------------|------------------------|
------------------------|---------------------------|------------------------|
--0--0-------0--0-------|--0--0-0-0--0--3--2--0--2--|--0--0-------0--0-------|


  E  S S E  E  E  E  E  E     E  E  Q    E  E  Q     
---------------------------|------------------------|
---------------------------|--------3----------2----|
---------------------------|------------------------|
--0--0-0-0--0--3--2--0--2--|--0--0-------0--0-------|


  E  S S E  E  E  E  E  E     E  E  E  E   E   E  Q     
---------------------------|---------------------------|
---------------------------|---------------------------|
---------------------------|--8--8--8--8--10--10-------|
--0--0-0-0--0--3--2--0--2--|---------------------------|


    E  E  E  E  E  E  E  E     E  E  E  E  E  E  E  E   
|---------------------------|--------------------------|
|*--------------------------|--3--3--3--3--3--3--3--3--|
|*--5--5--5--5--5--5--5--5--|--------------------------|
|---------------------------|--------------------------|


  E  E  E  E  E  E  E  E     E  E  E  E  E  E  E  E   
--------------------------|--------------------------|
--------------------------|--6--6--6--6--------------|
--3--3--3--3--3--3--3--3--|--------------4--4--4--4--|
--------------------------|--------------------------|


  E  E  E  E  E  E  E  E     E  E  E  E  E  E  E  E   
--------------------------|--------------------------|
--------------------------|--3--3--3--3--3--3--3--3--|
--3--3--3--3--3--3--3--3--|--------------------------|
--------------------------|--------------------------|


  E  E  E  E  E  E  E  E     E  E  E  E  E  E  E  E           
--------------------------|---------------------------||-----|
--1--1--1--1--1--1--1--1--|--------------------------*||-----|
--------------------------|--1--1--1--1--1--1--1--1--*||-----|
--------------------------|---------------------------||-----|


  W                   E  E  E  E  E  E  E  E     E  E  E  E  E  E  E  E   
-------------------|--------------------------|--------------------------|
-------------------|--------------------------|--------------------------|
-------------------|--8--8--8--8--8--8--8--8--|--5--5--5--5--5--5--5--5--|
-------------------|--------------------------|--------------------------|


  E  E  E  E  E  E  E  E     E  E  E  E  E  E  E  E   
--------------------------|--------------------------|
--------------------------|--------------------------|
--3--3--3--3--3--3--3--3--|--1--1--1--1--1--1--1--1--|
--------------------------|--------------------------|


  E  E  E  E  E  E  E  E     E  E  E  E  E  E  E  E   
--------------------------|--------------------------|
--------------------------|--3--3--3--3--3--3--3--3--|
--8--8--8--8--8--8--8--8--|--------------------------|
--------------------------|--------------------------|


  E  E  E  E  E  E  E  E     E  E  E  E  E  E  E  E   
--------------------------|--------------------------|
--2--2--2--2--2--2--2--2--|--0--0--0--0--0--0--0-----|
--------------------------|-----------------------4--|
--------------------------|--------------------------|


    E  E  E  E  E  E  E  E     E  E  E  E  E  E  E  E   
|---------------------------|--------------------------|
|*--------------------------|--------------------------|
|*--8--8--8--8--8--8--8--8--|--5--5--5--5--5--5--5--5--|
|---------------------------|--------------------------|


  E  E  E  E  E  E  E  E     E  E  E  E  E  E  E  E     
--------------------------|---------------------------||
--------------------------|--------------------------*||
--3--3--3--3--3--3--3--3--|--1--1--1--1--1--1--1--1--*||
--------------------------|---------------------------||


  E  E  E  E  E  E  E  E     E  E  E  E  E  E  E  E   
--------------------------|--------------------------|
--3--3--3--3--3--3--3--3--|--5--5--5--5--5--5--5--5--|
--------------------------|--------------------------|
--------------------------|--------------------------|


    E  E  E  E  E  E  E  E     E  E  E  E  E  E  E  E   
|---------------------------|--------------------------|
|*--------------------------|--3--3--3--3--3--3--3--3--|
|*--5--5--5--5--5--5--5--5--|--------------------------|
|---------------------------|--------------------------|


  E  E  E  E  E  E  E  E     E  E  E  E  E  E  E  E   
--------------------------|--------------------------|
--------------------------|--6--6--6--6--------------|
--3--3--3--3--3--3--3--3--|--------------4--4--4--4--|
--------------------------|--------------------------|


  E  E  E  E  E  E  E  E     E  E  E  E  E  E  E  E   
--------------------------|--------------------------|
--------------------------|--3--3--3--3--3--3--3--3--|
--3--3--3--3--3--3--3--3--|--------------------------|
--------------------------|--------------------------|


  E  E  E  E  E  E  E  E     E  E  E  E  E  E  E  E       H         
--------------------------|---------------------------||-----------|
--1--1--1--1--1--1--1--1--|--------------------------*||-----------|
--------------------------|--1--1--1--1--1--1--1--1--*||-----------|
--------------------------|---------------------------||--3--------|


  E  S S E  E  E  E  E  E     E  E  Q    E  E  Q     
---------------------------|------------------------|
---------------------------|--------3----------2----|
---------------------------|------------------------|
--0--0-0-0--0--3--2--0--2--|--0--0-------0--0-------|


  E  S S E  E  E  E  E  E     E  E  Q    E  E  Q     
---------------------------|------------------------|
---------------------------|------------------------|
---------------------------|------------------------|
--0--0-0-0--0--3--2--0--2--|--0--0-------0--0-------|


  E  S S E  E  E  E  E  E     E  E  Q    E  E  Q     
---------------------------|------------------------|
---------------------------|--------3----------2----|
---------------------------|------------------------|
--0--0-0-0--0--3--2--0--2--|--0--0-------0--0-------|


  E  S S E  E  E  E  E  E     E  E  E  E   E   E  E  E             Q      
---------------------------|----------------------------|-------|-------||
---------------------------|----------------------------|-------|-------||
---------------------------|--8--8--8--8--10--10--7--7--|-------|-------||
--0--0-0-0--0--3--2--0--2--|----------------------------|-------|--0----||




Duration Legend
---------------
W - whole
H - half
Q - quarter
E - 8th
S - 16th
T - 32nd
X - 64th
. - note dotted
|-n-|  - n-tuplets


Tablature Legend
----------------
L - tied note
x - dead note
g - grace note
(n) - ghost note
> - accentuded note
NH - natural harmonic
AH - artificial harmonic
TH - tapped harmonic
SH - semi harmonic
PH - pitch harmonic
h - hammer on
p - pull off
b - bend
br - bendRelease
pb - preBend
pbr - preBendRelease
brb - bendReleaseBend
\n/ - tremolo bar dip
\n - tremolo bar dive
-/n - tremolo bar Release up
/n\ - tremolo bar inverted dip
/n - tremolo bar return
-\n - tremolo bar Release down
S - shift slide
s - legato slide
/ -  slide into from below or out of upwards
\ -  slide into from above or out of downwards
~ - vibrato
W - wide vibrato
tr - trill
TP - tremolo picking
T - tapping
S - slap
P - pop
< - fade in
^ - brush up
v - brush down
comments
We did not receive enough feedback on this tab! Please rate:
1 2 3 4 5
I want to post or [tab]
guest
You may want to rate the tab now too:
select rating
Please do not post tabs as comments. Select "correction" instead!