Oops, an error
Loading. Please wait.

Bastard - Bein Harald Tab

ver1
ver1

Whole song

Interactive

More versions @911Tabs.com
216 views 1 this week
no commentswrite comment
1 2 3 4 5
please rate
Autoscroll
+/-
esc
set tempo
stop
Contributor
Hey! There's an official Ultimate Guitar app which is ideal
for learning songs when you're away from computer. Get the app
WARNING: You are trying to view
                                    content from Ultimate-Guitar.com
                                    in an unauthorized application,
                                    which is prohibited.

                                    Please use an official Ultimate
                                    Guitar Tabs application for iPhone,
                                    iPad or Android to access legitimate
                                    chords, guitar, bass, and drum tabs
                                    from Ultimate-Guitar.com database.

                                    Type "ultimate guitar tabs" in Apple
                                    App Store's or Android Market's
                                    search to find the application.
                                  Bein Harald                                   


                                                                         Bastard
J.S Eld√ły Gitar



             Q     Q    E   Q    E     Q    E   Q    E  Q     
E||-----||--------------------------|------------------------|
B||-----||--------------------------|------------------------|
G||-----||*-------14-------12-------|--9-------10-------7----|
D||-----||*--0----------0--------0--|-------0--------0-------|
A||-----||--------------------------|------------------------|
E||-----||--------------------------|------------------------|


  Q     Q    E   Q    E     Q    E   Q    E  Q       Q    Q    E  Q    E   
-------------------------|------------------------|-----------------------|
-------------------------|------------------------|-----------------------|
-------14-------12-------|--9-------10-------7----|-----------------------|
--0----------0--------0--|-------0--------0-------|-------2-------5-------|
-------------------------|------------------------|--3---------3-------3--|
-------------------------|------------------------|-----------------------|


  Q    E  Q    E  Q       Q    Q    E  Q    E     Q    E  Q    E  Q       
-----------------------|-----------------------|------------------------||
-----------------------|-----------------------|------------------------||
-----------------------|-----------------------|-----------------------*||
--2-------0-------2----|-------2-------5-------|--2-------3-------2----*||
-------3-------3-------|--3---------3-------3--|-------3-------3--------||
-----------------------|-----------------------|------------------------||


   E  E   E  E  E   E  E  E     E  E  E   E  E  E  Q       
-----------------------------|---------------------------||
-----------------------------|---------------------------||
*--------14--------12--------|--9--------10--------7----*||
*--0--0------0--0------0--0--|-----0--0------0--0-------*||
-----------------------------|---------------------------||
-----------------------------|---------------------------||


  E  E  E  E  E  E  E  E     E  E  E  E  E  E  Q       E  E  E  E  E  E  E  E   
--------------------------|-------------------------|--------------------------|
--------------------------|-------------------------|--------------------------|
--------------------------|-------------------------|--------------------------|
--------2--------5--------|--2--------0--------2----|--------2--------5--------|
--3--3-----3--3-----3--3--|-----3--3-----3--3-------|--3--3-----3--3-----3--3--|
--------------------------|-------------------------|--------------------------|


  E  E  E  E  E  E  Q         E  E   E  E  E   E  E  E   
-------------------------||-----------------------------|
-------------------------||-----------------------------|
-------------------------||*--------14--------12--------|
--2--------3--------2----||*--0--0------0--0------0--0--|
-----3--3-----3--3-------||-----------------------------|
-------------------------||-----------------------------|


  E  E  E   E  E  E  Q         S S S S E  E  S S S S E  E   
---------------------------||------------------------------|
---------------------------||------------------------------|
--9--------10--------7----*||----------5-------------5-----|
-----0--0------0--0-------*||----------5-------------5-----|
---------------------------||--3-3-3-3-3-----3-3-3-3-3-----|
---------------------------||------------------------------|


  S S S S E  E  S S S S E  E       W                   W                 
------------------------------||--------------------|-------------------|
------------------------------||--------------------|-------------------|
----------5-------------5-----||*--7----------------|--L----------------|
----------5-------------5-----||*--7----------------|--L----------------|
--3-3-3-3-3-----3-3-3-3-3-----||---5----------------|--L----------------|
------------------------------||--------------------|-------------------|


  W                   H         E.  E.  E     W                 
-------------------|-----------------------|-------------------|
-------------------|-----------------------|-------------------|
--7----------------|--L--------10---9---7--|--5----------------|
--7----------------|--L--------10---9---7--|--5----------------|
--5----------------|--L---------8---7---5--|--3----------------|
-------------------|-----------------------|-------------------|


  W                   W                   H         E.  E.  E     
-------------------|-------------------|------------------------||
-------------------|-------------------|------------------------||
--L----------------|--3----------------|--2--------10---9---5--*||
--L----------------|--3----------------|--2--------10---9---5--*||
--L----------------|--1----------------|--0---------8---7---3---||
-------------------|-------------------|------------------------||


  W                   W                    E.  E.  E     Q.     E  E  E  E  E   
-------------------|-------------------|--------------|------------------------|
-------------------|-------------------|--------------|------------------------|
--3----------------|--2----------------|--10---9---5--|--7------------2-----2--|
--3----------------|--2----------------|--10---9---5--|--7------0--4-----4-----|
--1----------------|--0----------------|---8---7---3--|--5---------------------|
-------------------|-------------------|--------------|------------------------|


  H        H           W                   W                 
--------------------|-------------------|-------------------|
--------------------|-------------------|-------------------|
--------------------|--5----------------|-------------------|
--0-----------------|--5----------------|--5----------------|
--------------------|--3----------------|--5----------------|
--------------------|-------------------|--3----------------|


  Q.     E  E  E  E  E     H        H           W                 
------------------------|--------------------|-------------------|
------------------------|--------------------|-------------------|
--7------------2-----2--|--------------------|--5----------------|
--7------0--4-----4-----|--0-----------------|--5----------------|
--5---------------------|--------------------|--3----------------|
------------------------|--------------------|-------------------|


  W                     E  E   E  E  E   E  E  E     E  E  E   E  E  E  Q       
-------------------||-----------------------------|---------------------------||
-------------------||-----------------------------|---------------------------||
-------------------||*--------14--------12--------|--9--------10--------7----*||
--5----------------||*--0--0------0--0------0--0--|-----0--0------0--0-------*||
--5----------------||-----------------------------|---------------------------||
--3----------------||-----------------------------|---------------------------||


  S S S S E  E  S S S S E  E     S S S S E  E  S S S S E  E   
------------------------------|------------------------------|
------------------------------|------------------------------|
----------5-------------5-----|----------5-------------5-----|
----------5-------------5-----|----------5-------------5-----|
--3-3-3-3-3-----3-3-3-3-3-----|--3-3-3-3-3-----3-3-3-3-3-----|
------------------------------|------------------------------|


    W                   W                   W                 
|--------------------|-------------------|-------------------|
|--------------------|-------------------|-------------------|
|*--7----------------|--L----------------|--7----------------|
|*--7----------------|--L----------------|--7----------------|
|---5----------------|--L----------------|--5----------------|
|--------------------|-------------------|-------------------|


  H         E.  E.  E     W                   W                 
-----------------------|-------------------|-------------------|
-----------------------|-------------------|-------------------|
--L--------10---9---7--|--5----------------|--L----------------|
--L--------10---9---7--|--5----------------|--L----------------|
--L---------8---7---5--|--3----------------|--L----------------|
-----------------------|-------------------|-------------------|


  W                   H         E.  E.  E       W                 
-------------------|------------------------||-------------------|
-------------------|------------------------||-------------------|
--3----------------|--2--------10---9---5--*||--3----------------|
--3----------------|--2--------10---9---5--*||--3----------------|
--1----------------|--0---------8---7---3---||--1----------------|
-------------------|------------------------||-------------------|


  W                    E.  E.  E     Q.     E  E  E  E  E   
-------------------|--------------|------------------------|
-------------------|--------------|------------------------|
--2----------------|--10---9---5--|--7------------2-----2--|
--2----------------|--10---9---5--|--7------0--4-----4-----|
--0----------------|---8---7---3--|--5---------------------|
-------------------|--------------|------------------------|


  H        H           W                   W                 
--------------------|-------------------|-------------------|
--------------------|-------------------|-------------------|
--------------------|--5----------------|-------------------|
--0-----------------|--5----------------|--5----------------|
--------------------|--3----------------|--5----------------|
--------------------|-------------------|--3----------------|


  Q.     E  E  E  E  E     H        H           W                 
------------------------|--------------------|-------------------|
------------------------|--------------------|-------------------|
--7------------2-----2--|--------------------|--5----------------|
--7------0--4-----4-----|--0-----------------|--5----------------|
--5---------------------|--------------------|--3----------------|
------------------------|--------------------|-------------------|


  W                   E  E  E  E  E  E  E  E     E  E  E  E  E  E  E  E   
-------------------|--------------------------|--------------------------|
-------------------|--------------------------|--------------------------|
-------------------|--7--7--------------------|--7--7--------------------|
--5----------------|--7--7--------------------|--7--7--------------------|
--5----------------|--5--5--5--5--5--5--5--5--|--5--5--5--5--5--5--5--5--|
--3----------------|--------------------------|--------------------------|


  E  E  E  E  E  E     E  S S E  E.  E.  H           E  E  E  E  E  E  E  E   
--------------------|-----------------------------|--------------------------|
--------------------|-----------------------------|--------------------------|
--7--7--------------|--7--7-7-7--5----------------|--7--7--------------------|
--7--7--------------|----------------6------------|--7--7--------------------|
--5--5--5--5--5--5--|--------------------7--------|--5--5--5--5--5--5--5--5--|
--------------------|-----------------------------|--------------------------|


  E  E  E  E  E  E  E  E     E  E  E  E  E  E   
--------------------------|--------------------|
--------------------------|--------------------|
--7--7--------------------|--7--7--------------|
--7--7--------------------|--7--7--------------|
--5--5--5--5--5--5--5--5--|--5--5--5--5--5--5--|
--------------------------|--------------------|


  E  S S E  E.  E.  Q    E  S S    E  E.  E.  Q       E  S S E  E.  E.  Q     
--------------------------------|------------------|-------------------------|
--------------------------------|------------------|-------------------------|
--7--7-7-7--5-------------------|------------------|--7--7-7-7--5------------|
----------------6---------------|-----4---7--------|----------------6--------|
--------------------7----5--5-5-|--5----------7----|--------------------7----|
--------------------------------|------------------|-------------------------|


  W                   H        E  Q.        H        E  Q.      
-------------------|---------------------|---------------------|
-------------------|---------------------|---------------------|
-------------------|--7-----------7------|---------------------|
-------------------|--7--------7--7------|--3-----------3------|
-------------------|--5--------5--5------|--3--------3--3------|
-------------------|---------------------|--1--------1--1------|


  H        E  Q.        H        E  Q.        H        E  Q.      
---------------------|---------------------|---------------------|
---------------------|---------------------|---------------------|
--5-----------5------|---------------------|--7-----------7------|
--5--------5--5------|--5-----------5------|--7--------7--7------|
--3--------3--3------|--5--------5--5------|--5--------5--5------|
---------------------|--3--------3--3------|---------------------|


  H        E  Q.        H        E  Q.        H        E  Q.        H         
---------------------|---------------------|---------------------|-----------|
---------------------|---------------------|---------------------|-----------|
---------------------|--5-----------5------|---------------------|-----------|
--3-----------3------|--5--------5--5------|--5-----------5------|-----------|
--3--------3--3------|--3--------3--3------|--5--------5--5------|-----------|
--1--------1--1------|---------------------|--3--------3--3------|-----------|


                       PM PM PM                                    
  H        H           S  S  Q.     H           H        H         
--------------------|------------------------|--------------------|
--------------------|------------------------|--------------------|
--7-----------------|--------7---------------|--7-----------------|
--7-----------------|-----7------------------|--7-----------------|
--5-----------------|--5---------------------|--5-----------------|
--------------------|------------------------|--------------------|


                                                       PM PM PM               
  Q    S  S  S E  S S S S S E     H        H           S  S  Q.     H         
-------------------------------|--------------------|------------------------|
-------------------------------|--------------------|------------------------|
--7----x-10-10-x--9-9-x-7-7-5--|--7-----------------|--------7---------------|
--7----------------------------|--7-----------------|-----7------------------|
--5----------------------------|--5-----------------|--5---------------------|
-------------------------------|--------------------|------------------------|


  H        H           Q    S  S  S E  S S S S S E       Q.     E  E  E  E  E   
--------------------|-------------------------------||-------------------------|
--------------------|-------------------------------||-------------------------|
--7-----------------|--7----x-10-10-x--9-9-x-7-7-5--||*--7------------2-----2--|
--7-----------------|--7----------------------------||*--7------0--4-----4-----|
--5-----------------|--5----------------------------||---5---------------------|
--------------------|-------------------------------||-------------------------|


  H        H           W                   W                 
--------------------|-------------------|-------------------|
--------------------|-------------------|-------------------|
--------------------|--5----------------|-------------------|
--0-----------------|--5----------------|--5----------------|
--------------------|--3----------------|--5----------------|
--------------------|-------------------|--3----------------|


  Q.     E  E  E  E  E     H        H           W                 
------------------------|--------------------|-------------------|
------------------------|--------------------|-------------------|
--7------------2-----2--|--------------------|--5----------------|
--7------0--4-----4-----|--0-----------------|--5----------------|
--5---------------------|--------------------|--3----------------|
------------------------|--------------------|-------------------|


  W                     E   E  E  E  E   E  E  E     E   E  E  E  E   E  E  E   
--------------------||--0h--1--------0h--1--------|--0h--1--------0h--1--------|
--------------------||---------3------------3-----|---------3------------3-----|
-------------------*||------------2------------2--|------------2------------2--|
--5----------------*||----------------------------|----------------------------|
--5-----------------||----------------------------|----------------------------|
--3-----------------||----------------------------|----------------------------|


  E   E  E  E  E   E  E  E     E  E  E  E  E  E  E  E   
--0h--1--------0h--1--------|--1--1--1--1--1--1--1-----|
---------3------------3-----|--3--3--3--3--3-----3--3--|
------------2------------2--|--2--2--------2--------2--|
----------------------------|--0-----------------------|
----------------------------|--------------------------|
----------------------------|--------------------------|


    E  E  E  E  E  E  E  E     Q    E  E  E  E  E  E   
|---1-----1--1--1-----1--1--|-------1--1-----1-----1--|
|---3-----3--3--3--3--3--3--|-------1--1--1--1-----1--|
|*--2--2-----2-----2--------|-------2--2--2-----2-----|
|*--0--0-----0--------------|--3----------3-----------|
|---------------------------|--3----------3-----------|
|---------------------------|--1----------------------|


  Q    E  E  E  E  E  E     Q    E  E  E  E  E  E     
-------0--0-----0--0--0--|-------3-----3--3--3--3---||
-------1--1--1--1-----1--|-------3--3--3--3--3--3---||
--0-------0--0-----0-----|-------0--0--0-----0-----*||
--2----------2-----------|--0----------0-----------*||
--3----------------------|--2-----------------------||
-------------------------|--3-----------------------||


  E  E  E  E  E  E  E  E     Q    E  E  E  E  E  E     Q    E  E  E  E  E   
--1-----1--1--1-----1--1--|-------1--1-----1-----1--|-------0--0-----0--0--|
--3-----3--3--3--3--3--3--|-------1--1--1--1-----1--|-------1--1--1--1-----|
--2--2-----2-----2--------|-------2--2--2-----2-----|--0-------0--0-----0--|
--0--0-----0--------------|--3----------3-----------|--2----------2--------|
--------------------------|--3----------3-----------|--3-------------------|
--------------------------|--1----------------------|----------------------|


  Q    H        Q       E  E  E  E  E  E  E  E     Q    E  E  E  E  E  E   
---------------------|--1-----1--1--1-----1--1--|-------1--1-----1-----1--|
---------------------|--3-----3--3--3--3--3--3--|-------1--1--1--1-----1--|
---------------------|--2--2-----2-----2--------|-------2--2--2-----2-----|
--5------------------|--0--0-----0--------------|--3----------3-----------|
--5------------------|--------------------------|--3----------3-----------|
--3------------------|--------------------------|--1----------------------|


  Q    E  E  E  E     H        Q    E     Q    E  E  Q    E  E   
-------0--0-----0--|-------------------|------------------------|
-------1--1--1--1--|-------------------|------------------------|
--0-------0--0-----|-------------------|--7----------7----------|
--2----------2-----|--5----------------|--7----------7----------|
--3----------------|--5----------------|--5----5--5--5----5--5--|
-------------------|--3----------------|------------------------|


  Q    E  E  Q    E  E     Q    E  E  Q    E  E     H         E.  E.  E   
------------------------|------------------------|-----------------------|
------------------------|------------------------|-----------------------|
--7----------7----------|--7----------7----------|--7--------10---9---7--|
--7----------7----------|--7----------7----------|--7--------10---9---7--|
--5----5--5--5----5--5--|--5----5--5--5----5--5--|--5---------8---7---5--|
------------------------|------------------------|-----------------------|


  Q    E  E  Q    E  E     Q    E  E  Q    E  E     W                 
------------------------|------------------------|-------------------|
------------------------|------------------------|-------------------|
--5----------5----------|--5----------5----------|--3----------------|
--5----------5----------|--5----------5----------|--3----------------|
--3----3--3--3----3--3--|--3----3--3--3----3--3--|--1----------------|
------------------------|------------------------|-------------------|


  H         E.  E.  E       Q.     E  E  E  E  E     H        H         
-----------------------||-------------------------|--------------------|
-----------------------||-------------------------|--------------------|
--2--------10---9---5--||*--7------------2-----2--|--------------------|
--2--------10---9---5--||*--7------0--4-----4-----|--0-----------------|
--0---------8---7---3--||---5---------------------|--------------------|
-----------------------||-------------------------|--------------------|


  W                   W                   Q.     E  E  E  E  E   
-------------------|-------------------|------------------------|
-------------------|-------------------|------------------------|
--5----------------|-------------------|--7------------2-----2--|
--5----------------|--5----------------|--7------0--4-----4-----|
--3----------------|--5----------------|--5---------------------|
-------------------|--3----------------|------------------------|


  H        H           W                   W                   
--------------------|-------------------|--------------------||
--------------------|-------------------|--------------------||
--------------------|--5----------------|-------------------*||
--0-----------------|--5----------------|--5----------------*||
--------------------|--3----------------|--5-----------------||
--------------------|-------------------|--3-----------------||


   E  E   E  E  E   E  E  E     E  E  E   E  E  E  Q     
-----------------------------|--------------------------|
-----------------------------|--------------------------|
*--------14--------12--------|--9--------10--------7----|
*--0--0------0--0------0--0--|-----0--0------0--0-------|
-----------------------------|--------------------------|
-----------------------------|--------------------------|


  E  E   E  E  E   E  E  E     E  E  E   E  E  E  Q     5x
----------------------------|---------------------------||
----------------------------|---------------------------||
--------14--------12--------|--9--------10--------7----*||
--0--0------0--0------0--0--|-----0--0------0--0-------*||
----------------------------|---------------------------||
----------------------------|---------------------------||


   Q    Q    Q    Q       Q    Q    Q    Q       Q    Q    Q    Q     
-----------------------|----------------------|----------------------|
-----------------------|----------------------|----------------------|
*--7----7----7----7----|--3----3----3----3----|----------------------|
*--7----7----7----7----|--3----3----3----3----|--3----3----3----3----|
---5----5----5----5----|--1----1----1----1----|--3----3----3----3----|
-----------------------|----------------------|--1----1----1----1----|


  Q    Q    Q    Q         Q    E  E    
-----------------------||-------------||
-----------------------||-------------||
--5----5----5----5----*||-------7--7--||
--5----5----5----5----*||-------7--7--||
--3----3----3----3-----||-------5--5--||
-----------------------||-------------||




Duration Legend
---------------
W - whole
H - half
Q - quarter
E - 8th
S - 16th
T - 32nd
X - 64th
. - note dotted
|-n-|  - n-tuplets


Tablature Legend
----------------
L - tied note
x - dead note
g - grace note
(n) - ghost note
> - accentuded note
NH - natural harmonic
AH - artificial harmonic
TH - tapped harmonic
SH - semi harmonic
PH - pitch harmonic
h - hammer on
p - pull off
b - bend
br - bendRelease
pb - preBend
pbr - preBendRelease
brb - bendReleaseBend
\n/ - tremolo bar dip
\n - tremolo bar dive
-/n - tremolo bar Release up
/n\ - tremolo bar inverted dip
/n - tremolo bar return
-\n - tremolo bar Release down
S - shift slide
s - legato slide
/ -  slide into from below or out of upwards
\ -  slide into from above or out of downwards
~ - vibrato
W - wide vibrato
tr - trill
TP - tremolo picking
T - tapping
S - slap
P - pop
< - fade in
^ - brush up
v - brush down
comments
We did not receive enough feedback on this tab! Please rate:
print report bad tab
1 2 3 4 5
I want to post or [tab]
guest
You may want to rate the tab now too:
select rating
Please do not post tabs as comments. Select "correction" instead!