Oops, an error
Loading. Please wait.

Bastard - Hand I Hand Tab

68 views 1 this week
no commentswrite comment
1 2 3 4 5
please rate
add to favorites launch autoscroll
font size
0
reset
Autoscroll
+/-
esc
set tempo
stop
Contributor
Difficulty
novice
WARNING: You are trying to view
                                    content from Ultimate-Guitar.com
                                    in an unauthorized application,
                                    which is prohibited.

                                    Please use an official Ultimate
                                    Guitar Tabs application for iPhone,
                                    iPad or Android to access legitimate
                                    chords, guitar, bass, and drum tabs
                                    from Ultimate-Guitar.com database.

                                    Type "ultimate guitar tabs" in Apple
                                    App Store's or Android Market's
                                    search to find the application.
                                 Hånd i Hånd                                   


                                                                         Bastard




                                      E   E   E   E   E   E   E   E   
E||-------|-------|-------|-------|------------------------------15--|
B||-------|-------|-------|-------|------15----------13--------------|
G||-------|-------|-------|-------|--12------12----------12----------|
D||-------|-------|-------|-------|--------------12----------12------|
A||-------|-------|-------|-------|----------------------------------|
E||-------|-------|-------|-------|----------------------------------|


   E   E   E   E   E   E   E   E      E   E   E   E   E   E   E   E   
----------------------------------|------------------------------15--|
--12--------------12----------12--|------15----------13--------------|
------12------12----------12------|--12------12----------12----------|
----------12----------14----------|--------------12----------12------|
----------------------------------|----------------------------------|
----------------------------------|----------------------------------|


   E   E   E   E   E   E   E   E      E   E   E   E   E   E   E   E   
----------------------------------|------------------------------15--|
--12--------------12----------12--|------15----------13--------------|
------12------12----------12------|--12------12----------12----------|
----------12----------14----------|--------------12----------12------|
----------------------------------|----------------------------------|
----------------------------------|----------------------------------|


   E   E   E   E   E   E   E   E      E   E   E   E   E   E   E   E   
----------------------------------|------------------------------15--|
--12--------------12----------12--|------15----------13--------------|
------12------12----------12------|--12------12----------12----------|
----------12----------14----------|--------------12----------12------|
----------------------------------|----------------------------------|
----------------------------------|----------------------------------|


   E   E   E   E   E   E   E   E     W                   W                 
----------------------------------|-------------------|-------------------|
--12--------------12----------12--|-------------------|-------------------|
------12------12----------12------|-------------------|-------------------|
----------12----------14----------|--2----------------|-------------------|
----------------------------------|--2----------------|-------------------|
----------------------------------|--0----------------|-------------------|


-------------------|-------------------|-------------------|-------------------|
-------------------|-------------------|-------------------|-------------------|
-------------------|-------------------|-------------------|-------------------|
-------------------|-------------------|-------------------|-------------------|
-------------------|-------------------|-------------------|-------------------|
-------------------|-------------------|-------------------|-------------------|


                                             PM PM PM PM          
                                          E  E  E  E  E  Q    E   
-------------------|-------------------|-------------------------|
-------------------|-------------------|-------------------------|
-------------------|-------------------|-------------------------|
-------------------|-------------------|--9--------------5----7--|
-------------------|-------------------|--7--7--7--7--7--3----5--|
-------------------|-------------------|-------------------------|


                         PM PM PM PM                              
  W                   E  E  E  E  E  Q    E     W                 
-------------------|-------------------------|-------------------|
-------------------|-------------------------|-------------------|
-------------------|-------------------------|-------------------|
--L----------------|--9--------------5----7--|--L----------------|
--L----------------|--7--7--7--7--7--3----5--|--L----------------|
-------------------|-------------------------|-------------------|


  PM PM PM PM PM                                                   
  E  E  E  E  E  E  E  E     W                   W                 
--------------------------|-------------------|-------------------|
--------------------------|-------------------|-------------------|
--------------------------|-------------------|-------------------|
--9--------------7--7--5--|--5----------------|-------------------|
--7--7--7--7--7--5--5--3--|--3----------------|--5----------------|
--------------------------|-------------------|--3----------------|


  H        H           W                   Q.     Q.     Q     
--------------------|-------------------|---------------------|
--------------------|-------------------|---------------------|
--------------------|-------------------|---------------------|
--5-----------------|--7----------------|--9------5------7----|
--3--------5--------|--5----------------|--7------3------5----|
-----------3--------|-------------------|---------------------|


  W                   H        H           W                 
-------------------|--------------------|-------------------|
-------------------|--------------------|-------------------|
-------------------|--------------------|-------------------|
-------------------|--5-----------------|--7----------------|
--5----------------|--3--------5--------|--5----------------|
--3----------------|-----------3--------|-------------------|


  Q.     Q.     Q       W                   W                 
---------------------|-------------------|-------------------|
---------------------|-------------------|-------------------|
---------------------|-------------------|-------------------|
--9------5------7----|-------------------|-------------------|
--7------3------5----|--2----------------|--5----------------|
---------------------|--0----------------|--3----------------|


  W                   W                   W                   W                 
-------------------|-------------------|-------------------|-------------------|
-------------------|-------------------|-------------------|-------------------|
-------------------|-------------------|-------------------|-------------------|
--7----------------|--5----------------|-------------------|-------------------|
--5----------------|--3----------------|--2----------------|--5----------------|
-------------------|-------------------|--0----------------|--3----------------|


                         PM PM PM PM                              
  W                   E  E  E  E  E  Q    E     W                 
-------------------|-------------------------|-------------------|
-------------------|-------------------------|-------------------|
-------------------|-------------------------|-------------------|
--7----------------|--9--------------5----7--|--L----------------|
--5----------------|--7--7--7--7--7--3----5--|--L----------------|
-------------------|-------------------------|-------------------|


     PM PM PM PM                                PM PM PM PM PM           
  E  E  E  E  E  Q    E     W                   E  E  E  E  E  E  E  E   
-------------------------|-------------------|--------------------------|
-------------------------|-------------------|--------------------------|
-------------------------|-------------------|--------------------------|
--9--------------5----7--|--L----------------|--9--------------7--7--5--|
--7--7--7--7--7--3----5--|--L----------------|--7--7--7--7--7--5--5--3--|
-------------------------|-------------------|--------------------------|


  W                   W                   H        H         
-------------------|-------------------|--------------------|
-------------------|-------------------|--------------------|
-------------------|-------------------|--------------------|
--5----------------|-------------------|--5-----------------|
--3----------------|--5----------------|--3--------5--------|
-------------------|--3----------------|-----------3--------|


  W                   Q.     Q.     Q       W                 
-------------------|---------------------|-------------------|
-------------------|---------------------|-------------------|
-------------------|---------------------|-------------------|
--7----------------|--9------5------7----|-------------------|
--5----------------|--7------3------5----|--5----------------|
-------------------|---------------------|--3----------------|


  H        H           W                   Q.     Q.     Q     
--------------------|-------------------|---------------------|
--------------------|-------------------|---------------------|
--------------------|-------------------|---------------------|
--5-----------------|--7----------------|--9------5------7----|
--3--------5--------|--5----------------|--7------3------5----|
-----------3--------|-------------------|---------------------|


  W                   H        H           W                 
-------------------|--------------------|-------------------|
-------------------|--------------------|-------------------|
-------------------|--------------------|-------------------|
-------------------|--5-----------------|--7----------------|
--5----------------|--3--------5--------|--5----------------|
--3----------------|-----------3--------|-------------------|


                                     PM PM          PM PM             
  Q.     Q.     Q       H.           E  E     E  E  E  E  E  E  Q     
---------------------|---------------------|-------------------------|
---------------------|---------------------|-------------------------|
---------------------|---------------------|-------------------------|
--9------5------7----|---------------------|--------------------7----|
--7------3------5----|--5------------------|--5--5--------5-----5----|
---------------------|--3------------3--3--|--3--2--2--2--2--0-------|


  W                   W                   H.           E  E   
-------------------|-------------------|---------------------|
-------------------|-------------------|---------------------|
-------------------|-------------------|--7------------------|
--2----------------|--5----------------|--7------------------|
--2----------------|--5----------------|--5------------7--9--|
--0----------------|--3----------------|---------------------|


   E.  E.   E  E.  E.   E     H            E   E   Q     E   E   Q     
---------------------------|-----------|------------------------------|
---------------------------|-----------|------------------------------|
---------------------------|-----------|------------------------------|
-------7-------------------|-----------|--12--12--12----11--11--11----|
--10-------10--9---7-------|-----------|--10--10--10----12--12--12----|
-----------------------10--|--7--------|------------------------------|


  E  E  H.              W                   E  E  H.            
---------------------|-------------------|---------------------|
---------------------|-------------------|---------------------|
--------5------------|--L----------------|--------7------------|
--5--5--5------------|--L----------------|--7--7--7------------|
--3--3--3------------|--L----------------|--5--5--5------------|
---------------------|-------------------|---------------------|


  W                   W                   W                   W                 
-------------------|-------------------|-------------------|-------------------|
-------------------|-------------------|-------------------|-------------------|
--L----------------|-------------------|-------------------|-------------------|
--L----------------|-------------------|-------------------|--7----------------|
--L----------------|--2----------------|--5----------------|--5----------------|
-------------------|--0----------------|--3----------------|-------------------|


  W                   W                   W                   W                 
-------------------|-------------------|-------------------|-------------------|
-------------------|-------------------|-------------------|-------------------|
-------------------|-------------------|-------------------|-------------------|
--5----------------|-------------------|-------------------|--7----------------|
--3----------------|--2----------------|--5----------------|--5----------------|
-------------------|--0----------------|--3----------------|-------------------|


     PM PM PM PM                                   PM PM PM PM          
  E  E  E  E  E  Q    E     W                   E  E  E  E  E  Q    E   
-------------------------|-------------------|-------------------------|
-------------------------|-------------------|-------------------------|
-------------------------|-------------------|-------------------------|
--9--------------5----7--|--L----------------|--9--------------5----7--|
--7--7--7--7--7--3----5--|--L----------------|--7--7--7--7--7--3----5--|
-------------------------|-------------------|-------------------------|


                      PM PM PM PM PM                               
  W                   E  E  E  E  E  E  E  E     W                 
-------------------|--------------------------|-------------------|
-------------------|--------------------------|-------------------|
-------------------|--------------------------|-------------------|
--L----------------|--9--------------7--7--5--|--5----------------|
--L----------------|--7--7--7--7--7--5--5--3--|--3----------------|
-------------------|--------------------------|-------------------|


   E   E   E   E   E   E   E   E      E   E   E   E   E   E   E   E   
------------------------------15--|----------------------------------|
------15----------13--------------|--12--------------12----------12--|
--12------12----------12----------|------12------12----------12------|
--------------12----------12------|----------12----------14----------|
----------------------------------|----------------------------------|
----------------------------------|----------------------------------|


   E   E   E   E   E   E   E   E      E   E   E   E   E   E   E   E   
------------------------------15--|----------------------------------|
------15----------13--------------|--12--------------12----------12--|
--12------12----------12----------|------12------12----------12------|
--------------12----------12------|----------12----------14----------|
----------------------------------|----------------------------------|
----------------------------------|----------------------------------|


   E   E   E   E   E   E   E   E      E   E   E   E   E   E   E   E   
------------------------------15--|----------------------------------|
------15----------13--------------|--12--------------12----------12--|
--12------12----------12----------|------12------12----------12------|
--------------12----------12------|----------12----------14----------|
----------------------------------|----------------------------------|
----------------------------------|----------------------------------|


   E   E   E   E   E   E   E   E      E   E   E   E   E   E   E   E   
------------------------------15--|----------------------------------|
------15----------13--------------|--12--------------12----------12--|
--12------12----------12----------|------12------12----------12------|
--------------12----------12------|----------12----------14----------|
----------------------------------|----------------------------------|
----------------------------------|----------------------------------|


   E   E   E   E   E   E   E   E      E   E   E   E   E   E   E   E   
------------------------------17--|----------------------------------|
------17----------15--------------|--14--------------14----------14--|
--14------14----------14----------|------14------14----------14------|
--------------14----------14------|----------14----------16----------|
----------------------------------|----------------------------------|
----------------------------------|----------------------------------|


   E   E   E   E   E   E   E   E      E   E   E   E   E   E   E   E   
------------------------------17--|----------------------------------|
------17----------15--------------|--14--------------14----------14--|
--14------14----------14----------|------14------14----------14------|
--------------14----------14------|----------14----------16----------|
----------------------------------|----------------------------------|
----------------------------------|----------------------------------|


   E   E   E   E   E   E   E   E      E   E   E   E   E   E   E   E   
------------------------------17--|----------------------------------|
------17----------15--------------|--14--------------14----------14--|
--14------14----------14----------|------14------14----------14------|
--------------14----------14------|----------14----------16----------|
----------------------------------|----------------------------------|
----------------------------------|----------------------------------|


   E   E   E   E   E   E   E   E      E   E   E   E   E   E   E   E   
------------------------------17--|----------------------------------|
------17----------15--------------|--14--------------14----------14--|
--14------14----------14----------|------14------14----------14------|
--------------14----------14------|----------14----------16----------|
----------------------------------|----------------------------------|
----------------------------------|----------------------------------|


   E   E   E   E   E   E   E   E      E   E   E   E   E   E   E   E   
------------------------------17--|----------------------------------|
------17----------15--------------|--14--------------14----------14--|
--14------14----------14----------|------14------14----------14------|
--------------14----------14------|----------14----------16----------|
----------------------------------|----------------------------------|
----------------------------------|----------------------------------|


   E   E   E   E   E   E   E   E      E   E   E   E   E   E   E   E   
------------------------------17--|----------------------------------|
------17----------15--------------|--14--------------14----------14--|
--14------14----------14----------|------14------14----------14------|
--------------14----------14------|----------14----------16----------|
----------------------------------|----------------------------------|
----------------------------------|----------------------------------|


   E   E   E   E   E   E   E   E      E   E   E   E   E   E   E   E   
------------------------------17--|----------------------------------|
------17----------15--------------|--14--------------14----------14--|
--14------14----------14----------|------14------14----------14------|
--------------14----------14------|----------14----------16----------|
----------------------------------|----------------------------------|
----------------------------------|----------------------------------|


   E   E   E   E   E   E   E   E      E   E   E   E   E   E   E   E   
------------------------------17--|----------------------------------|
------17----------15--------------|--14--------------14----------14--|
--14------14----------14----------|------14------14----------14------|
--------------14----------14------|----------14----------16----------|
----------------------------------|----------------------------------|
----------------------------------|----------------------------------|


   E   E   E   E   E   E   E   E      E   E   E   E   E   E   E   E   
------------------------------17--|----------------------------------|
------17----------15--------------|--14--------------14----------14--|
--14------14----------14----------|------14------14----------14------|
--------------14----------14------|----------14----------16----------|
----------------------------------|----------------------------------|
----------------------------------|----------------------------------|


   E   E   E   E   E   E   E   E      E   E   E   E  H                
------------------------------17--|---------------------------|-----||
------17----------15--------------|--14-----------------------|-----||
--14------14----------14----------|------14------14-----------|-----||
--------------14----------14------|----------14---------------|-----||
----------------------------------|---------------------------|-----||
----------------------------------|---------------------------|-----||




Duration Legend
---------------
W - whole
H - half
Q - quarter
E - 8th
S - 16th
T - 32nd
X - 64th
. - note dotted
|-n-|  - n-tuplets


Tablature Legend
----------------
L - tied note
x - dead note
g - grace note
(n) - ghost note
> - accentuded note
NH - natural harmonic
AH - artificial harmonic
TH - tapped harmonic
SH - semi harmonic
PH - pitch harmonic
h - hammer on
p - pull off
b - bend
br - bendRelease
pb - preBend
pbr - preBendRelease
brb - bendReleaseBend
\n/ - tremolo bar dip
\n - tremolo bar dive
-/n - tremolo bar Release up
/n\ - tremolo bar inverted dip
/n - tremolo bar return
-\n - tremolo bar Release down
S - shift slide
s - legato slide
/ -  slide into from below or out of upwards
\ -  slide into from above or out of downwards
~ - vibrato
W - wide vibrato
tr - trill
TP - tremolo picking
T - tapping
S - slap
P - pop
< - fade in
^ - brush up
v - brush down
comments
We did not receive enough feedback on this tab! Please rate:
1 2 3 4 5
I want to post or [tab]
guest
You may want to rate the tab now too:
select rating
Please do not post tabs as comments. Select "correction" instead!