Oops, an error
Loading. Please wait.

Birth Of A Tyrant - Confessions Bass Tab

24 views 1 this week
no commentswrite comment
1 2 3 4 5
please rate
Autoscroll
+/-
esc
set tempo
stop
Contributor
Difficulty
Tuning
intermediate
D A D G B E
Hey! There's an official Ultimate Guitar app which is ideal
for learning songs when you're away from computer. Get the app
WARNING: You are trying to view
                                    content from Ultimate-Guitar.com
                                    in an unauthorized application,
                                    which is prohibited.

                                    Please use an official Ultimate
                                    Guitar Tabs application for iPhone,
                                    iPad or Android to access legitimate
                                    chords, guitar, bass, and drum tabs
                                    from Ultimate-Guitar.com database.

                                    Type "ultimate guitar tabs" in Apple
                                    App Store's or Android Market's
                                    search to find the application.
Birth Of A Tyrant - Title

G|-----------------------------------------------------------------------------|
D|-----------------------------------------------------------------------------|
A|-----------------------------------------------------------------------------|
D|-000--00--00000------000--00--00000------000--00--00000------000--00--00000--|
   ...  ..  .....      ...  ..  .....      ...  ..  .....      ...  ..  .....

G|-----------------------------------------------------------------------------|
D|-----------------------------------------------------------------------------|
A|-----------------------------------------------------------------------------|
D|-000--00--00000------000--00--00000------000--00--00000------000--00--00000--|
   ...  ..  .....      ...  ..  .....      ...  ..  .....      ...  ..  .....
LET NOTES RING WHILE STILL MUTED		FULLY MUTE

G|---------------------------------------------------------------|
D|---------------------------------------------------------------|
A|----8--8--8------8--8--8-----------8--8--8------8--8--8--------|
D|-0------------0------------000-0-------------0------------000--|
                             ...                            ...

G|--------------------------------------------------------------------|
D|--------------------------------------------------------------------|
A|----8--8--8------8--8--8--------------------------------------------|
D|-0------------0------------000---8-8-8-8-8-8-8-8---4-4-4-4-4-4-4-4--|
                             ...

G|---------------------------------------------------------------|
D|---------------------------------------------------------------|
A|----8--8--8------8--8--8-----------8--8--8------8--8--8--------|
D|-0------------0------------000-0-------------0------------000--|
                             ...                            ...

G|---------------------------------------------------------------|
D|---------------------------------------------------------------|
A|----8--8--8------8--8--8-----------8--8--8------8--8--8--------|
D|-0------------0------------000-0-------------0------------000--|
                             ...                            ...

G|--------------------------------------------------------------------|
D|--------------------------------------------------------------------|
A|--------------------------------------------------------------------|
D|-7-7-7-7-7-7-7-7-7-7-7-7-7-7-7-7---3-3-3-3-3-3-3-3-3-3-3-3-3-3-3-3--|


G|--------------------------------------------------------------------|
D|--------------------------------------------------------------------|
A|--------------------------------------------------------------------|
D|-5-5-5-5-5-5-5-5-5-5-5-5-5-5-5-5---5-5-5-5-5-5-5-5-5-5-5-5-5-5-5-5--|


G|--------------------------------------------------------------------|
D|--------------------------------------------------------------------|
A|--------------------------------------------------------------------|
D|-7-7-7-7-7-7-7-7-7-7-7-7-7-7-7-7---3-3-3-3-3-3-3-3-3-3-3-3-3-3-3-3--|


G|--------------------------------------------------------------------|
D|--------------------------------------------------------------------|
A|--------------------------------------------------------------------|
D|-5-5-5-5-5-5-5-5-5-5-5-5-5-5-5-5---5-5-5-5-5-5-5-5-5-5-5-5-5-5-5-5--|


G|---------------------------------------------------------------|
D|---------------------------------------------------------------|
A|----8--8--8------8--8--8-----------8--8--8------8--8--8--------|
D|-0------------0------------000-0-------------0------------000--|
                             ...                            ...



G|--------------------------------------------------------------------|
D|--------------------------------------------------------------------|
A|----8--8--8------8--8--8--------------------------------------------|
D|-0------------0------------000---8-8-8-8-8-8-8-8---4-4-4-4-4-4-4-4--|
                             ...

G|---------------------------------------------------------------|
D|---------------------------------------------------------------|
A|----8--8--8------8--8--8-----------8--8--8------8--8--8--------|
D|-0------------0------------000-0-------------0------------000--|
                             ...                            ...

G|--------------------------------------------------------------------|
D|--------------------------------------------------------------------|
A|----8--8--8------8--8--8--------------------------------------------|
D|-0------------0------------000---8-8-8-8-8-8-8-8---4-4-4-4-4-4-4-4--|
                             ...

G|---------------------------------------------------------------|
D|---------------------------------------------------------------|
A|----8--8--8------8--8--8-----------8--8--8------8--8--8--------|
D|-0------------0------------000-0-------------0------------000--|
                             ...                            ...

G|---------------------------------------------------------------------|
D|---------------------------------------------------------------------|
A|---------------------------------------------------------------------|
D|-0-0-0-0-0-0-0-0-0-0-0-0-0-0-0-0---4-4-4-4-4-4-4-4-1-1-1-1-1-1-1-1---|
   . . . . . . . . . . . . . . . .   . . . . . . . . . . . . . . . .

G|--------------------------------------------------------------------|
D|--------------------------------------------------------------------|
A|--------------------------------------------------------------------|
D|-0-0-0-0-0-0-0-0-0-0-0-0-0-0-0-0---0-0-0-0-0-0-0-0-0-0-0-0-0-0-0-0--|
   . . . . . . . . . . . . . . . .   . . . . . . . . . . . . . . . .

G|--------------------------------------------------------------------|
D|--------------------------------------------------------------------|
A|--------------------------------------------------------------------|
D|-0-0-0-0-0-0-0-0-0-0-0-0-0-0-0-0---4-4-4-4-4-4-4-4-1-1-1-1-1-1-1-1--|
   . . . . . . . . . . . . . . . .   . . . . . . . . . . . . . . . .

G|----
D|----
A|----
D|-0--
A|-0--
D|-0--


G|----------------5--10--5-----------------------------5--10--5--------------|
D|-------------6------------6-----------------------6------------6-----------|
A|----------7------------------7-----------------7------------------7--------|
D|---------------------------------------------------------------------------|


G|----------------5--10--5-----------------------------5--10--5--------------|
D|-------------6------------6-----------------------6------------6-----------|
A|----------7------------------7-----------------7------------------7--------|
D|---------------------------------------------------------------------------|


G|----------------5--10--5-----------------------------5--10--5--------------|
D|-------------6------------6-----------------------6------------6-----------|
A|----------7------------------7-----------------7------------------7--------|
D|---------------------------------------------------------------------------|





G|----------------5--10--5-----------------------------5--10--5--------------|
D|-------------6------------6-----------------------6------------6-----------|
A|----------7------------------7-----------------7------------------7--------|
D|---------------------------------------------------------------------------|


G|---------------------------------------------------------------|
D|---------------------------------------------------------------|
A|----8--8--8------8--8--8-----------8--8--8------8--8--8--------|
D|-0------------0------------000-0-------------0------------000--|
                             ...                            ...

G|--------------------------------------------------------------------|
D|--------------------------------------------------------------------|
A|----8--8--8------8--8--8--------------------------------------------|
D|-0------------0------------000---8-8-8-8-8-8-8-8---4-4-4-4-4-4-4-4--|
                             ...

G|---------------------------------------------------------------|
D|---------------------------------------------------------------|
A|----8--8--8------8--8--8-----------8--8--8------8--8--8--------|
D|-0------------0------------000-0-------------0------------000--|
                             ...                            ...

G|---------------------------------------------------------------|
D|---------------------------------------------------------------|
A|----8--8--8------8--8--8-----------8--8--8------8--8--8--------|
D|-0------------0------------000-0-------------0------------000--|
                             ...                            ...

G|--------------------------------------------------------------------|
D|--------------------------------------------------------------------|
A|--------------------------------------------------------------------|
D|-7-7-7-7-7-7-7-7-7-7-7-7-7-7-7-7---3-3-3-3-3-3-3-3-3-3-3-3-3-3-3-3--|


G|--------------------------------------------------------------------|
D|--------------------------------------------------------------------|
A|--------------------------------------------------------------------|
D|-5-5-5-5-5-5-5-5-5-5-5-5-5-5-5-5---5-5-5-5-5-5-5-5-5-5-5-5-5-5-5-5--|


G|--------------------------------------------------------------------|
D|--------------------------------------------------------------------|
A|--------------------------------------------------------------------|
D|-7-7-7-7-7-7-7-7-7-7-7-7-7-7-7-7---3-3-3-3-3-3-3-3-3-3-3-3-3-3-3-3--|


G|--------------------------------------------------------------------|
D|--------------------------------------------------------------------|
A|--------------------------------------------------------------------|
D|-5-5-5-5-5-5-5-5-5-5-5-5-5-5-5-5---5-5-5-5-5-5-5-5-5-5-5-5-5-5-5-5--|


G|---------------------------------------------------------------|
D|---------------------------------------------------------------|
A|----8--8--8------8--8--8-----------8--8--8------8--8--8--------|
D|-0------------0------------000-0-------------0------------000--|
                             ...                            ...

G|--------------------------------------------------------------------|
D|--------------------------------------------------------------------|
A|----8--8--8------8--8--8--------------------------------------------|
D|-0------------0------------000---8-8-8-8-8-8-8-8---4-4-4-4-4-4-4-4--|
                             ...

G|---------------------------------------------------------------|
D|---------------------------------------------------------------|
A|----8--8--8------8--8--8-----------8--8--8------8--8--8--------|
D|-0------------0------------000-0-------------0------------000--|
                             ...                            ...

G|--------------------------------------------------------------------|
D|--------------------------------------------------------------------|
A|----8--8--8------8--8--8--------------------------------------------|
D|-0------------0------------000---8-8-8-8-8-8-8-8---4-4-4-4-4-4-4-4--|
                             ...

G|---------------------------------------------------------------|
D|---------------------------------------------------------------|
A|---------------------------------------------------------------|
D|-1-1-1---1-1-1---11-11-1---1------1-1-1---1-1-1---11-11-1---1--|
   . . .   . . .   .. .. .   .      . . .   . . .   .. .. .   .

G|---------------------------------------------------------------|
D|---------------------------------------------------------------|
A|---------------------------------------------------------------|
D|-1-1-1---1-1-1---11-11-1---1------1-1-1---1-1-1---11-11-1---1--|
   . . .   . . .   .. .. .   .      . . .   . . .   .. .. .   .

G|---------------------------------------------------------------|
D|---------------------------------------------------------------|
A|---------------------------------------------------------------|
D|-0-0-0---0-0-0---00-00-0---0------0-0-0---0-0-0---00-00-0---0--|
   . . .   . . .   .. .. .   .      . . .   . . .   .. .. .   .

G|---------------------------------------------------------------|
D|---------------------------------------------------------------|
A|---------------------------------------------------------------|
D|-0-0-0---0-0-0---00-00-0---0------0-0-0---0-0-0---00-00-0---0--|
   . . .   . . .   .. .. .   .      . . .   . . .   .. .. .   .

G|----|
D|----|
A|----|
D|-0--|
comments
We did not receive enough feedback on this tab! Please rate:
print report bad tab
1 2 3 4 5
I want to post or [tab]
guest
You may want to rate the tab now too:
select rating
Please do not post tabs as comments. Select "correction" instead!