Oops, an error
Loading. Please wait.

Blood Tsunami - Devoured By Flames Tab

771 views 1 this week
1 commentread comment
1 2 3 4 5
excellent!
x 1
Autoscroll
+/-
esc
set tempo
stop
Contributor
Hey! There's an official Ultimate Guitar app which is ideal
for learning songs when you're away from computer. Get the app
WARNING: You are trying to view
                                    content from Ultimate-Guitar.com
                                    in an unauthorized application,
                                    which is prohibited.

                                    Please use an official Ultimate
                                    Guitar Tabs application for iPhone,
                                    iPad or Android to access legitimate
                                    chords, guitar, bass, and drum tabs
                                    from Ultimate-Guitar.com database.

                                    Type "ultimate guitar tabs" in Apple
                                    App Store's or Android Market's
                                    search to find the application.
Gtr I (D G C F A D) - 'Untitled'
Gtr II (D G C F A D) - 'Untitled'

    Q=165
   4/4
    Gtr I
    PM-------------------------------|
    E E E  E E E E E   E E E E E E E E 3x
||-------------------|-----------------||
||o------------------|----------------o||
||-------------------|-----------------||
||--2-2-2-10-9-------|-------7-8-7-----||
||o-2-2-2------------|-------------9-8o||
||--0-0-0------0-0-7-|-8-0-0-----------||


                  PM-------------------------------|
  E E H.          E E E  E E E E E   E E E E E E E E  4x
|-------------||-------------------|------------------||
|-------------||o------------------|-----------------o||
|-------------||-------------------|------------------||
|-2-2-2-------||--2-2-2-10-9-------|-------7-8-7------||
|-2-2-2-------||o-2-2-2------------|-------------9-8-o||
|-0-0-0-------||--0-0-0------0-0-7-|-8-0-0------------||


    Q  Q  Q  Q    E E E E E E E E  3x Q  Q  Q  Q   E H.      E
||--------------|------------------||------------|-------------|
||o-------------|-----------------o||------------|-------------|
||--------------|------------------||------------|-------------|
||--------------|------------------||------------|-------------|
||o-2--2--2--2--|-----------------o||-0--0--0--0-|-0-----------|
||--0--0--0--0--|-0-2-3-2-3-4-5-6--||-0--0--0--0-|-0-----------|


    PM---------------------------------|
    E E E  E  E E E E   E E E E  E E E E  8x
||--------------------|-------------------||
||o-------------------|------------------o||
||--------------------|-------------------||
||--2-2-2-10--9-------|-------7--8-7------||
||o-2-2-2-------------|--------------9-8-o||
||--0-0-0-------0-0-7-|-8-0-0-------------||
|
|   Gtr II
|   PM--|     PM---------------------|
|   E E E  E  E E E E   E E E E  E E E E  8x
||--------------------|-------------------||
||o-------------------|------------------o||
||--------12-11-------|-------9-10-9------||
||--2-2-2-------------|--------------9-8--||
||o-2-2-2-------------|------------------o||
||--0-0-0-------0-0-7-|-8-0-0-------------||


    E E E E E E E E   E E E E E E E E  4x
||------------------|------------------||-|
||o-----------------|-----------------o||-|
||------------------|------------------||-|
||------5-4---------|-----5-4----------||-|
||o-----5-4-----5-4-|-----5-4-------3-o||-|
||--2-2-3-2-2-2-----|-2-2-3-2-2-2-5----||-|


    E E S S  S S E  E E S S   E E S S  S S E  E E E
||--------------------------|----------------------|
||o-------------------------|----------------------|
||--------------------------|----------------------|
||-------------7-9----------|------------7-9----7--|
||o-----7-9-10-----10-------|-----7-9-10-----10---9|
||--0-0---------------0-0-0-|-0-0------------------|


  E E S S  S S E  E E  E    Q  S  S  E E  E Q
|------------------------|----------------------||--|
|------------------------|---------------------o||--|
|-------------------9----|----------------------||--|
|------------7-9------10-|-10-12-14-12-9-10-7---||--|
|-----7-9-10-----10------|---------------------o||--|
|-0-0--------------------|----------------------||--|


    PM---------------------------------|
    E E E  E  E E E E   E E E E  E E E E  4x
||--------------------|-------------------||
||o-------------------|------------------o||
||--------------------|-------------------||
||--2-2-2-10--9-------|-------7--8-7------||
||o-2-2-2-------------|--------------9-8-o||
||--0-0-0-------0-0-7-|-8-0-0-------------||
|
|   PM--|     PM---------------------|
|   E E E  E  E E E E   E E E E  E E E E  4x
||--------------------|-------------------||
||o-------------------|------------------o||
||--------12-11-------|-------9-10-9------||
||--2-2-2-------------|--------------9-8--||
||o-2-2-2-------------|------------------o||
||--0-0-0-------0-0-7-|-8-0-0-------------||


    E E E E E E E E   E E E E E E E E 4x
||------------------|-----------------||
||o-----------------|----------------o||
||------------------|-----------------||
||------5-4---------|-----5-4---------||
||o-----5-4-----5-4-|-----5-4-------3o||
||--2-2-3-2-2-2-----|-2-2-----2-2-5---||


    E E S S  S S E  E E S S   E E S S  S S E  E E E
||--------------------------|----------------------|
||o-------------------------|----------------------|
||--------------------------|----------------------|
||-------------7-9----------|------------7-9----7--|
||o-----7-9-10-----10-------|-----7-9-10-----10---9|
||--0-0---------------0-0-0-|-0-0------------------|


  E E S S  S S E  E E  E    E  E  S  S  E E  E Q   4x
|------------------------|-------------------------||-|
|------------------------|------------------------o||-|
|-------------------9----|-------------------------||-|
|------------7-9------10-|-10-10-12-14-12-9-10-7---||-|
|-----7-9-10-----10------|------------------------o||-|
|-0-0--------------------|-------------------------||-|


    H.      E  E   H.      E E   H.      E  E    H      H     3x
||---------------|-------------|--------------|---------------||-|
||o--------------|-------------|--------------|--------------o||-|
||---------------|-------------|--------------|---------------||-|
||--9------------|-3-----------|-5------------|--6------3-----||-|
||o-7------------|-1-----------|-3------------|--6------3----o||-|
||--0-------0--0-|-1-------0-0-|-3-------0--0-|--4------1-----||-|
|
|   H.      E  E   W             H.      E  E    H    H       3x
||---------------|-------------|--------------|---------------||-|
||o--------------|-------------|--------------|--------------o||-|
||--9-------7/-9-|-7-----------|-9-------7/-9-|-10---12-------||-|
||---------------|-------------|--------------|---------------||-|
||o-7-------5/-7-|-5-----------|-7-------5/-7-|--8---10------o||-|
||---------------|-------------|--------------|---------------||-|


  H.      E  E   H.      E E   H.      E  E
|--------------|-------------|--------------|
|--------------|-------------|--------------|
|--------------|-------------|--------------|
|-9------------|-3-----------|-5------------|
|-7------------|-1-----------|-3------------|
|-0-------0--0-|-1-------0-0-|-3-------0--0-|
|
| H.      E  E   W             H.      E  E
|--------------|-------------|--------------|
|--------------|-------------|--------------|
|-9-------7/-9-|-7-----------|-9-------7/-9-|
|--------------|-------------|--------------|
|-7-------5/-7-|-5-----------|-7-------5/-7-|
|--------------|-------------|--------------|


 6/4
  Q  Q  Q  Q  Q  Q    Q  Q  Q  Q  Q  Q
|-------------------|--------------------|
|-------------------|--------------------|
|-------------------|--------------------|
|-------------------|--------------------|
|-6--6--6--3--3--3--|-9--9--9--5--5--5---|
|-4--4--4--1--1--1--|-7--7--7--3--3--3---|
|
|-------------------|--------------------|
|-------------------|--------------------|
|-------------------|--------------------|
|-------------------|--------------------|
|-------------------|--------------------|
|-------------------|--------------------|


 4/4
  W          +W           +W           +W
|----------|------------|------------|--------|
|----------|------------|------------|--------|
|----------|------------|------------|--------|
|-9--------|-(9)--------|-(9)--------|-(9)----|
|-7--------|-(7)--------|-(7)--------|-(7)----|
|-0--------|-(0)--------|-(0)--------|-(0)----|


    E E E E E E E E   E E E E E E E E   E E E E E E E E   E E E E E E E E
||------------------|-----------------|-----------------|------------------||-|
||o-----------------|-----------------|-----------------|-----------------o||-|
||------------------|-----------------|-----------------|-5-4---4----------||-|
||------------------|-------------3-2-|-----------------|-----5---5-4------||-|
||o-------------3-2-|-----------------|-------------3-2-|-------------5-7-o||-|
||--0-3-2-0-1-0-----|-0-3-2-0-1-0-----|-0-3-2-0-1-0-----|------------------||-|


    E S S E E E E E E   E S S E E E E E E
||--------------------|-------------------|
||o-------------------|-------------------|
||--------------------|-------------------|
||--------------------|---------------3-2-|
||o---------------3-2-|-------------------|
||--0-3-3-2-0-1-0-----|-0-3-3-2-0-1-0-----|


  E S S E E E E E E   E E E E E E E E
|-------------------|------------------||
|-------------------|-----------------o||
|-------------------|-5-4---4----------||
|-------------------|-----5---5-4------||
|---------------3-2-|-------------5-7-o||
|-0-3-3-2-0-1-0-----|------------------||


   Q.        H               Q       H.
|-14--------14------------|-------------------------|
|-17b19r====17b19r========|=17b19r==17b20r==========|
|-------------------------|-------------------------|
|-------------------------|-------------------------|
|-------------------------|-------------------------|
|-------------------------|-------------------------|
|
|  E    E E  E    E E E E    E    E  E    E E E E E
|-------------------------|-------------------------|
|-------------------------|-------------------------|
|-------------------------|-------------------------|
|---------5--4------------|----------5----4---------|
|---------5--4--------5-4-|----------5----4-------3-|
|--2----2-3--2----2-2-3-2-|--2----2---------2-2-5---|


   W                     W
|---------------------|---------------------|
|-17b20r==============|=17b20r==============|
|---------------------|---------------------|
|---------------------|---------------------|
|---------------------|---------------------|
|---------------------|---------------------|
|
|  E    E E E E E E E    E    E E E E E E E
|---------------------|---------------------|
|---------------------|---------------------|
|---------------------|---------------------|
|---------5-4---------|---------5-4---------|
|---------5-4-----5-4-|---------5-4-------3-|
|--2----2-3-2-2-2-3-2-|--2----2-----2-2-5---|


                         ~~
   W                     W                 S S S S S S S S  S  S  S  S  S  S  S  S
|---------------------|------------------|-----------------------------------------|
|---------------------|------------------|-----------------------------------------|
|-11b13r==============|=11---------------|-8-9-8-9-8-9-8-9-12-13-12-13-12-13-12-13-|
|---------------------|------------------|-----------------------------------------|
|---------------------|------------------|-----------------------------------------|
|---------------------|------------------|-----------------------------------------|
|
|  E    E E E E E E E    E E E E E E E E   E   E   E   E    E     E     E     E
|---------------------|------------------|-----------------------------------------|
|---------------------|------------------|-----------------------------------------|
|---------------------|------------------|-----------------------------------------|
|---------5-4---------|------5-4---------|---------5---4---------------------------|
|---------5-4-----5-4-|------5-4-------3-|---------5---4----------------5-----4----|
|--2----2-3-2-2-2-3-2-|--2-2-----2-2-5---|-2---2---3---2----2-----2-----3-----2----|


   S  S  S  S  S  S  S  S  S  S  S  S  S  S  S  S
|-------------------------12-13-12-13-12-13-12-13----|
|-12-13-12-13-12-13-12-13----------------------------|
|----------------------------------------------------|
|----------------------------------------------------|
|----------------------------------------------------|
|----------------------------------------------------|
|
|  E     E     E     E     E     E     E     E
|----------------------------------------------------|
|----------------------------------------------------|
|----------------------------------------------------|
|--------------5-----4-------------------------------|
|--------------5-----4-----------------------3-------|
|--2-----2-----------------2-----2-----5-------------|


   |-------------------3--------------------|    |-------------------3--------------------|
   E  E    E  E  E    E  E  E    E  E  E    E    E  E    E  E  E    E  E  E    E  E  E    E
|-19-17---17-20-17---17-19-17---17-22-17---17-|-19-17---17-20-17---17-19-17---17-22-17---17-|
|---------------------------------------------|---------------------------------------------|
|---------------------------------------------|---------------------------------------------|
|---------------------------------------------|---------------------------------------------|
|---------------------------------------------|---------------------------------------------|
|---------------------------------------------|---------------------------------------------|
|
|  E    E     E    E     E    E     E    E       E    E     E    E     E    E     E    E
|---------------------------------------------|---------------------------------------------|
|---------------------------------------------|---------------------------------------------|
|---------------------------------------------|---------------------------------------------|
|-------------8----7--------------------------|---------------------------------------------|
|-------------8----7----------------8----7----|-------------8----7---------------------6----|
|--5----5-----6----5-----5----5-----6----5----|--5----5----------------5----5-----8---------|


   |-------------------3--------------------|    |-------------------3--------------------|
   E  E    E  E  E    E  E  E    E  E  E    E    E  E    E  E  E    E  E  E    E  E  E    E
|-19-17---17-20-17---17-19-17---17-22-17---17-|-19-17---17-20-17---17-19-17---17-22-17---17----|
|---------------------------------------------|------------------------------------------------|
|---------------------------------------------|------------------------------------------------|
|---------------------------------------------|------------------------------------------------|
|---------------------------------------------|------------------------------------------------|
|---------------------------------------------|------------------------------------------------|
|
|  E    E     E    E     E    E     E    E       E    E     E    E     E    E     E    E
|---------------------------------------------|------------------------------------------------|
|---------------------------------------------|------------------------------------------------|
|---------------------------------------------|------------------------------------------------|
|-------------8----7--------------------------|------------------------------------------------|
|-------------8----7----------------8----7----|-------------8----7---------------------6-------|
|--5----5-----6----5-----5----5-----6----5----|--5----5----------------5----5-----8------------|


                                                  |--3---|
   Q.        H           +E        H.             E E    E
|-22b24-----22b24-------(22)b24-|-22b25r================19-|
|-------------------------------|--------------------------|
|-------------------------------|--------------------------|
|-------------------------------|--------------------------|
|-------------------------------|--------------------------|
|-------------------------------|--------------------------|
|
|  E    E E  E    E E E   E        E    E E E E E E   E
|-------------------------------|--------------------------|
|-------------------------------|--------------------------|
|-------------------------------|--------------------------|
|---------5--4------------------|---------5-4--------------|
|---------5--4--------5---4-----|---------5-4---------3----|
|--2----2-3--2----2-2-3---2-----|--2----2-----2-2-5--------|


   |---3---|  |---3---|  |---3---|  |---3---|    |---3---|  |---3---|
   E  E    E  E  E    E  E  E    E  E  E    E    E  E    E  E  E    E  Q
|-22-20---19-20-19------19--------------------|------------------------------------|
|--------------------22----22---20-22-20---19-|-20-19---17-19-17-------------------|
|---------------------------------------------|--------------------19-17b19--------|
|---------------------------------------------|------------------------------------|
|---------------------------------------------|------------------------------------|
|---------------------------------------------|------------------------------------|
|
|  E    E     E    E     E    E     E    E       E    E     E    E     E    E E E
|---------------------------------------------|------------------------------------|
|---------------------------------------------|------------------------------------|
|---------------------------------------------|------------------------------------|
|-------------5----4--------------------------|-------------5----4-----------------|
|-------------5----4----------------5----4----|-------------5----4--------------3--|
|--2----2-----3----2-----2----2-----3----2----|--2----2----------------2----2-5----|


    E E  E E E  E E E   E E  E E E  E E  E
||--------------------|--------------------|
||o-------------------|--------------------|
||--------------------|---------------9----|
||---------9------8---|--------9--------10-|
||o-7-9-10---9-10---9-|-7-9-10---9-10------|
||--------------------|--------------------|
|
|   W                   W
||--------------------|--------------------|
||o-------------------|--------------------|
||--------------------|-4------------------|
||--2-----------------|-4------------------|
||o-2-----------------|-2------------------|
||--0-----------------|--------------------|


  E E  E E E  E E E   E E  E E E E  Q
|-------------------|------------------||
|-------------------|-----------------o||
|-------------------|------------9-----||
|--------9------8---|--------9-----10--||
|-7-9-10---9-10---9-|-7-9-10---9------o||
|-------------------|------------------||
|
| W                   W
|-------------------|------------------||
|-------------------|-----------------o||
|-------------------|------------------||
|-5-----------------|-4----------------||
|-5-----------------|-4---------------o||
|-3-----------------|-2----------------||


    E E  E E E  E E E   E E  E E E  E  E  E
||--------------------|---------------------|
||o-------------------|---------------------|
||--------------------|----------------9----|
||---------9------8---|--------9---------10-|
||o-7-9-10---9-10---9-|-7-9-10---9-10-------|
||--------------------|---------------------|
|
|   E E  E E E  E E E   E E  E E E  E  E  E
||--------------------|---------------------|
||o-------------------|---------------10----|
||---------9------8---|--------9---------10-|
||--7-9-10---9-10---9-|-7-9-10---9-10-------|
||o-------------------|---------------------|
||--------------------|---------------------|


  E E  E E E  E E E   E E  E E E  E  Q
|-------------------|-------------------||
|-------------------|------------------o||
|-------------------|-------------9-----||
|--------9------8---|--------9------10--||
|-7-9-10---9-10---9-|-7-9-10---9-------o||
|-------------------|-------------------||
|
| E E  E E E  E E E   E E  E E E  E  Q
|-------------------|-------------------||
|-------------------|------------10----o||
|--------9------8---|--------9------10--||
|-7-9-10---9-10---9-|-7-9-10---9--------||
|-------------------|------------------o||
|-------------------|-------------------||


    E E S S  S S E  E E S S   E E S S  S S E  E E E
||--------------------------|----------------------|
||o-------------------------|----------------------|
||--------------------------|----------------------|
||-------------7-9----------|------------7-9----7--|
||o-----7-9-10-----10-------|-----7-9-10-----10---9|
||--0-0---------------0-0-0-|-0-0------------------|


  E E S S  S S E  E E  E    E  E  S  S  E E  E Q   4x
|------------------------|-------------------------||-|
|------------------------|------------------------o||-|
|-------------------9----|-------------------------||-|
|------------7-9------10-|-10-10-12-14-12-9-10-7---||-|
|-----7-9-10-----10------|------------------------o||-|
|-0-0--------------------|-------------------------||-|


  PM-----------------------------|
  E E E  E E E E E   E E E E E E E E   Q Q Q Q   E E E E E E E E
|------------------|-----------------|---------|------------------|
|------------------|-----------------|---------|------------------|
|------------------|-----------------|---------|------------------|
|-2-2-2-10-9-------|-------7-8-7-----|---------|------------------|
|-2-2-2------------|-------------9-8-|-2-2-2-2-|------------------|
|-0-0-0------0-0-7-|-8-0-0-----------|-0-0-0-0-|-0-2-3-2-3-4-5-6--|


  E E E E E E E E   E
|-----------------|------|
|-----------------|------|
|-----------------|------|
|-----------------|-2----|
|-----------------|-2----|
|-0-2-3-2-3-4-5-6-|-0----|



Duration Legend
---------------
W - whole; H - half; Q - quarter; E - 8th; S - 16th; T - 32nd; X - 64th; a - acciaccatura
+ - note tied to previous; . - note dotted; .. - note double dotted
Uncapitalized letters represent notes that are staccato (1/2 duration)
Irregular groupings are notated above the duration line
Duration letters will always appear directly above the note/fret number it represents the
duration for.  Duration letters with no fret number below them represent rests.  Multi-
bar rests are notated in the form Wxn, where n is the number of bars to rest for.  Low
melody durations appear below the staff

Tablature Legend
----------------
 h   - hammer-on
 p   - pull-off
 b   - bend
 pb  - pre-bend
 r   - bend release (if no number after the r, then release immediately)
 /\  - slide into or out of (from/to "nowhere")
 s   - legato slide
 S   - shift slide
 - natural harmonic
[n]  - artificial harmonic
n(n) - tapped harmonic
 ~   - vibrato
 tr  - trill
 T   - tap
 TP  - trem. picking
 PM  - palm muting
\n/  - tremolo bar dip; n = amount to dip
 \n  - tremolo bar down
 n/  - tremolo bar up
/n\  - tremolo bar inverted dip
 =   - hold bend; also acts as connecting device for hammers/pulls
 <> - volume swell (louder/softer)
 x   - on rhythm slash represents muted slash
 o   - on rhythm slash represents single note slash

Misc Legend
-----------
 |  - bar
||  - double bar
||o - repeat start
o|| - repeat end
*|  - double bar (ending)
 :  - bar (freetime)
 $  - Segno
 &  - Coda
Tempo markers -  = BPM(8/16=s8/s16), where s8 = swing 8ths, s16 = swing 16ths

comments
We did not receive enough feedback on this tab! Please rate:
print report bad tab
1 2 3 4 5
1 comment total.
0 reply
bassiscool44 wrote on February 21 2011, 12:49 pm

||-------------------|-----------------||
||o------------------|----------------o||
||--------5--4-------|-------2-3-2-----||
||--2-2-2------------|-------------4-3-||
||o-2-2-2----------2-|-3--------------o||
||--0-0-0------0-0---|---0-0-----------||

just an easier way to play the intro

I want to post or [tab]
guest
You may want to rate the tab now too:
select rating
Please do not post tabs as comments. Select "correction" instead!