Oops, an error
Loading. Please wait.

Blood Tsunami - Let Blood Rain Tab

527 views 1 this week
no commentswrite comment
1 2 3 4 5
excellent!
x 1
Autoscroll
+/-
esc
set tempo
stop
Contributor
Tuning
D G C F A D
NEW! There's an official Ultimate Guitar app which is ideal
for learning songs when you're away from computer. Get the app
WARNING: You are trying to view
                                    content from Ultimate-Guitar.com
                                    in an unauthorized application,
                                    which is prohibited.

                                    Please use an official Ultimate
                                    Guitar Tabs application for iPhone,
                                    iPad or Android to access legitimate
                                    chords, guitar, bass, and drum tabs
                                    from Ultimate-Guitar.com database.

                                    Type "ultimate guitar tabs" in Apple
                                    App Store's or Android Market's
                                    search to find the application.
-------------------------------------------------------------------------------
                             LET BLOOD RAIN - Blood Tsunami
-------------------------------------------------------------------------------
Tabbed by: beadhangingOne
Email: this_isnot_here@yahoo.com


Gtr I (D G C F A D) - 'Untitled'
Gtr II (D G C F A D) - 'Untitled'

    Q=185
   4/4
    Gtr I
    E E E E E E E E   E E E E E E E E
||------------------|------------------||-|
||o-----------------|-----------------o||-|
||------------------|------------------||-|
||------------4-5---|-------4-5--------||-|
||o-----6-7---------|-6-7---------6-7-o||-|
||--0-0-----0-----0-|-----0-----0------||-|
|
|   Gtr II
|   E E
||------------------|------------------||-|
||o-----------------|-----------------o||-|
||------------------|------------------||-|
||------------------|------------------||-|
||o-2-2-------------|-----------------o||-|
||--0-0-------------|------------------||-|


    E E E E E E E E   E E E E E  E E E
||------------------|-------------------||-|
||o-----------------|------------------o||-|
||------------------|-------------------||-|
||------------4-5---|-------4-5---------||-|
||o-----6-7---------|-6-7----------6-7-o||-|
||--0-0-----0-----0-|-----0------0------||-|
|
|   E E E E E E E E   E E E E E  E E E
||------------------|-------------------||-|
||o-----------------|------------------o||-|
||------------7-9---|-------7-9---------||-|
||------7-9---------|-7-9----------7-9--||-|
||o-2-2-------------|------------------o||-|
||--0-0-----0-----0-|-----0------0------||-|


                                                                       ~
    E E E E E E E E   E E E E E E  Q    E E E E  E E E E   E E E E E E Q
||------------------|-----------------|------------------|---------------|
||o-----------------|-----------------|------------------|---------------|
||------------------|-----------------|------------------|---------------|
||------9---2-4-5-0-|-0-0-7-0-9-0-10--|------------------|-3-----2-----1-|
||o-----7-----------|-----------------|---------10-9-0-5-|---0-5---3-3---|
||--0-0---0---------|-----------------|-0-0-8-0----------|---------------|


                                                         1.
  E E E E E E E E   E E E E E E  Q    E E E E  E E E E   E E E E E E E E
|-----------------|-----------------|------------------|-------------------||-|
|-----------------|-----------------|------------------|------------------o||-|
|-----------------|-----------------|------------------|-------------------||-|
|-----9---2-4-5-0-|-0-0-7-0-9-0-10--|------------------|-3---2-----1-0-----||-|
|-----7-----------|-----------------|---------10-9-0-5-|---0---3-2-----2--o||-|
|-0-0---0---------|-----------------|-0-0-8-0----------|-------------------||-|


  2.
              ~
  E E E E E E Q
|------------------|
|------------------|
|------------------|
|-3---2-----1------|
|---0---3-0---2----|
|------------------|


    E E E E E E E E   E E E E E E E E   E E E E E E E E   E E E E E E E E
||------------------|-----------------|-----------------|-----------------|
||o-----------------|-----------------|-----------------|-----------------|
||------------------|-----------------|-----------------|-----------------|
||------9-----9---9-|---------4-5-----|-----9-----9---9-|---------4-5-----|
||o-----7-----7---7-|-----6-7-----6-7-|-----7-----7---7-|-----6-7-----6-7-|
||--0-0---0-0---0---|-0-0-------------|-0-0---0-0---0---|-0-0-------------|


  E E E E E E E E   E E E E E E E E   E E E E E E E E   E E E E E E E E
|-----------------|-----------------|-----------------|------------------||--|
|-----------------|-----------------|-----------------|-----------------o||--|
|-----------------|-----------------|-----------------|-5-4-2-------2-4--||--|
|-----9-----9-----|-9-------4-5-----|-----9-----9-----|-------4-5-2------||--|
|-----7-----7-----|-7---6-7-----6-7-|-----7-----7-----|-----------------o||--|
|-0-0---0-0---0-0-|---0-------------|-0-0---0-0---0-0-|------------------||--|


  E E E E E E E E   E E E E E E Q    E E E E E E E E   E E E E E E Q
|-----------------|----------------|-----------------|----------------|
|-----------------|----------------|-----------------|----------------|
|-----------------|----------------|-----------------|----------------|
|-----------------|----------------|-----------------|----------------|
|-----8---7s8---7-|-----5s7-----3--|-----8---7s8---7-|-----5s7-----3--|
|-0-0-6-0-5s6-0-5-|-0-0-3s5-0-0-1--|-0-0-6-0-5s6-0-5-|-0-0-3s5-0-0-1--|


  E E E E E E E E   E E E E E E Q    E E E E E E E E   +W
|-----------------|----------------|-----------------|--------|
|-----------------|----------------|-----------------|--------|
|-----------------|----------------|-----------------|--------|
|-----------------|----------------|-----------------|--------|
|-----8---7s8---7-|-----5s7-----3--|-----8---7s8---7-|-(7)----|
|-0-0-6-0-5s6-0-5-|-0-0-3s5-0-0-1--|-0-0-6-0-5s6-0-5-|-(5)----|

PLAY FROM SECOND RIFF TO CHORUS AGAIN



  W          +W           +W           +W
|----------|------------|------------|--------|
|----------|------------|------------|--------|
|----------|------------|------------|--------|
|-2--------|-(2)--------|-(2)--------|-(2)----|
|-2--------|-(2)--------|-(2)--------|-(2)----|
|-0--------|-(0)--------|-(0)--------|-(0)----|


    E E E E H      E E E E E Q.     E E E E H   E E Q  E E Q
||---------------|----------------|-----------|-----------------||-|
||o--------------|----------------|-----------|----------------o||-|
||---------------|----------------|-----------|-----------------||-|
||----------2----|---------9s8----|---------2-|-----------------||-|
||o---------2----|---------9s8----|---------2-|-----4------5---o||-|
||--0-0-0-0-0----|-0-0-0-0--------|-0-0-0-0-0-|-0-0-2--0-0-3----||-|


    E E E E H      E E E E E Q.     E E E E H      E E Q   E E Q
||---------------|----------------|--------------|------------------||
||o--------------|----------------|--------------|-----------------o||
||---------------|----------------|--------------|------------------||
||----------2----|---------9s8----|---------2----|------------------||
||o---------2----|---------9s8----|---------2----|-----4-------5---o||
||--0-0-0-0-0----|-0-0-0-0-7-6----|-0-0-0-0-0----|-0-0-2---0-0-3----||


    E E E E E E E E   E E E E E E E E   E E E E E E E E   E E E E E E Q
||------------------|-----------------|-----------------|---------------|
||o-----------------|-----------------|-----------------|---------------|
||------------------|-----------------|-----------------|---------------|
||------------------|-----------------|-----------------|---------------|
||o-9s8---2---------|-9s8---2---------|-9s8---2---------|-9s8---2-----3-|
||--7s6-0-0-0-0-0-0-|-7s6-0-0-0-0-2-3-|-7s6-0-0-0-0-0-0-|-7s6-0-0-0-0-1-|


  E E E E E E E E   E E E E E E E E   E E E E E E E E   Q  Q  Q  Q
|-----------------|-----------------|-----------------|--------------||
|-----------------|-----------------|-----------------|-------------o||
|-----------------|-----------------|-----------------|--------------||
|-----------------|-----------------|-----------------|----5--4------||
|-9s8---2---------|-9s8---2---------|-9s8---2---------|-3--3--2--5--o||
|-7s6-0-0-0-0-0-0-|-7s6-0-0-0-0-2-3-|-7s6-0-0-0-0-0-0-|-1--------3---||


                         ~
  E E E E E E E E    E E Q E E E E   E E E E E E E E   E E E E E E E E
|------------------|---------------|-----------------|--------------------|
|------------------|---------------|-----------------|--------------------|
|------------------|---------------|-----------------|--------------------|
|-5-4---2-----1----|---------------|-5-4-0-2-----1---|--------------------|
|-----0---3-----2--|-0-2-3-------2-|---------3-----2-|-0-0-----0-2---1----|
|-----------0------|-------5-2-3---|-----------0-----|-----2-3-----3------|


                        ~
  E E E E E E E E   E E Q  E E E E   E E E E E E E E   E E E E E E E E
|-----------------|----------------|-----------------|-----------------|
|-----------------|----------------|-----------------|-----------------|
|-----------------|----------------|-----------------|-----------------|
|-5-4---2-----1---|----------------|-5-4-0-2-----1---|-----------------|
|-----0---3-----2-|-0-2-3--------2-|---------3-----2-|-0-0-----0-2---1-|
|-----------0-----|--------5-2-3---|-----------0-----|-----2-3-----3---|


  ~
  W          +W
|----------|--------|
|----------|--------|
|----------|--------|
|----------|--------|
|-2--------|-(2)----|
|----------|--------|


   E    E E E  E    E E E    E    E     E    E     E    E     E    E
|-------------------------|---------------------------------------------|
|-------------------------|---------------------------------------------|
|-------------------------|---------------------------------------------|
|---------9---------9---9-|------------------------4----5---------------|
|---------7---------7---7-|-------------6----7----------------6----7----|
|--0----0---0--0------0---|--0----0-------------------------------------|
|
|                            |--------3---------|  |--------3---------|
|  H           H             Q       E  E  E    E  Q       E  E  E    E
|-------------------------|---------12-17-15---12---------12-17-15---12-|
|-15b17-------15b17-------|-15b17-----------------15b17-----------------|
|-------------------------|---------------------------------------------|
|-------------------------|---------------------------------------------|
|-------------------------|---------------------------------------------|
|-------------------------|---------------------------------------------|


   E    E  E  E  E  E     E  E       E  E  E  E E E E E
|---------------------------------|----------------------|
|---------------------------------|----------------------|
|---------------------------------|----------------------|
|----------9--------9--------9----|-------------4-5------|
|----------7--------7--------7----|--------6--7-----6-7--|
|--0----0-----0--0--------0-------|--0--0----------------|
|
|  Q       S  S  E  E  S  S  E  E    E  E  E  H
|-15b17r==12-15-12----------------|----------------------|
|------------------15-12-15-12----|----------------------|
|------------------------------14-|-12-------------------|
|---------------------------------|----14-12-------------|
|---------------------------------|----------14----------|
|---------------------------------|----------------------|


  E E E  E E E E E   E  E E E  E  E E E
|------------------|--------------------|
|------------------|--------------------|
|------------------|--------------------|
|-----9------9-----|-----------4--5-----|
|-----7------7-----|------6-7-------6-7-|
|-0-0----0-0---0-0-|-0--0---------------|
|
|                              ~~~
| E E E  E E E E E   E  E E E  H
|------------------|--------------------|
|------------------|--------------------|
|------------------|--------------------|
|------------------|--------------------|
|---7-9s10-9-7-5-7-|-9-10-9-7-[9]-------|
|-9----------------|--------------------|


   E     E  E     E  E     E  E     E    E     E  E     E  E     E  E     E
|-------------------------------------|--------------------------------------|
|-------------------------------------|--------------------------------------|
|-------------------------------------|--5-----4--2-----------------2-----4--|
|-----------9--------------9----------|-----------------4--5-----2-----------|
|-----------7--------------7----------|--------------------------------------|
|--0-----0--------0--0--------0-----0-|--------------------------------------|
|
|  S  S  E  S  S  E  S  S  E  S  S  E    S  S  E  S  S  E  S  S  E  S  S  E
|-19-17-15-20-19-17-19-17-15-20-19-17-|-19-17-15-20-19-17-19-17-15-20-19-17--|
|-------------------------------------|--------------------------------------|
|-------------------------------------|--------------------------------------|
|-------------------------------------|--------------------------------------|
|-------------------------------------|--------------------------------------|
|-------------------------------------|--------------------------------------|


   W              H     H       E  E  E     E  E     E  E  E
|--------------|-------------|-------------------------------|
|--------------|-------------|-------------------------------|
|--------------|-------------|-------------------------------|
|--7-----------|--5-----7----|--------9--------------9-------|
|--5-----------|--3-----5----|--------7--------------7-------|
|--------------|-------------|--0--0--------0--0--------0--0-|
|
|  W              H     H       E  E  E     E  E     E  E  E
|--------------|-------------|-------------------------------|
|-17b20r=======|=17----15----|-17-12-------12-------12-12-12-|
|--------------|-------------|-------14b16----14b16----------|
|--------------|-------------|-------------------------------|
|--------------|-------------|-------------------------------|
|--------------|-------------|-------------------------------|


   E     E  E    E  E  E E  E
|------------------------------|
|------------------------------|
|------------------------------|
|-------------------4--5-------|
|-----------6----7-------6--7--|
|--0-----0---------------------|
|
|  E     E  Q       S  S    Q.
|------------------------------|
|-------12---------------------|
|-14b16r===14b16r==12-14---12--|
|------------------------------|
|------------------------------|
|------------------------------|


   W           H     H       E    E  E  E     E  E  E  E
|-----------|-------------|------------------------------|
|-----------|-------------|------------------------------|
|-----------|-------------|------------------------------|
|--7--------|--5-----7----|----------9-----------9-------|
|--5--------|--3-----5----|----------7-----------7-------|
|-----------|-------------|--0----0-----0-----0-----0--0-|
|
|  W           H     H       Q       E  E     E  E  E  E
|-----------|-------------|---------12-------12-12-12-12-|
|-10--------|-12----13----|-15b17------15b17-------------|
|-----------|-------------|------------------------------|
|-15--------|-17----19----|------------------------------|
|-----------|-------------|------------------------------|
|-----------|-------------|------------------------------|


   E     E  E     E  E  E E E
|-----------------------------|
|-----------------------------|
|-----------------------------|
|--------------------4--5-----|
|-----------6-----7-------6-7-|
|--0-----0--------------------|
|
|  E     E  E     E  H
|-------12-------12-12\-------|
|-15b17----15b17--------------|
|-----------------------------|
|-----------------------------|
|-----------------------------|
|-----------------------------|


  W                         H           H
|------------------------|-------------------------|
|------------------------|-------------------------|
|------------------------|-------------------------|
|-7----------------------|--5-----------7----------|
|-5----------------------|--3-----------5----------|
|------------------------|-------------------------|
|
| E  E  E  E  E  E  E  E    E  E  E  E  E  E  E  E
|------------------------|-------------------------|
|------------------------|-------------------------|
|-9s11-11-11s12-12-12-12s|=14-14-14-14s16-16-16-16-|
|------------------------|-------------------------|
|-7s=9--9--9s10-10-10-10s|=12-12-12-12s14-14-14-14-|
|------------------------|-------------------------|


   E  E  E        E  E  E        E  E    E  E  E  E  E  E E E
|-------------------------------------|-----------------------|
|-------------------------------------|-----------------------|
|-------------------------------------|-----------------------|
|--------9--------------9-------------|--------------4--5-----|
|--------7--------------7-------------|--------6--7-------6-7-|
|--0--0-----------0--0-----------0--0-|--0--0-----------------|
|
|        |--3--|        |--3--|
|  E  E  S  S  S  E  E  S  S  S  E  S    E  E  E  E  H
|-------------------------------------|-----------------------|
|-------------------------------------|-----------------------|
|-------------------------------------|-----------------------|
|-------------------------------------|-----------------------|
|-14-15-14-15-14-12-14-14-15-14-12-14-|-15-17-19-21s22\-------|
|-------------------------------------|-----------------------|


  W                             H              H
|-----------------------------|------------------------------------|
|-----------------------------|------------------------------------|
|-----------------------------|------------------------------------|
|-7---------------------------|-5--------------7-------------------|
|-5---------------------------|-3--------------5-------------------|
|-----------------------------|------------------------------------|
|
|                 |----6----|   |-----6-----|  |--3--|
| S S S S S S S S E E E E E E   E E E  E E  E  S  S  S  S  S  E  E
|-----------------------------|------------------------------------|
|-----------------------7---7-|-8-7-8-10-8-10-12-15-12----12-15-12-|
|-------------5-7-9-7-9---9---|------------------------15----------|
|-------5-7-9-----------------|------------------------------------|
|-5-7-9-----------------------|------------------------------------|
|-----------------------------|------------------------------------|


   E    E  E    E  E    E  E    E    E    E  E    E  E    E  Q
|---------------------------------|--------------------------------|
|---------------------------------|--------------------------------|
|---------------------------------|--------------------------------|
|---------------------------------|--------------------------------|
|----------8-------7s===8-------7-|----------5s===7----------3-----|
|--0----0--6----0--5s===6--0----5-|--0----0--3s===5--0----0--1-----|
|
|  Q       Q       Q       Q         Q       Q       Q       Q
|---------------------------------|--------------------------------|
|-15b17---15b17---15b17---15b17---|-15b17---15b17---15b17---15b17--|
|---------------------------------|--------------------------------|
|---------------------------------|--------------------------------|
|---------------------------------|--------------------------------|
|---------------------------------|--------------------------------|


   E  E  E  E  E  E  E  E    E    E E E E E Q
|-------------------------|--------------------|
|-------------------------|--------------------|
|-------------------------|--------------------|
|-------------------------|--------------------|
|--------8-----7s=8-----7-|---------5s7-----3--|
|--0--0--6--0--5s=6--0--5-|--0----0-3s5-0-0-1--|
|
|  E  E  E  E  E  E  E  E    W
|-15-12-15-12-15-12-15-12-|-17b20r=============|
|-------------------------|--------------------|
|-------------------------|--------------------|
|-------------------------|--------------------|
|-------------------------|--------------------|
|-------------------------|--------------------|


  E E E E E E E E   E E E E E E Q    E E E E E E E E   E E E E E E Q
|-----------------|----------------|-----------------|----------------|
|-----------------|----------------|-----------------|----------------|
|-----------------|----------------|-----------------|----------------|
|-----------------|----------------|-----------------|----------------|
|-----8---7s8---7-|-----5s7-----3--|-----8---7s8---7-|-----5s7-----3--|
|-0-0-6-0-5s6-0-5-|-0-0-3s5-0-0-1--|-0-0-6-0-5s6-0-5-|-0-0-3s5-0-0-1--|


  E E E E E E E E   E E E E E E Q    E E E E E E E E   E E E E E E Q
|-----------------|----------------|-----------------|----------------|
|-----------------|----------------|-----------------|----------------|
|-----------------|----------------|-----------------|----------------|
|-----------------|----------------|-----------------|----------------|
|-----8---7s8---7-|-----5s7-----3--|-----8---7s8---7-|-----5s7-----3--|
|-0-0-6-0-5s6-0-5-|-0-0-3s5-0-0-1--|-0-0-6-0-5s6-0-5-|-0-0-3s5-0-0-1--|


ENDING


  E E E E E E E E   E E E E E E Q
|-----------------|----------------|
|-----------------|----------------|
|-----------------|----------------|
|-----------4-5---|-------4-5---3--|
|-----6-7---------|-6-7---------1--|
|-0-0-----0-----0-|-----0-----0----|
|
| E E E E E E E E   E E E E E E Q
|-----------------|----------------|
|-----------------|----------------|
|-----------7-9---|-------7-9------|
|-----7-9---------|-7-9---------3--|
|-2-2-------------|-------------1--|
|-0-0-----0-----0-|-----0-----0----|


  H.      E E   E E E E E E E E   Q
|-------------|-----------------|------|
|-------------|-----------------|------|
|-------------|-----------------|------|
|-2-----------|-----------------|------|
|-0-----------|-3-----3---3---3-|-2----|
|---------0-0-|-1-0-0-1-0-1-0-1-|-0----|



Duration Legend
---------------
W - whole; H - half; Q - quarter; E - 8th; S - 16th; T - 32nd; X - 64th; a - acciaccatura
+ - note tied to previous; . - note dotted; .. - note double dotted
Uncapitalized letters represent notes that are staccato (1/2 duration)
Irregular groupings are notated above the duration line
Duration letters will always appear directly above the note/fret number it represents the
duration for.  Duration letters with no fret number below them represent rests.  Multi-
bar rests are notated in the form Wxn, where n is the number of bars to rest for.  Low
melody durations appear below the staff

Tablature Legend
----------------
 h   - hammer-on
 p   - pull-off
 b   - bend
 pb  - pre-bend
 r   - bend release (if no number after the r, then release immediately)
 /\  - slide into or out of (from/to "nowhere")
 s   - legato slide
 S   - shift slide
<n> - natural harmonic
[n]  - artificial harmonic
n(n) - tapped harmonic
 ~   - vibrato
 tr  - trill
 T   - tap
 TP  - trem. picking
 PM  - palm muting
\n/  - tremolo bar dip; n = amount to dip
 \n  - tremolo bar down
 n/  - tremolo bar up
/n\  - tremolo bar inverted dip
 =   - hold bend; also acts as connecting device for hammers/pulls
 <> - volume swell (louder/softer)
 x   - on rhythm slash represents muted slash
 o   - on rhythm slash represents single note slash

Misc Legend
-----------
 |  - bar
||  - double bar
||o - repeat start
o|| - repeat end
*|  - double bar (ending)
 :  - bar (freetime)
 $  - Segno
 &  - Coda
Tempo markers - <E/E./Q/Q./H/H.> = BPM(8/16=s8/s16), where s8 = swing 8ths, s16 = swing 16ths

comments
We did not receive enough feedback on this tab! Please rate:
print report bad tab
1 2 3 4 5
I want to post or [tab]
guest
You may want to rate the tab now too:
select rating
Please do not post tabs as comments. Select "correction" instead!