Oops, an error
Loading. Please wait.

Bullets Over Broadway - Paint This World Words Tab

301 views 3 this week
no commentswrite comment
1 2 3 4 5
please rate
add to favorites launch autoscroll
font size
0
reset
Autoscroll
+/-
esc
set tempo
stop
Contributor
Difficulty
novice
WARNING: You are trying to view
                                    content from Ultimate-Guitar.com
                                    in an unauthorized application,
                                    which is prohibited.

                                    Please use an official Ultimate
                                    Guitar Tabs application for iPhone,
                                    iPad or Android to access legitimate
                                    chords, guitar, bass, and drum tabs
                                    from Ultimate-Guitar.com database.

                                    Type "ultimate guitar tabs" in Apple
                                    App Store's or Android Market's
                                    search to find the application.
Rhythm Tabs -
Symbol Key:
~ = let ring out
/ = slide to lower pitch
>(x) = Fade into (x)
* = Mute
H = Natural Harmonic
Heartless Whore: Key: C
Drop D Tuning
Intro:
[------------------------------------------------]
[------------------------------------------------]
[-7-----------------------2----------------------]
[-7-----------3-----------2----------------------]
[-5-----------3-----------0--------0000000000000-]
[-------------3--------------------0000000000000-]
                                   *************
Intro part 2:
[---------------------------------------------------------------------]
[---------------------------------------------------------------------]
[-7777777777777777------------------2222222222222222------------------]
[-7777777777777777-3333333333333333-2222222222222222-0000000000000000-]
[-5555555555555555-3333333333333333-0000000000000000-0000000000000000-]
[------------------3333333333333333------------------0000000000000000-]
Verse:
[---------------------------------------------------------------------]
[---------------------------------------------------------------------]
[---------------------------------------------------------------------]
[---------------------------------------------------------------------]x2
[-5555555555555555------------------0000000000000000------------------]
[------------------3333333333333333------------------0000000000000000-]
  **************** **************** **************** ****************
Bridge:
[------------------------------------]
[------------------------------------]
[------------------22222222----------]
[-3333333333333333-22222222----------]
[-3333333333333333-00000000-00000000-]
[-3333333333333333----------00000000-]
                            ********
Chorus:
[---------------------------------------------------------------------]
[---------------------------------------------------------------------]
[-7777777777777777------------------2222222222222222------------------]
[-7777777777777777-3333333333333333-2222222222222222-0000000000000000-]
[-5555555555555555-3333333333333333-0000000000000000-0000000000000000-]
[------------------3333333333333333------------------0000000000000000-]
Verse
Bridge
Chorus 2:
[---------------------------------------------------------------------]
[---------------------------------------------------------------------]
[-7777777777777777------------------2222222222222222------------------]
[-7777777777777777-3333333333333333-2222222222222222-0000000000000000-]
[-5555555555555555-3333333333333333-0000000000000000-0000000000000000-]
[------------------3333333333333333------------------0000000000000000-]

[---------------------------------------------------------------------]
[----------------------------------------------------888855556666-----]
[-7777777777777777------------------2222222222222222-XXXXXXXXXXXX7777-]
[-7777777777777777-3333333333333333-2222222222222222-555522223333XXXX-]
[-5555555555555555-3333333333333333-0000000000000000-------------5555-]
[------------------3333333333333333-----------------------------------]

Breakdown:
[----------------------------------]
[----------------------------------]
[----------------------------------]
[----------------------------------]
[---------00000000--------55555555-]x2
[-00000000--------33333333---------]
  ********************************
Behind Solo:
[-----------------------------------------------------------------------]
[-----------------------------------------------------------------------]
[-7777777777777777------------------2222222222222222--------------------]
[-7777777777777777-3333333333333333-2222222222222222-0000000000000000---]
[-5555555555555555-3333333333333333-0000000000000000-0000000000000000---]
[------------------3333333333333333------------------0000000000000000---]

[-----------------------------------------------------------------------]
[-----------------------------------------------------------------------]
[------------------22222222---------------------------------------------]
[-3333333333333333-22222222---------------------------------------------]
[-3333333333333333-00000000-00000000------------------------------------]
[-3333333333333333----------00000000------------------------------------]
                            ********

Chorus 3 :
[--------------------------------------------------------------------------]
[--------------------------------------------------------------------------]
[-7777777777777777------------------2222222222222222-----------------------]
[-7777777777777777-3333333333333333-2222222222222222-0000000000000000------]
[-5555555555555555-3333333333333333-0000000000000000-0000000000000000------]
[------------------3333333333333333------------------0000000000000000------]

[--------------------------------------------------------------------------]
[----------------------------------------------------888855556666----------]
[-7777777777777777------------------2222222222222222-XXXXXXXXXXXX7~~~------]
[-7777777777777777-3333333333333333-2222222222222222-555522223333X---------]
[-5555555555555555-3333333333333333-0000000000000000-------------5~~~xxx---]
[------------------3333333333333333------------------------------0---xxx---]
There’s Heartless Whore, all tabbed out. Should be easy to understand.
Dreaming In Black and White: Key: F
Drop D tuning
Intro:
[-----------------------------------------------------------------------]
[-----------------------------------------------------------------------]
[-7------------------------------------------------5--------------------]
[-7----------------8---------------3---------------5--------------------]
[-5----------------8---------------3---------------3--------------------]
[------------------8---------------3------------------------------------]

[-----------------------------------------------------------------------]
[-----------------------------------------------------------------------]
[-7~~~~~~~~~~~~~~~-----------------------------------5~~~~~~~~~~~~~~~---]
[-7~~~~~~~~~~~~~~~-8~~~~~~~~~~~~~~~/3~~~~~~~~~~~~~~~-5~~~~~~~~~~~~~~~---]
[-5~~~~~~~~~~~~~~~-8~~~~~~~~~~~~~~~/3~~~~~~~~~~~~~~~-3~~~~~~~~~~~~~~~---]
[------------------8~~~~~~~~~~~~~~~/3~~~~~~~~~~~~~~~--------------------]
[-----------------------------------------------------------------------]
[-----------------------------------------------------------------------]
[-----------------------------------------------------------------------]
[-0~-------------------8~----------12------10~---12--10--12-10-12-------]
[-0~---12--13--10-12-8-8~---10--8-----10-8-8~~-88--88--88--8--8---------]
[-0~-00--00--00--0--0--8~-88--88-88--8--8-------------------------------]
     **  **  **  *  *     **  ** **  *  *      **  **  **  *  *
[----------------------------------------------------]
[----------------------------------------------------]
[----------------------------------------------------]
[-10~------------------------------------------------]
[-10~------12-----13-----12--13p10h13p10h12p10h12p10-]
[-10~-10-10--10-10--10-10--10------------------------]
      *  *   *  *   *  *   *
[-----------------------------------------------------------------]
[-----------------------------------------------------------------]
[-----------------------------------------------------------------]
[-0~-------------------8~----------12------10~---12--10--12-10-12-]
[-0~---12--13--10-12-8-8~---10--8-----10-8-8~~-88--88--88--8--8---]
[-0~-00--00--00--0--0--8~-88--88-88--8--8-------------------------]
     **  **  **  *  *     **  ** **  *  *      **  **  **  *  *
[----------------------------------------]
[----------------------------------------]
[----------------------------------------]
[-10~--------------------12~~~~-10~~-9~~-]
[-10~------12-----13-----10~~~~-8~~~-7~~-]
[-10~-10-10--10-10--10-10----------------]
      *  *   *  *   *  *
Verse:
[-----------------------------------------------------------------------]
[-----------------------------------------------------------------------]
[-7~~~~~~~~~~~~~~~-----------------------------------5~~~~~~~~~~~~~~~---]
[-7~~~~~~~~~~~~~~~-8~~~~~~~~~~~~~~~/3~~~~~~~~~~~~~~~-5~~~~~~~~~~~~~~~---]
[-5~~~~~~~~~~~~~~~-8~~~~~~~~~~~~~~~/3~~~~~~~~~~~~~~~-3~~~~~~~~~~~~~~~---]
[------------------8~~~~~~~~~~~~~~~/3~~~~~~~~~~~~~~~--------------------]
[-----------------------------------------------------------------------]
[-----------------------------------------------------------------------]
[-----------------------------------------------------------------------]
[-----------------------------------------------------------------------]x2
[-5555555555555555---------------------------------3333333333333333-----]
[-----------------8888888888888888/3333333333333333---------------------]
  ******************************** ********************************
Bridge:
[--------------------------------------------------------------------]
[--------------------------------------------------------------------]
[----------1010101010101010------------------------------------------]
[-88888888-1010101010101010-10-10-10-10-10-10-10-10-----12~~~-10~-9~-]
[-88888888-8-8-8-8-8-8-8-8--10-10-10-10-10-10-10-10--0--10~~~-8~~-7~-]
[-88888888------------------10-10-10-10-10-10-10-10--0---------------]                   
                                                        *
Chorus:
[----------------------------------------------------------------------]
[----------------------------------------------------------------------]
[-7777777777777777-----------------------------------------------------]
[-7777777777777777-8888888888888888-0000000000000000-333333333333-5555-]
[-5555555555555555-8888888888888888-0000000000000000-333333333333-5555-]x2
[------------------8888888888888888-0000000000000000-333333333333-5555-]
Bridge 2:
[---------------------------------------------------------------------]
[---------------------------------------------------------------------]
[-7777777777777777-----------------------------------5555555555555555-]
[-7777777777777777-8888888888888888/3333333333333333-5555555555555555-]x2
[-5555555555555555-8888888888888888/3333333333333333-3333333333333333-]
[------------------8888888888888888/3333333333333333------------------]
Verse
Bridge
Chorus 2:
[------------------------------------------------------------------------]
[------------------------------------------------------------------------]
[-7777777777777777-------------------------------------------------------]
[-7777777777777777-8888888888888888-0000000000000000-333333333333-5555---]
[-5555555555555555-8888888888888888-0000000000000000-333333333333-5555---]x3
[------------------8888888888888888-0000000000000000-333333333333-5555---]
[------------------------------------------------------------------------]
[------------------------------------------------------------------------]
[-7777777777777777-------------------------------------------------------]
[-7777777777777777-8888888888888888-0000000000000000-333333333333-5/0----]
[-5555555555555555-8888888888888888-0000000000000000-333333333333-5/0----]
[------------------8888888888888888-0000000000000000-333333333333-5/0----]
Breakdown:
[-------------------------------------------------------------------------]
[-------------------------------------------------------------------------]
[-------------------------------------------------------------------------]
[--------------7~~~--------------------------------------------------5~~~-]
[-000000000000-5~~~-000000000000-8~~~-000000000000-3~~~-000000000000-3~~~-]x2
[-000000000000------000000000000-8~~~-000000000000-3~~~-000000000000------]
  ************      ************              ************      ************
Chorus 3:
[---------------------------------------------------------------------------]
[---------------------------------------------------------------------------]
[-7777777777777777----------------------------------------------------------]
[-7777777777777777-8888888888888888-0000000000000000-333333333333-5555------]
[-5555555555555555-8888888888888888-0000000000000000-333333333333-5555------]x3
[------------------8888888888888888-0000000000000000-333333333333-5555------]
[---------------------------------------------------------------------------]
[---------------------------------------------------------------------------]
[-7777777777777777----------------------------------------------------------]
[-7777777777777777-8888888888888888-0000000000000000-333333333333-5/////0---]
[-5555555555555555-8888888888888888-0000000000000000-333333333333-5/////0---]
[------------------8888888888888888-0000000000000000-333333333333-5/////0---]


Bring on the Rain: Key: D
Drop D Tuning
Intro:
[------------------------------------------------------------------]
[------------------------------------------------------------------]
[------------------------------------------------------------------]x2
[-2~~~~~~~4~~~5~~~2~~~~~~~5~~~4~~~0~~~~~~~5~~~4~~~7~~~~~~~9~~~~~~~-]
[-2~~~~~~~4~~~5~~~2~~~~~~~5~~~4~~~0~~~~~~~5~~~4~~~7~~~~~~~9~~~~~~~-]
[-2~~~~~~~4~~~5~~~2~~~~~~~5~~~4~~~0~~~~~~~5~~~4~~~7~~~~~~~9~~~~~~~-]
[----------------------------------------------------------------------------]
[----------------------------------------------------------------------------]
[----------------------------------------------------------------------------]x2
[-22222222-4444-5555-22222222-5555-4444-00000000-5555-4444-77777777-99999999-]
[-22222222-4444-5555-22222222-5555-4444-00000000-5555-4444-77777777-99999999-]
[-22222222-4444-5555-22222222-5555-4444-00000000-5555-4444-77777777-99999999-]
[----------------------------------------------------------------------------]
[----------------------------------------------------------------------------]
[----------------------------------------------------------------------------]
[-0~~~~~~~~~~~~~~~~~~~~~~~~~~~~~~~~~~~~~~~~~~~~~~~~~~~~>>>>>>>>>>>>>>>>>>(7)-]
[-0~~~~~~~~~~~~~~~~~~~~~~~~~~~~~~~~~~~~~~~~~~~~~~~~~~~~>>>>>>>>>>>>>>>>>>(7)-]
[-0~~~~~~~~~~~~~~~~~~~~~~~~~~~~~~~~~~~~~~~~~~~~~~~~~~~~>>>>>>>>>>>>>>>>>>(7)-]
Verse:
[----------------------------------------------------------------------------------------]
[----------------------------------------------------------------------------------------]
[----------------------------------------------------------------------------------------]x2
[-------------------------------------------------------7-7-7-7-7-7-7-7-9-9-9-9-9-9-9-9--]
[-7-7-7-7-9-9-10-10-7-7-7-7-10-10-9-9-5-5-5-5-10-10-9-9----------------------------------]
[--7-7-7-7-7-7--7--7-7-7-7-7--7--7-7-7-5-5-5-5--7--7-7-7-7-7-7-7-7-7-7-7-7-7-7-7-7-7-7-7-]
   * * * * * *  *  * * * * *  *  * * * * * * *  *  * * * * * * * * * * * * * * * * * * *
Bridge:
[------------------------------------]
[------------------------------------]
[------------------------------------]
[-2222222222222222-00000000-77777777-]
[-2222222222222222-00000000-77777777-]
[-2222222222222222-00000000-77777777-]
Chorus:
[----------------------------------------------------------------------------]
[----------------------------------------------------------------------------]
[----------------------------------------------------------------------------]x2
[-22222222-4444-5555-22222222-5555-4444-00000000-5555-4444-77777777-99999999-]
[-22222222-4444-5555-22222222-5555-4444-00000000-5555-4444-77777777-99999999-]
[-22222222-4444-5555-22222222-5555-4444-00000000-5555-4444-77777777-99999999-]
Bridge 2:
[-------------------------------------]
[-------------------------------------]
[-------------------------------------]
[-22222222-00000000-77777777-99999999-]
[-22222222-00000000-77777777-99999999-]
[-22222222-00000000-77777777-99999999-]
Verse
Bridge
Chorus
Breakdown & behind solo: Same as bridge 2 but muted until the solo starts
Chorus
End
[-----------------------------------------------------------]
[-----------------------------------------------------------]
[-----------------------------------------------------------]
[-0~~~~~~~~~~~~~~~~~~~~~~~~~~~~~~~~~~~~~~~~~~~~~~~~~~~~~~~~-]
[-0~~~~~~~~~~~~~~~~~~~~~~~~~~~~~~~~~~~~~~~~~~~~~~~~~~~~~~~~-]
[-0~~~~~~~~~~~~~~~~~~~~~~~~~~~~~~~~~~~~~~~~~~~~~~~~~~~~~~~~-]
I’m Your Nothing: Key: C
D Standard tuning
Verse:
[-2~~~2~~~22222~~~3~~~3~~~33333~~~0~~~0~~~00000~~~0~~~0~~~00000~~~-]
[-3~~~3~~~33333~~~0~~~0~~~00000~~~1~~~1~~~11111~~~0~~~0~~~00000~~~-]
[-4~~~4~~~44444~~~0~~~0~~~00000~~~2~~~2~~~22222~~~0~~~0~~~00000~~~-]
[-4~~~4~~~44444~~~0~~~0~~~00000~~~2~~~2~~~22222~~~2~~~2~~~22222~~~-]
[-2~~~2~~~22222~~~2~~~2~~~22222~~~0~~~0~~~00000~~~2~~~2~~~22222~~~-]
[-----------------3~~~3~~~33333~~~----------------0~~~0~~~00000~~~-]
Chorus:
[-2~~~2~~~22222~~~3~~~3~~~33333~~~0~~~0~~~00000~~~0~~~0~~~00000~~~-]
[-3~~~3~~~33333~~~0~~~0~~~00000~~~0~~~0~~~00000~~~1~~~1~~~11111~~~-]
[-4~~~4~~~44444~~~0~~~0~~~00000~~~0~~~0~~~00000~~~2~~~2~~~22222~~~-]
[-4~~~4~~~44444~~~0~~~0~~~00000~~~2~~~2~~~22222~~~2~~~2~~~22222~~~-]
[-2~~~2~~~22222~~~2~~~2~~~22222~~~2~~~2~~~22222~~~0~~~0~~~00000~~~-]
[-----------------3~~~3~~~33333~~~0~~~0~~~00000~~~-----------------]
Breakdown:
[-------------------------------------]
[-------------------------------------]
[-------------------------------------]
[-------------------------------------]
[-------------------------------------]x2
[-99999999-55555555-22222222-77777777-]
[-77777777-33333333-00000000-55555555-]
  ******** ******** ******** ********

Behind solo and Final chorus:
[------------------------------------------------------------------]
[------------------------------------------------------------------]
[-4~~~4~~~44444~~~--------------------------------2~~~2~~~22222~~~-]
[-4~~~4~~~44444~~~5~~~5~~~55555~~~2~~~2~~~22222~~~2~~~2~~~22222~~~-]
[-2~~~2~~~22222~~~5~~~5~~~55555~~~2~~~2~~~22222~~~0~~~0~~~00000~~~-]
[-----------------3~~~3~~~33333~~~0~~~0~~~00000~~~-----------------]
Outro:
[-2~~~2~~~22222~~~3~~~3~~~33333~~~0~~~0~~~00000~~~0~~~0~~~00000~~~-]
[-3~~~3~~~33333~~~0~~~0~~~00000~~~0~~~0~~~00000~~~1~~~1~~~11111~~~-]
[-4~~~4~~~44444~~~0~~~0~~~00000~~~0~~~0~~~00000~~~2~~~2~~~22222~~~-]
[-4~~~4~~~44444~~~0~~~0~~~00000~~~2~~~2~~~22222~~~2~~~2~~~22222~~~-]
[-2~~~2~~~22222~~~2~~~2~~~22222~~~2~~~2~~~22222~~~0~~~0~~~00000~~~-]
[-----------------3~~~3~~~33333~~~0~~~0~~~00000~~~-----------------]
In Memory (Instrumental): Key: G
[-------------------------------------------------------------------------------]
[-------------------------------------------------------------------------------]
[------0~~~~~-0~~~~~~~~~~-0~~~~~-0~~~~~~~~~-0~~~~~-0~~~~~~~~~~-0~~~~~-0~~~~~~~--]
[---4~~~~~-4~~~~~-4~~~-4~~~~~-4~~~~~-4~~~-4~~~~~-4~~~~~-4~~~-4~~~~~-4~~~~~-4~~~-]
[-7~~~~~-7~~~~~-7~~~-7~~~~~-7~~~~~-7~~~-5~~~~~-5~~~~~-5~~~-5~~~~~-5~~~~~-5~~~~~-]
[-------------------------------------------------------------------------------]

[-------------------------------------------------------------------------------]
[-------------------------------------------------------------------------------]
[-------0~~~~~-0~~~~~~~~~~-0~~~~~-0~~~~~~~~~-0~~~~~-0~~~~~~~~~~-0~~~~~-0~~~~~~~-]
[----4~~~~~-4~~~~~-4~~~-4~~~~~-4~~~~~-4~~~-4~~~~~-4~~~~~-4~~~-4~~~~~-4~~~~~-4~~-]
[-3~~~~~-3~~~~~-3~~~-3~~~~~-3~~~~~-3~~~-2~~~~~-2~~~~~-2~~~-0~~~~~-0~~~~~-0~~~~~-]
[-------------------------------------------------------------------------------]
Repeat until end of solo


Portable Serenade: Key: F
D Standard tuning
Intro/Verse/Chorus
[----------3-------------3-------------3-------------3------]
[----3---3---3-----3---3---3-----3---3---3-----3---3---3----]
[------0-------0-----0-------0-----0-------0-----0-------0--]
[-----------------------------------------------------------]
[--------------------------------------------3~~~~~~~~~~~~~-]
[-3~~~~~~~~~~~~--2~~~~~~~~~~---0~~~~~~~~~~~-----------------]

[----------3-------------3-------------3-------------3------]
[----3---3---3-----3---3---3-----3---3---3-----3---3---3----]
[------0-------0-----0-------0-----0-------0-----0-------0--]
[-----------------------------------------------------------]
[------------------------------2~~~~~~~~~~~~-3~~~~~~~~~~~~~-]
[-3~~~~~~~~~~~~--2~~~~~~~~~~--------------------------------]
Random lead: (Placed Sparsely Throughout, mainly in the Chorus and during the solo)
[-30~~~~~~~~~~~~~~~~~~~~~~~~~~~~~~~~~~~---]
[---30~~~~~~~~~~~~~~~~~~~~~~~~~~~~~~~~~---]
[-----30~~~~~~~~~~~~~~~~~~~~~~~~~~~~~~~---]
[-------30~~~~~~~~~~~~~~~~~~~~~~~~~~~~~~--]
[---------30~~~~~~~~~~~~~~~~~~~~~~~~~~~~~-]
[-----------30~~~~~~~~~~~~~~~~~~~~~~~~~~~-]
  H H H H H H   (Just do highest harmonies you can, it’s too complicated to expain what
I did in tabs)
Happily Unhappy: Key: F
Drop D tuning
Intro:
[---------------------------------------------------------------------------]
[---------------------------------------------------------------------------]
[---------------------------------------------------------------------------]
[---------------------------------------------------------------------------]
[-----8-8-10-10-8-8-10-10-12-12-10-10-8-8-----5-5-7-7-5-5-7-7-8-8-10-10-8-8-]
[-0-0-------------------------------------0-0-------------------------------]
  * *                                     * *
[-------------------------------------------------------------------------]
[-------------------------------------------------------------------------]
[-------------------------------------------------------------------------]
[-------------------------------------------------------------------------]
[-----8-8-10-10-8-8-10-10-12-12-10-10-8-8-----5-5-7-7-5-5-7-7-8-8-7-7-5-5-]
[-0-0-------------------------------------0-0-----------------------------]
  * *                                     * *
[---------------------------------------------------------------------------]
[---------------------------------------------------------------------------]
[---------------------------------------------------------------------------]
[---------------------------------------------------------------------------]
[-----8-8-10-10-8-8-10-10-12-12-10-10-8-8-----5-5-7-7-5-5-7-7-8-8-10-10-8-8-]
[-0-0-------------------------------------0-0-------------------------------]
  * *                                     * *
[-------------------------------------------------------------------------]
[-------------------------------------------------------------------------]
[-------------------------------------------------------------------------]
[-------------------------------------------------------------------------]
[-----8-8-10-10-8-8-10-10-12-12-10-10-8-8-----5-5-7-7-5-5-8---7---5---3---]
[-0-0-------------------------------------0-0-----------------------------]
  * *                                     * *
*  *
Verse:
[------------------------------------------]
[------------------------------------------]
[------------------------------------------]
[-0-------------------8----------7---------]
[-0---5-7--5--7-10/8--8---8-10---7---7-8---]
[-0--0-0-00-00-0----0-8--8-8--88-7--7-7-77-]
     * * ** ** *    *    * *  **    * * **
[-------------------------------------------]
[-------------------------------------------]
[-------------------------------------------]
[-0-------------------3----------5----------]x2
[-0---5-7--5--7-10/8--3---3-5p3--5---5-7p5--]
[-0--0-0-00-00-0----0-3--3-3---3-5--5-5---5-]
     * * ** ** *    *    * *   *    * *   *
Bridge:
[-------------------------------------]
[-------------------------------------]
[----------33333333-------------------]
[-00000000-33333333-33333333-55555555-]
[-00000000-11111111-33333333-55555555-]
[-00000000----------33333333-55555555-]
Chorus:
[-----------------------------------------------------------------------]
[-----------------------------------------------------------------------]
[-7777777777777777-------------------7777777777777777-------------------]
[-7777777777777777-88888888-77777777-7777777777777777-33333333-55555555-]x2
[-5555555555555555-88888888-77777777-5555555555555555-33333333-55555555-]
[------------------88888888-77777777------------------33333333-55555555-]
Verse
Bridge
Chorus
Breakdown:
[-------------------------------------------------------------------]
[-------------------------------------------------------------------]
[---------------------------------------------------------------5-7-]
[---------------------------------------------------------5-7-8-----]x4
[---------------------------------------------------5-7-8-----------]
[-0-0-0-0-0-0-0-0-0-0-----0-0-0-----0-0-0-0-0-0-0-0-----------------]
  * * * * * * * * * *     * * *     * * * * * * * *
Gtr. 3
[---------------------------------------------------------------------]
[---------------------------------------------------------------------]
[------------------3~~~~~~~~~~~~~~~-----------------------------------]
[-0~~~~~~~~~~~~~~~-3~~~~~~~~~~~~~~~-3~~~~~~~~~~~~~~~-5~~~~~~~~~~~~~~~-]
[-0~~~~~~~~~~~~~~~-1~~~~~~~~~~~~~~~-3~~~~~~~~~~~~~~~-5~~~~~~~~~~~~~~~-]
[-0~~~~~~~~~~~~~~~------------------3~~~~~~~~~~~~~~~-5~~~~~~~~~~~~~~~-]
Solo is backed by bridge played twice and chorus played as normal.
Chorus
End:
[-----------------------]
[-----------------------]
[-7~~~~~~~~~~~~~~~/////-]
[-7~~~~~~~~~~~~~~~/////-]
[-5~~~~~~~~~~~~~~~/////-]
[-----------------------]
Keep Your Tears: Key: D
Drop D tuning

Intro:
e) [--------------------------------------------------------------------]
B) [--------------------------------------------------------------------]X2
G) [--------------------------------------------------------------------]
D) [--9-------------------5----------------------2-------4---0------1---]
A) [--9-------------------5----------------------2-------4---0------1---]
D) [--9-------------------5----------------------2-------4---0------1---]








Then:

e) [------------------------------------------------------------------]
B) [------------------------------------------------------------------]
G) [------------------------------------------------------------------]
D) [--9-9-9-9-9-9-9-9-9-9-9-9-9-9-9-9-5-5-5-5-5-5-5-5-5-5-5-5-5-5-5-5-]
A) [--9-9-9-9-9-9-9-9-9-9-9-9-9-9-9-9-5-5-5-5-5-5-5-5-5-5-5-5-5-5-5-5-]
D) [--9-9-9-9-9-9-9-9-9-9-9-9-9-9-9-9-5-5-5-5-5-5-5-5-5-5-5-5-5-5-5-5-]

e) [------------------------------------------------------------------]
B) [------------------------------------------------------------------]
G) [------------------------------------------------------------------]
D) [--2-2-2-2-2-2-2-2-2-2-2-2-4-4-4-4-0-0-0-0-0-0-0-0-0-0-0-0-1-1-1-1-]
A) [--2-2-2-2-2-2-2-2-2-2-2-2-4-4-4-4-0-0-0-0-0-0-0-0-0-0-0-0-1-1-1-1-]
D) [--2-2-2-2-2-2-2-2-2-2-2-2-4-4-4-4-0-0-0-0-0-0-0-0-0-0-0-0-1-1-1-1-]X2

Gtr. 3 Intro (Harmony)

e) [----------------------------------]
B) [----------------------------------]   X8
G) [----------------------------------]
D) [----------------------------------]
A) [---2-4-2---4-5-4---5-7-5-75454242-]
D) [-00-0-0-000-0-0-000-0-0-0---------]
     ** * * *** * * *** * * *
Verse:

e) [------------------------------------------------------------------]
B) [------------------------------------------------------------------]
G)[-------------------------------------------------------------------]
D) [------------------------------------------------------------------]
A) [--9-9-9-9-9-9-9-9-9-9-9-9-9-9-9-9-5-5-5-5-5-5-5-5-5-5-5-5-5-5-5-5-]
D) [--9-9-9-9-9-9-9-9-9-9-9-9-9-9-9-9-5-5-5-5-5-5-5-5-5-5-5-5-5-5-5-5-]
      . . . . . . . . . . . . . . . . . . . . . . . . . . . . . . . .      X2

e) [------------------------------------------------------------------]
B) [------------------------------------------------------------------]
G) [------------------------------------------------------------------]
D) [------------------------------------------------------------------]
A) [--2-2-2-2-2-2-2-2-2-2-2-2-4-4-4-4-0-0-0-0-0-0-0-0-0-0-0-0-1-1-1-1-]
D) [--2-2-2-2-2-2-2-2-2-2-2-2-4-4-4-4-0-0-0-0-0-0-0-0-0-0-0-0-1-1-1-1-]
      . . . . . . . . . . . . . . . . . . . . . . . . . . . . . . . .

Bridge A

e) [------------------------------------------------------------------]
B) [------------------------------------------------------------------]
G) [------------------------------------------------------------------]
D) [--2-2-2-2-2-2-2-2-4-4-4-4-5-5-5-5-2-2-2-2-2-2-2-2-5-5-5-5-4-4-4-4-]
A) [--2-2-2-2-2-2-2-2-4-4-4-4-5-5-5-5-2-2-2-2-2-2-2-2-5-5-5-5-4-4-4-4-]
D) [--2-2-2-2-2-2-2-2-4-4-4-4-5-5-5-5-2-2-2-2-2-2-2-2-5-5-5-5-4-4-4-4-]


e) [------------------------------------------------------------------]
B) [------------------------------------------------------------------]
G) [------------------------------------------------------------------]
D) [--0-0-0-0-0-0-0-0-2-2-2-2-2-2-2-2-4-4-4-4-4-4-4-4-5-----5-----5---]
A) [--0-0-0-0-0-0-0-0-2-2-2-2-2-2-2-2-4-4-4-4-4-4-4-4-5-5-5-5-5-5-5-5-]
D) [--0-0-0-0-0-0-0-0-2-2-2-2-2-2-2-2-4-4-4-4-4-4-4-4-5-5-5-5-5-5-5-5-]
                                                        . .   . .   .
Chorus


e) [------------------------------------------------------------------]
B) [------------------------------------------------------------------]
G) [------------------------------------------------------------------]
D) [--9-9-9-9-9-9-9-9-9-9-9-9-9-9-9-9-5-5-5-5-5-5-5-5-5-5-5-5-5-5-5-5-]
A) [--9-9-9-9-9-9-9-9-9-9-9-9-9-9-9-9-5-5-5-5-5-5-5-5-5-5-5-5-5-5-5-5-]
D) [--9-9-9-9-9-9-9-9-9-9-9-9-9-9-9-9-5-5-5-5-5-5-5-5-5-5-5-5-5-5-5-5-]

e) [------------------------------------------------------------------]
B) [------------------------------------------------------------------]
G) [------------------------------------------------------------------]
D) [--2-2-2-2-2-2-2-2-2-2-2-2-4-4-4-4-0-0-0-0-0-0-0-0-0-0-0-0-1-1-1-1-]
A) [--2-2-2-2-2-2-2-2-2-2-2-2-4-4-4-4-0-0-0-0-0-0-0-0-0-0-0-0-1-1-1-1-]
D) [--2-2-2-2-2-2-2-2-2-2-2-2-4-4-4-4-0-0-0-0-0-0-0-0-0-0-0-0-1-1-1-1-]X2

Bridge B

e) [-------------------------------------------------]
B) [-------------------------------------------------]
G) [-------------------------------------------------]
D) [-4-4-4-4-4-4-4-4-9-9-9-9-9-9-9-9-5-5-5-5-5-5-5-5-]
A) [-4-4-4-4-4-4-4-4-9-9-9-9-9-9-9-9-5-5-5-5-5-5-5-5-]
D) [-4-4-4-4-4-4-4-4-9-9-9-9-9-9-9-9-5-5-5-5-5-5-5-5-]

Verse
Bridge A
Chorus
Solo (Backing track is chorus, Slow part is Chorus in single held out notes)
Chorus X2
Fly  From Hell: Key: G Minor Harmonic

Drop D tuning

Intro:

[---------------------------------------------------------------------]
[---------------------------------------------------------------------]
[---------------------------------------------------------------------]
[-5--------------4-----------------0------------------7-------8-------]X2
[-5--------------4-----------------0------------------7-------8-------]
[-5--------------4-----------------0------------------7-------8-------]



Verse:

[--------------------------------------------------------------------------]
[--------------------------------------------------------------------------]
[--------------------------------------------------------------------------]
[-------------8-7-5-------------7-5-4--------------------------------------]X2
[-----5--6-5------------5--6--5-----------6--5--9-9-10-12-----9-------6----]
[-5555-55-55-5------4444-44-44-4------0000-00-00-0--------8888-8887777-777-]
  **** ** ** *      **** ** ** *      **** ** ** *        **** ******* ***

Pre-Chorus:

[-------------------------------------------------------------------------]
[-------------------------------------------------------------------------]
[-------------------------------------------------------------------------]
[-00000000-11111111-4444444444444444-00000000-11111111-44444444-8888-7777-]
[-00000000-11111111-4444444444444444-00000000-11111111-44444444-8888-7777-]
[-00000000-11111111-4444444444444444-00000000-11111111-44444444-8888-7777-]

Chorus:

[----------------------------------------------------------------------]
[----------------------------------------------------------------------]
[----------------------------------------------------------------------]
[-5555555555555555-4444444444444444-0000000000000000-88888888-77777777-]
[-5555555555555555-4444444444444444-0000000000000000-88888888-77777777-]
[-5555555555555555-4444444444444444-0000000000000000-88888888-77777777-]

[---------------------------------------------------------------------]
[---------------------------------------------------------------------]
[---------------------------------------------------------------------]
[-5555555555555555-4444444444444444-0000000000000000-88888888-7777----]
[-5555555555555555-4444444444444444-0000000000000000-88888888-7777-7*-]
[-5555555555555555-4444444444444444-0000000000000000-88888888-7777----]

Verse
Pre-Chorus
Chorus
Breakdown:

[-----------------------------------------------------------------]
[-----------------------------------------------------------------]
[-----------------------------------------------------------------]
[-----------------------------------------------------------------]
[-----------------------------------------------------------------]
[-8p5h8p5h8p5h8p5h8p5h8p5h8p5h8p5h7p5h7p5h7p5h7p5h7p5h7p5h7p5h7p5-]

[-----------------------------------------------------------------]
[-----------------------------------------------------------------]
[-----------------------------------------------------------------]
[-----------------------------------------------------------------]
[-----------------------------------------------------------------]
[-7p4h7p4h7p4h7p4h7p4h7p4h7p4h7p4h5p4h5p4h5p4h5p4h5p4h5p4h5p4h5p4-]
 (repeat 8 times)

Solo: (backed by verse, unmuted)

Pre-Chorus

Chorus X2

Outro:

[-------------------------------------------------------------------------------]
[-------------------------------------------------------------------------------]
[-------------------------------------------------------------------------------]
[-------------------------------------------------------------------------------]
[-555-555---555-555---444-444---444-444---000-000---000-000---777-777---888-888-]
[-555-555---555-555---444-444---444-444---000-000---000-000---777-777---888-888-]

Lost Wings of a Forgotten Angel (In Memory Part 2): Key: G

Drop D tuning

Intro:

[-------------------------------------------------------------------------------]
[-------------------------------------------------------------------------------]
[------0~~~~~-0~~~~~~~~~~-0~~~~~-0~~~~~~~~~-0~~~~~-0~~~~~~~~~~-0~~~~~-0~~~~~~~--]
[---4~~~~~-4~~~~~-4~~~-4~~~~~-4~~~~~-4~~~-4~~~~~-4~~~~~-4~~~-4~~~~~-4~~~~~-4~~~-]
[-7~~~~~-7~~~~~-7~~~-7~~~~~-7~~~~~-7~~~-5~~~~~-5~~~~~-5~~~-5~~~~~-5~~~~~-5~~~~~-]
[-------------------------------------------------------------------------------]
[-------------------------------------------------------------------------------]
[-------------------------------------------------------------------------------]
[-------0~~~~~-0~~~~~~~~~~-0~~~~~-0~~~~~~~~~-0~~~~~-0~~~~~~~~~~-0~~~~~-0~~~~~~~-]
[----4~~~~~-4~~~~~-4~~~-4~~~~~-4~~~~~-4~~~-4~~~~~-4~~~~~-4~~~-4~~~~~-4~~~~~-4~~-]
[-3~~~~~-3~~~~~-3~~~-3~~~~~-3~~~~~-3~~~-2~~~~~-2~~~~~-2~~~-0~~~~~-0~~~~~-0~~~~~-]
[-------------------------------------------------------------------------------]
Intro 2:

[----------------------------------------------------------------------]
[----------------------------------------------------------------------]
[------------------------------------5~~~~~~~~~~~~~~-4~~~~~~~-2~~~~~~~-]
[-2~~~~~~~~~~~~~~~-0~~~~~~~~~~~~~~~~-5~~~~~~~~~~~~~~-4~~~~~~~-2~~~~~~~-]x2
[-2~~~~~~~~~~~~~~~-0~~~~~~~~~~~~~~~~-3~~~~~~~~~~~~~~-2~~~~~~~-0~~~~~~~-]
[-2~~~~~~~~~~~~~~~-0~~~~~~~~~~~~~~~~-----------------------------------]

[----------------------------------------------------------------------]
[----------------------------------------------------------------------]
[-----------------------------------5555555555555555-44444444-22222222-]
[-2222222222222222-0000000000000000-5555555555555555-44444444-22222222-]x2
[-2222222222222222-0000000000000000-3333333333333333-22222222-00000000-]
[-2222222222222222-0000000000000000------------------------------------]

Gtr. 3:

[-----------------------------------------------------------------]
[-----------------------------------------------------------------]
[-----------------------------------------------------------------]
[-2-4-5-2-4-5-2-4-2-4-5-2-4-5-2-4-0-4-5-0-4-5-0-4-0-4-5-0-4-5-0-4-]
[-----------------------------------------------------------------]
[-----------------------------------------------------------------]


[-----------------------------------------------------------------]
[-----------------------------------------------------------------]
[-----------------------------------------------------------------]
[---4-5---4-5---4---4-5---4-5---4---4-5---4-5---4---4-5---4-5---4-]
[-3-----3-----3---3-----3-----3---2-----2-----2---0-----0-----0---]
[-----------------------------------------------------------------]

Verse:

[-----------------------------------------------------------------]
[-----------------------------------------------------------------]
[-----------------------------------------------------------------]
[-2-4-5-2-4-5-2-4-2-4-5-2-4-5-2-4-0-4-5-0-4-5-0-4-0-4-5-0-4-5-0-4-]x2
[-----------------------------------------------------------------]
[-----------------------------------------------------------------]

[----------------------------------------------------------------------]
[----------------------------------------------------------------------]
[----------------------------------------------------------------------]
[-----------------------------------5555555555555555-44444444-22222222-]
[-2222222222222222-0000000000000000-3333333333333333-22222222-00000000-]
[-2222222222222222-0000000000000000------------------------------------]
  **************** **************** **************** ******** ********

Pre-Chorus:

[-------------------------------------]
[-------------------------------------]
[-------------------------------------]
[-55555555-00000000-99999999-44444444-]
[-55555555-00000000-99999999-44444444-]
[-55555555-00000000-99999999-44444444-]

Chorus:

[----------------------------------------------------------------------]
[----------------------------------------------------------------------]
[-----------------------------------5555555555555555-44444444-22222222-]
[-2222222222222222-0000000000000000-5555555555555555-44444444-22222222-]x2
[-2222222222222222-0000000000000000-3333333333333333-22222222-00000000-]
[-2222222222222222-0000000000000000------------------------------------]

Verse 2:

[----------------------------------------------------------------------]
[----------------------------------------------------------------------]
[------------------------------------5~~~~~~~~~~~~~~-4~~~~~~~-2~~~~~~~-]
[-2~~~~~~~~~~~~~~~-0~~~~~~~~~~~~~~~~-5~~~~~~~~~~~~~~-4~~~~~~~-2~~~~~~~-]x3
[-2~~~~~~~~~~~~~~~-0~~~~~~~~~~~~~~~~-3~~~~~~~~~~~~~~-2~~~~~~~-0~~~~~~~-]
[-2~~~~~~~~~~~~~~~-0~~~~~~~~~~~~~~~~-----------------------------------]
Chorus
Solo: (Backing track is Chorus)
Chorus
End:
[-2~~~~~~~~~~~~~~~-]
[-5~~~~~~~~~~~~~~~-]
[-4~~~~~~~~~~~~~~~-]
[-2~~~~~~~~~~~~~~~-]
[-2~~~~~~~~~~~~~~~-]
[-2~~~~~~~~~~~~~~~-]
comments
We did not receive enough feedback on this tab! Please rate:
print report bad tab
1 2 3 4 5
I want to post or [tab]
guest
You may want to rate the tab now too:
select rating
Please do not post tabs as comments. Select "correction" instead!