Oops, an error
Loading. Please wait.

Cagardner - Tiptoe To Your Death Tab

39 views 1 this week
no commentswrite comment
1 2 3 4 5
please rate
Autoscroll
+/-
esc
set tempo
stop
Contributor
Hey! There's an official Ultimate Guitar app which is ideal
for learning songs when you're away from computer. Get the app
WARNING: You are trying to view
                                    content from Ultimate-Guitar.com
                                    in an unauthorized application,
                                    which is prohibited.

                                    Please use an official Ultimate
                                    Guitar Tabs application for iPhone,
                                    iPad or Android to access legitimate
                                    chords, guitar, bass, and drum tabs
                                    from Ultimate-Guitar.com database.

                                    Type "ultimate guitar tabs" in Apple
                                    App Store's or Android Market's
                                    search to find the application.
Play part [1] same time as part [2] to make the rythem.


[1]Electric Guitar(Clean) (Capo 2)



                       Q    Q    E   E   E   E     Q    Q    E   E   E   E   
E||-------|-------||----------------------------|---------------------------|
B||-------|-------||----------------------------|---------------------------|
G||-------|-------||*---------------------------|---------------------------|
D||-------|-------||*---------------------------|---------------------------|
A||-------|-------||---5----L----0h--2h--5p--2--|--4----L----0h--1h--4p--1--|
E||-------|-------||---5----L-------------------|--4----L-------------------|


  Q    Q    E   E   E   E     Q    Q    E   E   E   E     
---------------------------|----------------------------||
---------------------------|----------------------------||
---------------------------|---------------------------*||
---------------------------|---------------------------*||
--5----L----0h--2h--5p--2--|--4----L----0h--1h--4p--1---||
--5----L-------------------|--4----L--------------------||


  Q    Q    E   E   E   E     Q    Q    E   E   E   E   
---------------------------|---------------------------|
---------------------------|---------------------------|
---------------------------|---------------------------|
---------------------------|---------------------------|
--5----L----0h--2h--5p--2--|--4----L----0h--1h--4p--1--|
--5----L-------------------|--4----L-------------------|


  Q    Q    E   E   E   E     Q    Q    E   E   E   E   
---------------------------|---------------------------|
---------------------------|---------------------------|
---------------------------|---------------------------|
---------------------------|---------------------------|
--5----L----0h--2h--5p--2--|--4----L----0h--1h--4p--1--|
--5----L-------------------|--4----L-------------------|


  Q    Q    E   E   E   E     Q    Q    E   E   E   E                     
---------------------------|---------------------------||--------|-------|
---------------------------|---------------------------||--------|-------|
---------------------------|---------------------------||*-------|-------|
---------------------------|---------------------------||*-------|-------|
--5----L----0h--2h--5p--2--|--4----L----0h--1h--4p--1--||--------|-------|
--5----L-------------------|--4----L-------------------||--------|-------|


                                    Q    Q    E   E   E   E   
-------|--------||-------|-------|---------------------------|
-------|--------||-------|-------|---------------------------|
-------|-------*||-------|-------|---------------------------|
-------|-------*||-------|-------|---------------------------|
-------|--------||-------|-------|--5----L----0h--2h--5p--2--|
-------|--------||-------|-------|--5----L-------------------|


  Q    Q    E   E   E   E     Q    Q    E   E   E   E   
---------------------------|---------------------------|
---------------------------|---------------------------|
---------------------------|---------------------------|
---------------------------|---------------------------|
--4----L----0h--1h--4p--1--|--5----L----0h--2h--5p--2--|
--4----L-------------------|--5----L-------------------|


  Q    Q    E   E   E   E     Q    Q    E   E   E   E   
---------------------------|---------------------------|
---------------------------|---------------------------|
---------------------------|---------------------------|
---------------------------|---------------------------|
--4----L----0h--1h--4p--1--|--5----L----0h--2h--5p--2--|
--4----L-------------------|--5----L-------------------|


  Q    Q    E   E   E   E     Q    Q    E   E   E   E   
---------------------------|---------------------------|
---------------------------|---------------------------|
---------------------------|---------------------------|
---------------------------|---------------------------|
--4----L----0h--1h--4p--1--|--5----L----0h--2h--5p--2--|
--4----L-------------------|--5----L-------------------|


  Q    Q    E   E   E   E     Q    Q    E   E   E   E   
---------------------------|---------------------------|
---------------------------|---------------------------|
---------------------------|---------------------------|
---------------------------|---------------------------|
--4----L----0h--1h--4p--1--|--5----L----0h--2h--5p--2--|
--4----L-------------------|--5----L-------------------|


  Q    Q    E   E   E   E                                                       
---------------------------||--------|-------|-------|--------||-------|-------|
---------------------------||--------|-------|-------|--------||-------|-------|
---------------------------||*-------|-------|-------|-------*||-------|-------|
---------------------------||*-------|-------|-------|-------*||-------|-------|
--4----L----0h--1h--4p--1--||--------|-------|-------|--------||-------|-------|
--4----L-------------------||--------|-------|-------|--------||-------|-------|


-------|-------|-------|-------|-------||
-------|-------|-------|-------|-------||
-------|-------|-------|-------|-------||
-------|-------|-------|-------|-------||
-------|-------|-------|-------|-------||
-------|-------|-------|-------|-------||

[2]Acoustic Guitar (Capo 2)



                       E  E  E  E  E  E  E  E     E  E  E  E  E  E  E  E   
E||-------|-------||---------------------------|--------------------------|
B||-------|-------||---------------------------|--------------------------|
G||-------|-------||*--------------------------|--------------------------|
D||-------|-------||*--------------------------|--------------------------|
A||-------|-------||---------------------------|--------------------------|
E||-------|-------||---2--2--2--2--0--0--2--2--|--1--1--1--1--0--0--1--1--|


  E  E  E  E  E  E  E  E     E  E  E  E  E  E  E  E     
--------------------------|---------------------------||
--------------------------|---------------------------||
--------------------------|--------------------------*||
--------------------------|--------------------------*||
--------------------------|---------------------------||
--2--2--2--2--0--0--2--2--|--1--1--1--1--0--0--1--1---||


  E  E  E  E  E  E  E  E     E  E  E  E  E  E  E  E   
--------------------------|--------------------------|
--------------------------|--------------------------|
--------------------------|--------------------------|
--------------------------|--------------------------|
--------------------------|--------------------------|
--2--2--2--2--0--0--2--2--|--1--1--1--1--0--0--1--1--|


  E  E  E  E  E  E  E  E     E  E  E  E  E  E  E  E   
--------------------------|--------------------------|
--------------------------|--------------------------|
--------------------------|--------------------------|
--------------------------|--------------------------|
--------------------------|--------------------------|
--2--2--2--2--0--0--2--2--|--1--1--1--1--0--0--1--1--|


  E  E  E  E  E  E  E  E     E  E  E  E  E  E  E  E   
--------------------------|--------------------------|
--------------------------|--------------------------|
--------------------------|--------------------------|
--------------------------|--------------------------|
--------------------------|--------------------------|
--2--2--2--2--0--0--2--2--|--1--1--1--1--0--0--1--1--|


    D7M                                                  
    E   E  E  E  E  E  E  E     E  E  E  E  E  E  E  E   
|----------------------------|--------------------------|
|----------------------------|--------------------------|
|*---------6--------6--------|--------7--------7--------|
|*---------------------------|--------------------------|
|-------5--------5-----5--5--|-----6--------6-----6--6--|
|---2---------2--------------|--1--------1--------------|


  D7M                                                    
  E   E  E  E  E  E  E  E     E  E  E  E  E  E  E  E     
---------------------------|---------------------------||
---------------------------|---------------------------||
---------6--------6--------|--------7--------7--------*||
---------------------------|--------------------------*||
------5--------5-----5--5--|-----6--------6-----6--6---||
--2---------2--------------|--1--------1---------------||


  D7M                                                  
  E   E  E  E  E  E  E  E     E  E  E  E  E  E  E  E   
---------------------------|--------------------------|
---------------------------|--------------------------|
---------6--------6--------|--------7--------7--------|
---------------------------|--------------------------|
------5--------5-----5--5--|-----6--------6-----6--6--|
--2---------2--------------|--1--------1--------------|


  E  E  E  E  E  E  E  E     E  E  E  E  E  E  E  E   
--------------------------|--------------------------|
--------------------------|--------------------------|
--------------------------|--------------------------|
--------------------------|--------------------------|
--------------------------|--------------------------|
--2--2--2--2--0--0--2--2--|--1--1--1--1--0--0--1--1--|


  E  E  E  E  E  E  E  E     E  E  E  E  E  E  E  E   
--------------------------|--------------------------|
--------------------------|--------------------------|
--------------------------|--------------------------|
--------------------------|--------------------------|
--------------------------|--------------------------|
--2--2--2--2--0--0--2--2--|--1--1--1--1--0--0--1--1--|


  E  E  E  E  E  E  E  E     E  E  E  E  E  E  E  E   
--------------------------|--------------------------|
--------------------------|--------------------------|
--------------------------|--------------------------|
--------------------------|--------------------------|
--------------------------|--------------------------|
--2--2--2--2--0--0--2--2--|--1--1--1--1--0--0--1--1--|


  E  E  E  E  E  E  E  E     E  E  E  E  E  E  E  E   
--------------------------|--------------------------|
--------------------------|--------------------------|
--------------------------|--------------------------|
--------------------------|--------------------------|
--------------------------|--------------------------|
--2--2--2--2--0--0--2--2--|--1--1--1--1--0--0--1--1--|


  E  E  E  E  E  E  E  E     E  E  E  E  E  E  E  E   
--------------------------|--------------------------|
--------------------------|--------------------------|
--------------------------|--------------------------|
--------------------------|--------------------------|
--------------------------|--------------------------|
--2--2--2--2--0--0--2--2--|--1--1--1--1--0--0--1--1--|


    D7M                                                  
    E   E  E  E  E  E  E  E     E  E  E  E  E  E  E  E   
|----------------------------|--------------------------|
|----------------------------|--------------------------|
|*---------6--------6--------|--------7--------7--------|
|*---------------------------|--------------------------|
|-------5--------5-----5--5--|-----6--------6-----6--6--|
|---2---------2--------------|--1--------1--------------|


  D7M                                                    
  E   E  E  E  E  E  E  E     E  E  E  E  E  E  E  E     
---------------------------|---------------------------||
---------------------------|---------------------------||
---------6--------6--------|--------7--------7--------*||
---------------------------|--------------------------*||
------5--------5-----5--5--|-----6--------6-----6--6---||
--2---------2--------------|--1--------1---------------||


  D7M                                                  
  E   E  E  E  E  E  E  E     E  E  E  E  E  E  E  E   
---------------------------|--------------------------|
---------------------------|--------------------------|
---------6--------6--------|--------7--------7--------|
---------------------------|--------------------------|
------5--------5-----5--5--|-----6--------6-----6--6--|
--2---------2--------------|--1--------1--------------|


  E  E  E  E  E  E  E  E     E  E  E  E  E  E  E  E   
--------------------------|--------------------------|
--------------------------|--------------------------|
-----6-----7-----6-----7--|-----6-----7-----6-----7--|
--------------------------|--------------------------|
--5-----6-----5-----6-----|--5-----6-----5-----6-----|
--------------------------|--------------------------|


  E  E  E  E  E  E  E  E     E  E  E  E  E  E  E  E     W                  
--------------------------|--------------7-----------|-------------------||
--------------------------|-----------------6--------|-------------------||
-----6-----7-----6-----7--|-----6-----7--------5-----|-------------------||
--------------------------|--------------------------|-------------------||
--5-----6-----5-----6-----|--5-----6--------------2--|--L----------------||
--------------------------|-----------------------2--|--L----------------||




Duration Legend
---------------
W - whole
H - half
Q - quarter
E - 8th
S - 16th
T - 32nd
X - 64th
. - note dotted
|-n-|  - n-tuplets


Tablature Legend
----------------
L - tied note
h - hammer on
p - pull off
comments
We did not receive enough feedback on this tab! Please rate:
print report bad tab
1 2 3 4 5
I want to post or [tab]
guest
You may want to rate the tab now too:
select rating
Please do not post tabs as comments. Select "correction" instead!