Oops, an error
Loading. Please wait.

Calm The Storm - Youre Two Faced But Im Double Barreled Tab

113 views 1 this week
no commentswrite comment
1 2 3 4 5
please rate
Autoscroll
+/-
esc
set tempo
stop
Difficulty
intermediate
Hey! There's an official Ultimate Guitar app which is ideal
for learning songs when you're away from computer. Get the app
WARNING: You are trying to view
                                    content from Ultimate-Guitar.com
                                    in an unauthorized application,
                                    which is prohibited.

                                    Please use an official Ultimate
                                    Guitar Tabs application for iPhone,
                                    iPad or Android to access legitimate
                                    chords, guitar, bass, and drum tabs
                                    from Ultimate-Guitar.com database.

                                    Type "ultimate guitar tabs" in Apple
                                    App Store's or Android Market's
                                    search to find the application.
#----------------------------------PLEASE NOTE---------------------------------#
#This file is the author's own work and represents their interpretation of the #
#song. You may only use this file for private study, scholarship, or research. #
#------------------------------------------------------------------------------##


Gtr I (E A D G B E) - 'Untitled'
Gtr II (E A D G B E) - 'Untitled'

  Q=200
 4/4
  Gtr I
  E E E E E E E E   E E E E E E E E
|-----------------|-----------------|
|-----------------|-----------------|
|-----------------|-----------------|
|-9-9-9-9-9-9-9-9-|-5-5-5-5-5-5-5-5-|
|-7-7-7-7-7-7-7-7-|-3-3-3-3-3-3-3-3-|
|-----------------|-----------------|
|
| Gtr II
|-----------------|-----------------|
|-----------------|-----------------|
|-----------------|-----------------|
|-----------------|-----------------|
|-----------------|-----------------|
|-----------------|-----------------|
  W                 W


   E  E  E  E  E  E  E  E   E E E E E E E E
|-------------------------|------------------|
|-------------------------|------------------|
|-------------------------|------------------|
|-12-12-12-12-12-12-12-12-|-7-7-7-7-7-7-7-7--|
|-10-10-10-10-10-10-10-10-|-5-5-5-5-5-5-5-5--|
|-------------------------|------------------|
|
|-------------------------|------------------|
|-------------------------|------------------|
|-------------------------|------------------|
|-------------------------|------------------|
|-------------------------|------------------|
|-------------------------|------------------|
   W                        W


  Gtr I
  E E E E E E E E    E  E E E E E E E
|-----------------|-------------------|
|-----------------|-------------------|
|-----------------|-------------------|
|-9-9-9-9-9-9-9-9-|--5--5-5-5-5-5-5-5-|
|-7-7-7-7-7-7-7-7-|--3--3-3-3-3-3-3-3-|
|-----------------|-------------------|
|
| Gtr II
| W                 +W
|-----------------|-------------------|
|-----------------|-------------------|
|-----------------|-------------------|
|-9---------------|-(9)---------------|
|-7---------------|-(7)---------------|
|-----------------|-------------------|


   E   E  E  E  E  E  E  E    E  E E E E E E E
|--------------------------|-------------------|
|--------------------------|-------------------|
|--------------------------|-------------------|
|-12--12-12-12-12-12-12-12-|--7--7-7-7-7-7-7-7-|
|-10--10-10-10-10-10-10-10-|--5--5-5-5-5-5-5-5-|
|--------------------------|-------------------|
|
| +W                         +W
|--------------------------|-------------------|
|--------------------------|-------------------|
|--------------------------|-------------------|
|-(9)----------------------|-(9)---------------|
|-(7)----------------------|-(7)---------------|
|--------------------------|-------------------|


  E E E E E E E E   E E E E E E E E
|-----------------|-----------------|
|-----------------|-----------------|
|-----------------|-----------------|
|-9-9-9-9-9-9-9-9-|-5-5-5-5-5-5-5-5-|
|-7-7-7-7-7-7-7-7-|-3-3-3-3-3-3-3-3-|
|-----------------|-----------------|
|
| E E E E E E E E   E E E E E E E E
|-----------------|-----------------|
|-----------------|-----------------|
|-----------------|-----------------|
|-9-9-9-9-9-9-9-9-|-5-5-5-5-5-5-5-5-|
|-7-7-7-7-7-7-7-7-|-3-3-3-3-3-3-3-3-|
|-----------------|-----------------|


   E  E  E  E  E  E  E  E   E E E E E E E E
|-------------------------|-----------------|----|
|-------------------------|-----------------|----|
|-------------------------|-----------------|----|
|-12-12-12-12-12-12-12-12-|-7-7-7-7-7-7-7-7-|----|
|-10-10-10-10-10-10-10-10-|-5-5-5-5-5-5-5-5-|----|
|-------------------------|-----------------|----|
|
|  E  E  E  E  E  E  E  E   E E E E E E E E
|-------------------------|-----------------|----|
|-------------------------|-----------------|----|
|-------------------------|-----------------|----|
|-12-12-12-12-12-12-12-12-|-7-7-7-7-7-7-7-7-|----|
|-10-10-10-10-10-10-10-10-|-5-5-5-5-5-5-5-5-|----|
|-------------------------|-----------------|----|


  E E E E E E E E   E E E E E E E E
|-----------------|-----------------|
|-----------------|-----------------|
|-----------------|-----------------|
|-9-9-9-9-9-9-9-9-|-5-5-5-5-5-5-5-5-|
|-7-7-7-7-7-7-7-7-|-3-3-3-3-3-3-3-3-|
|-----------------|-----------------|
|
| E E E E E E E E   E E E E E E E E
|-----------------|-----------------|
|-----------------|-----------------|
|-----------------|-----------------|
|-9-9-9-9-9-9-9-9-|-5-5-5-5-5-5-5-5-|
|-7-7-7-7-7-7-7-7-|-3-3-3-3-3-3-3-3-|
|-----------------|-----------------|


   E  E  E  E  E  E  E  E   E E E E E E E E
|-------------------------|-----------------|
|-------------------------|-----------------|
|-------------------------|-----------------|
|-12-12-12-12-12-12-12-12-|-7-7-7-7-7-7-7-7-|
|-10-10-10-10-10-10-10-10-|-5-5-5-5-5-5-5-5-|
|-------------------------|-----------------|
|
|  E  E  E  E  E  E  E  E   E E E E E E E E
|-------------------------|-----------------|
|-------------------------|-----------------|
|-------------------------|-----------------|
|-12-12-12-12-12-12-12-12-|-7-7-7-7-7-7-7-7-|
|-10-10-10-10-10-10-10-10-|-5-5-5-5-5-5-5-5-|
|-------------------------|-----------------|


  E E E E E E E E   E E E E E E E E
|-----------------|-----------------|
|-----------------|-----------------|
|-----------------|-----------------|
|-9-9-9-9-9-9-9-9-|-5-5-5-5-5-5-5-5-|
|-7-7-7-7-7-7-7-7-|-3-3-3-3-3-3-3-3-|
|-----------------|-----------------|
|
| E E E E E E E E   E E E E E E E E
|-----------------|-----------------|
|-----------------|-----------------|
|-----------------|-----------------|
|-9-9-9-9-9-9-9-9-|-5-5-5-5-5-5-5-5-|
|-7-7-7-7-7-7-7-7-|-3-3-3-3-3-3-3-3-|
|-----------------|-----------------|


   E  E  E  E  E  E  E  E   E E E E E E E E
|-------------------------|-----------------|
|-------------------------|-----------------|
|-------------------------|-----------------|
|-12-12-12-12-12-12-12-12-|-7-7-7-7-7-7-7-7-|
|-10-10-10-10-10-10-10-10-|-5-5-5-5-5-5-5-5-|
|-------------------------|-----------------|
|
|  E  E  E  E  E  E  E  E   E E E E E E E E
|-------------------------|-----------------|
|-------------------------|-----------------|
|-------------------------|-----------------|
|-12-12-12-12-12-12-12-12-|-7-7-7-7-7-7-7-7-|
|-10-10-10-10-10-10-10-10-|-5-5-5-5-5-5-5-5-|
|-------------------------|-----------------|


  E E E E E E E E   E E E E E E E E
|-----------------|-----------------|
|-----------------|-----------------|
|-----------------|-----------------|
|-9-9-9-9-9-9-9-9-|-5-5-5-5-5-5-5-5-|
|-7-7-7-7-7-7-7-7-|-3-3-3-3-3-3-3-3-|
|-----------------|-----------------|
|
| E E E E E E E E   E E E E E E E E
|-----------------|-----------------|
|-----------------|-----------------|
|-----------------|-----------------|
|-9-9-9-9-9-9-9-9-|-5-5-5-5-5-5-5-5-|
|-7-7-7-7-7-7-7-7-|-3-3-3-3-3-3-3-3-|
|-----------------|-----------------|


   E  E  E  E  E  E  E  E   E E E E E E E E
|-------------------------|-----------------|
|-------------------------|-----------------|
|-------------------------|-----------------|
|-12-12-12-12-12-12-12-12-|-7-7-7-7-7-7-7-7-|
|-10-10-10-10-10-10-10-10-|-5-5-5-5-5-5-5-5-|
|-------------------------|-----------------|
|
|  E  E  E  E  E  E  E  E   E E E E E E E E
|-------------------------|-----------------|
|-------------------------|-----------------|
|-------------------------|-----------------|
|-12-12-12-12-12-12-12-12-|-7-7-7-7-7-7-7-7-|
|-10-10-10-10-10-10-10-10-|-5-5-5-5-5-5-5-5-|
|-------------------------|-----------------|


     PM--------------------------|      PM--------------------------|
  Q  E E E E E E   E E E E E E E E   Q  E E E E E E   E E E E E E E E
|----------------|-----------------|----------------|-----------------|
|----------------|-----------------|----------------|-----------------|
|----------------|-----------------|----------------|-----------------|
|-9--9-9-9-9-9-9-|-9-9-9-9-9-9-9-9-|-5--5-5-5-5-5-5-|-5-5-5-5-5-5-5-5-|
|-7--7-7-7-7-7-7-|-7-7-7-7-7-7-7-7-|-3--3-3-3-3-3-3-|-3-3-3-3-3-3-3-3-|
|----------------|-----------------|----------------|-----------------|
|
|----------------|-----------------|----------------|-----------------|
|----------------|-----------------|----------------|-----------------|
|----------------|-----------------|----------------|-----------------|
|----------------|-----------------|----------------|-----------------|
|----------------|-----------------|----------------|-----------------|
|----------------|-----------------|----------------|-----------------|
       W                 W                W               W


  Q  E E E E E E   E E E E E E E E   Q  E E E E E E   E E E E E E E E
|----------------|-----------------|----------------|-----------------|
|----------------|-----------------|----------------|-----------------|
|----------------|-----------------|----------------|-----------------|
|-7--7-7-7-7-7-7-|-7-7-7-7-7-7-7-7-|----------------|-----------------|
|-5--5-5-5-5-5-5-|-5-5-5-5-5-5-5-5-|-9--9-9-9-9-9-9-|-9-9-9-9-9-9-9-9-|
|----------------|-----------------|-7--7-7-7-7-7-7-|-7-7-7-7-7-7-7-7-|
|
|----------------|-----------------|----------------|-----------------|
|----------------|-----------------|----------------|-----------------|
|----------------|-----------------|----------------|-----------------|
|----------------|-----------------|----------------|-----------------|
|----------------|-----------------|----------------|-----------------|
|----------------|-----------------|----------------|-----------------|
       W                     W              W               W


      PM--------------------------|      PM--------------------------|
  Q   E E E E E E   E E E E E E E E   Q  E E E E E E   E E E E E E E E
|-----------------|-----------------|----------------|-----------------|
|-----------------|-----------------|----------------|-----------------|
|-----------------|-----------------|----------------|-----------------|
|-9---9-9-9-9-9-9-|-9-9-9-9-9-9-9-9-|-5--5-5-5-5-5-5-|-5-5-5-5-5-5-5-5-|
|-7---7-7-7-7-7-7-|-7-7-7-7-7-7-7-7-|-3--3-3-3-3-3-3-|-3-3-3-3-3-3-3-3-|
|-----------------|-----------------|----------------|-----------------|
|
|-----------------|-----------------|----------------|-----------------|
|-----------------|-----------------|----------------|-----------------|
|-----------------|-----------------|----------------|-----------------|
|-----------------|-----------------|----------------|-----------------|
|-----------------|-----------------|----------------|-----------------|
|-----------------|-----------------|----------------|-----------------|
    W                   W                    W             W


     PM--------------------------|      PM--------------------------|
  Q  E E E E E E   E E E E E E E E   Q  E E E E E E   E E E E E E E E
|----------------|-----------------|----------------|-----------------|
|----------------|-----------------|----------------|-----------------|
|----------------|-----------------|----------------|-----------------|
|-7--7-7-7-7-7-7-|-7-7-7-7-7-7-7-7-|----------------|-----------------|
|-5--5-5-5-5-5-5-|-5-5-5-5-5-5-5-5-|-9--9-9-9-9-9-9-|-9-9-9-9-9-9-9-9-|
|----------------|-----------------|-7--7-7-7-7-7-7-|-7-7-7-7-7-7-7-7-|
|
|----------------|-----------------|----------------|-----------------|
|----------------|-----------------|----------------|-----------------|
|----------------|-----------------|----------------|-----------------|
|----------------|-----------------|----------------|-----------------|
|----------------|-----------------|----------------|-----------------|
|----------------|-----------------|----------------|-----------------|
         W               W                  W               W


  E E E E E E E E   E E E E E E E E   E E E E E E E E   E E E E E E E E
|-----------------|-----------------|-----------------|-----------------|
|-----------------|-----------------|-----------------|-----------------|
|-----------------|-----------------|-----------------|-----------------|
|-9-9-9-9-9-9-9-9-|-9-9-9-9-9-9-9-9-|-5-5-5-5-5-5-5-5-|-5-5-5-5-5-5-5-5-|
|-7-7-7-7-7-7-7-7-|-7-7-7-7-7-7-7-7-|-3-3-3-3-3-3-3-3-|-3-3-3-3-3-3-3-3-|
|-----------------|-----------------|-----------------|-----------------|
|
| E E E E E E E E   E E E E E E E E   E E E E E E E E   E E E E E E E E
|-----------------|-----------------|-----------------|-----------------|
|-----------------|-----------------|-----------------|-----------------|
|-----------------|-----------------|-----------------|-----------------|
|-9-9-9-9-9-9-9-9-|-9-9-9-9-9-9-9-9-|-5-5-5-5-5-5-5-5-|-5-5-5-5-5-5-5-5-|
|-7-7-7-7-7-7-7-7-|-7-7-7-7-7-7-7-7-|-3-3-3-3-3-3-3-3-|-3-3-3-3-3-3-3-3-|
|-----------------|-----------------|-----------------|-----------------|


  E E E E E E E E   E E E E E E E E   E E E E E E E E   E E E E E E E E
|-----------------|-----------------|-----------------|-----------------|
|-----------------|-----------------|-----------------|-----------------|
|-----------------|-----------------|-----------------|-----------------|
|-7-7-7-7-7-7-7-7-|-7-7-7-7-7-7-7-7-|-----------------|-----------------|
|-5-5-5-5-5-5-5-5-|-5-5-5-5-5-5-5-5-|-9-9-9-9-9-9-9-9-|-9-9-9-9-9-9-9-9-|
|-----------------|-----------------|-7-7-7-7-7-7-7-7-|-7-7-7-7-7-7-7-7-|
|
| E E E E E E E E   E E E E E E E E   E E E E E E E E   E E E E E E E E
|-----------------|-----------------|-----------------|-----------------|
|-----------------|-----------------|-----------------|-----------------|
|-----------------|-----------------|-----------------|-----------------|
|-7-7-7-7-7-7-7-7-|-7-7-7-7-7-7-7-7-|-----------------|-----------------|
|-5-5-5-5-5-5-5-5-|-5-5-5-5-5-5-5-5-|-9-9-9-9-9-9-9-9-|-9-9-9-9-9-9-9-9-|
|-----------------|-----------------|-7-7-7-7-7-7-7-7-|-7-7-7-7-7-7-7-7-|


  E E E E E E E E   E E E E E E E E   E E E E E E E E   E E E E E E E E
|-----------------|-----------------|-----------------|-----------------|
|-----------------|-----------------|-----------------|-----------------|
|-----------------|-----------------|-----------------|-----------------|
|-9-9-9-9-9-9-9-9-|-9-9-9-9-9-9-9-9-|-5-5-5-5-5-5-5-5-|-5-5-5-5-5-5-5-5-|
|-7-7-7-7-7-7-7-7-|-7-7-7-7-7-7-7-7-|-3-3-3-3-3-3-3-3-|-3-3-3-3-3-3-3-3-|
|-----------------|-----------------|-----------------|-----------------|
|
| E E E E E E E E   E E E E E E E E   E E E E E E E E   E E E E E E E E
|-----------------|-----------------|-----------------|-----------------|
|-----------------|-----------------|-----------------|-----------------|
|-----------------|-----------------|-----------------|-----------------|
|-9-9-9-9-9-9-9-9-|-9-9-9-9-9-9-9-9-|-5-5-5-5-5-5-5-5-|-5-5-5-5-5-5-5-5-|
|-7-7-7-7-7-7-7-7-|-7-7-7-7-7-7-7-7-|-3-3-3-3-3-3-3-3-|-3-3-3-3-3-3-3-3-|
|-----------------|-----------------|-----------------|-----------------|


  E E E E E E E E   E E E E E E E E   E E E E E E E E   E E E E E E E E
|-----------------|-----------------|-----------------|-----------------|
|-----------------|-----------------|-----------------|-----------------|
|-----------------|-----------------|-----------------|-----------------|
|-7-7-7-7-7-7-7-7-|-7-7-7-7-7-7-7-7-|-----------------|-----------------|
|-5-5-5-5-5-5-5-5-|-5-5-5-5-5-5-5-5-|-9-9-9-9-9-9-9-9-|-9-9-9-9-9-9-9-9-|
|-----------------|-----------------|-7-7-7-7-7-7-7-7-|-7-7-7-7-7-7-7-7-|
|
| E E E E E E E E   E E E E E E E E   E E E E E E E E   E E E E E E E E
|-----------------|-----------------|-----------------|-----------------|
|-----------------|-----------------|-----------------|-----------------|
|-----------------|-----------------|-----------------|-----------------|
|-7-7-7-7-7-7-7-7-|-7-7-7-7-7-7-7-7-|-----------------|-----------------|
|-5-5-5-5-5-5-5-5-|-5-5-5-5-5-5-5-5-|-9-9-9-9-9-9-9-9-|-9-9-9-9-9-9-9-9-|
|-----------------|-----------------|-7-7-7-7-7-7-7-7-|-7-7-7-7-7-7-7-7-|


  E E E E E E E E   E E E E E E E E
|-----------------|-----------------|
|-----------------|-----------------|
|-----------------|-----------------|
|-9-9-9-9-9-9-9-9-|-5-5-5-5-5-5-5-5-|
|-7-7-7-7-7-7-7-7-|-3-3-3-3-3-3-3-3-|
|-----------------|-----------------|
|
| E E E E E E E E   E E E E E E E E
|-----------------|-----------------|
|-----------------|-----------------|
|-----------------|-----------------|
|-9-9-9-9-9-9-9-9-|-5-5-5-5-5-5-5-5-|
|-7-7-7-7-7-7-7-7-|-3-3-3-3-3-3-3-3-|
|-----------------|-----------------|


   E  E  E  E  E  E  E  E   E E E E E E E E
|-------------------------|-----------------|
|-------------------------|-----------------|
|-------------------------|-----------------|
|-12-12-12-12-12-12-12-12-|-7-7-7-7-7-7-7-7-|
|-10-10-10-10-10-10-10-10-|-5-5-5-5-5-5-5-5-|
|-------------------------|-----------------|
|
|  E  E  E  E  E  E  E  E   E E E E E E E E
|-------------------------|-----------------|
|-------------------------|-----------------|
|-------------------------|-----------------|
|-12-12-12-12-12-12-12-12-|-7-7-7-7-7-7-7-7-|
|-10-10-10-10-10-10-10-10-|-5-5-5-5-5-5-5-5-|
|-------------------------|-----------------|


  E E E E E E E E   E E E E E E E E
|-----------------|-----------------|
|-----------------|-----------------|
|-----------------|-----------------|
|-9-9-9-9-9-9-9-9-|-5-5-5-5-5-5-5-5-|
|-7-7-7-7-7-7-7-7-|-3-3-3-3-3-3-3-3-|
|-----------------|-----------------|
|
| E E E E E E E E   E E E E E E E E
|-----------------|-----------------|
|-----------------|-----------------|
|-----------------|-----------------|
|-9-9-9-9-9-9-9-9-|-5-5-5-5-5-5-5-5-|
|-7-7-7-7-7-7-7-7-|-3-3-3-3-3-3-3-3-|
|-----------------|-----------------|


   E  E  E  E  E  E  E  E   E E E E E E E E
|-------------------------|-----------------|
|-------------------------|-----------------|
|-------------------------|-----------------|
|-12-12-12-12-12-12-12-12-|-7-7-7-7-7-7-7-7-|
|-10-10-10-10-10-10-10-10-|-5-5-5-5-5-5-5-5-|
|-------------------------|-----------------|
|
|  E  E  E  E  E  E  E  E   E E E E E E E E
|-------------------------|-----------------|
|-------------------------|-----------------|
|-------------------------|-----------------|
|-12-12-12-12-12-12-12-12-|-7-7-7-7-7-7-7-7-|
|-10-10-10-10-10-10-10-10-|-5-5-5-5-5-5-5-5-|
|-------------------------|-----------------|


     PM----------------------------|      PM--------------------------|
  Q  E E E E E E   S S E E E E E E E   Q  E E E E E E   S S E E E E E E E
|----------------|-------------------|----------------|-------------------|
|----------------|-------------------|----------------|-------------------|
|----------------|-------------------|----------------|-------------------|
|-9--9-9-9-9-9-9-|-9-9-9-9-9-9-9-9-9-|-5--5-5-5-5-5-5-|-5-5-5-5-5-5-5-5-5-|
|-7--7-7-7-7-7-7-|-7-7-7-7-7-7-7-7-7-|-3--3-3-3-3-3-3-|-3-3-3-3-3-3-3-3-3-|
|----------------|-------------------|----------------|-------------------|
|
|----------------|-------------------|----------------|-------------------|
|----------------|-------------------|----------------|-------------------|
|----------------|-------------------|----------------|-------------------|
|----------------|-------------------|----------------|-------------------|
|----------------|-------------------|----------------|-------------------|
|----------------|-------------------|----------------|-------------------|
  W                W                   W                W


     PM----------------------------|      PM--------------------------|
  Q  E E E E E E   S S E E E E E E E   Q  E E E E E E   S S E E E E E E E
|----------------|-------------------|----------------|-------------------|
|----------------|-------------------|----------------|-------------------|
|----------------|-------------------|----------------|-------------------|
|-7--7-7-7-7-7-7-|-7-7-7-7-7-7-7-7-7-|----------------|-------------------|
|-5--5-5-5-5-5-5-|-5-5-5-5-5-5-5-5-5-|-9--9-9-9-9-9-9-|-9-9-9-9-9-9-9-9-9-|
|----------------|-------------------|-7--7-7-7-7-7-7-|-7-7-7-7-7-7-7-7-7-|
|
|----------------|-------------------|----------------|-------------------|
|----------------|-------------------|----------------|-------------------|
|----------------|-------------------|----------------|-------------------|
|----------------|-------------------|----------------|-------------------|
|----------------|-------------------|----------------|-------------------|
|----------------|-------------------|----------------|-------------------|


     PM----------------------------|      PM--------------------------|
  Q  E E E E E E   S S E E E E E E E   Q  E E E E E E   S S E E E E E E E
|----------------|-------------------|----------------|-------------------|
|----------------|-------------------|----------------|-------------------|
|----------------|-------------------|----------------|-------------------|
|-9--9-9-9-9-9-9-|-9-9-9-9-9-9-9-9-9-|-5--5-5-5-5-5-5-|-5-5-5-5-5-5-5-5-5-|
|-7--7-7-7-7-7-7-|-7-7-7-7-7-7-7-7-7-|-3--3-3-3-3-3-3-|-3-3-3-3-3-3-3-3-3-|
|----------------|-------------------|----------------|-------------------|
|
|----------------|-------------------|----------------|-------------------|
|----------------|-------------------|----------------|-------------------|
|----------------|-------------------|----------------|-------------------|
|----------------|-------------------|----------------|-------------------|
|----------------|-------------------|----------------|-------------------|
|----------------|-------------------|----------------|-------------------|
  W                W                   W                W


     PM----------------------------|      PM--------------------------|
  Q  E E E E E E   S S E E E E E E E   Q  E E E E E E   S S E E E E E E E
|----------------|-------------------|----------------|-------------------|
|----------------|-------------------|----------------|-------------------|
|----------------|-------------------|----------------|-------------------|
|-7--7-7-7-7-7-7-|-7-7-7-7-7-7-7-7-7-|----------------|-------------------|
|-5--5-5-5-5-5-5-|-5-5-5-5-5-5-5-5-5-|-9--9-9-9-9-9-9-|-9-9-9-9-9-9-9-9-9-|
|----------------|-------------------|-7--7-7-7-7-7-7-|-7-7-7-7-7-7-7-7-7-|
|
|----------------|-------------------|----------------|-------------------|
|----------------|-------------------|----------------|-------------------|
|----------------|-------------------|----------------|-------------------|
|----------------|-------------------|----------------|-------------------|
|----------------|-------------------|----------------|-------------------|
|----------------|-------------------|----------------|-------------------|
  W                W                   W                W


  E E E E E E E E   E E E E E E E E   E E E E E E E E   E E E E E E E E
|-----------------|-----------------|-----------------|-----------------|
|-----------------|-----------------|-----------------|-----------------|
|-----------------|-----------------|-----------------|-----------------|
|-9-9-9-9-9-9-9-9-|-9-9-9-9-9-9-9-9-|-5-5-5-5-5-5-5-5-|-5-5-5-5-5-5-5-5-|
|-7-7-7-7-7-7-7-7-|-7-7-7-7-7-7-7-7-|-3-3-3-3-3-3-3-3-|-3-3-3-3-3-3-3-3-|
|-----------------|-----------------|-----------------|-----------------|
|
| E E E E E E E E   E E E E E E E E   E E E E E E E E   E E E E E E E E
|-----------------|-----------------|-----------------|-----------------|
|-----------------|-----------------|-----------------|-----------------|
|-----------------|-----------------|-----------------|-----------------|
|-9-9-9-9-9-9-9-9-|-9-9-9-9-9-9-9-9-|-5-5-5-5-5-5-5-5-|-5-5-5-5-5-5-5-5-|
|-7-7-7-7-7-7-7-7-|-7-7-7-7-7-7-7-7-|-3-3-3-3-3-3-3-3-|-3-3-3-3-3-3-3-3-|
|-----------------|-----------------|-----------------|-----------------|


  E E E E E E E E   E E E E E E E E   E E E E E E E E   E E E E E E E E
|-----------------|-----------------|-----------------|-----------------|
|-----------------|-----------------|-----------------|-----------------|
|-----------------|-----------------|-----------------|-----------------|
|-7-7-7-7-7-7-7-7-|-7-7-7-7-7-7-7-7-|-----------------|-----------------|
|-5-5-5-5-5-5-5-5-|-5-5-5-5-5-5-5-5-|-9-9-9-9-9-9-9-9-|-9-9-9-9-9-9-9-9-|
|-----------------|-----------------|-7-7-7-7-7-7-7-7-|-7-7-7-7-7-7-7-7-|
|
| E E E E E E E E   E E E E E E E E   E E E E E E E E   E E E E E E E E
|-----------------|-----------------|-----------------|-----------------|
|-----------------|-----------------|-----------------|-----------------|
|-----------------|-----------------|-----------------|-----------------|
|-7-7-7-7-7-7-7-7-|-7-7-7-7-7-7-7-7-|-----------------|-----------------|
|-5-5-5-5-5-5-5-5-|-5-5-5-5-5-5-5-5-|-9-9-9-9-9-9-9-9-|-9-9-9-9-9-9-9-9-|
|-----------------|-----------------|-7-7-7-7-7-7-7-7-|-7-7-7-7-7-7-7-7-|


  E E E E E E E E   E E E E E E E E   E E E E E E E E   E E E E E E E E
|-----------------|-----------------|-----------------|-----------------|
|-----------------|-----------------|-----------------|-----------------|
|-----------------|-----------------|-----------------|-----------------|
|-9-9-9-9-9-9-9-9-|-9-9-9-9-9-9-9-9-|-5-5-5-5-5-5-5-5-|-5-5-5-5-5-5-5-5-|
|-7-7-7-7-7-7-7-7-|-7-7-7-7-7-7-7-7-|-3-3-3-3-3-3-3-3-|-3-3-3-3-3-3-3-3-|
|-----------------|-----------------|-----------------|-----------------|
|
| E E E E E E E E   E E E E E E E E   E E E E E E E E   E E E E E E E E
|-----------------|-----------------|-----------------|-----------------|
|-----------------|-----------------|-----------------|-----------------|
|-----------------|-----------------|-----------------|-----------------|
|-9-9-9-9-9-9-9-9-|-9-9-9-9-9-9-9-9-|-5-5-5-5-5-5-5-5-|-5-5-5-5-5-5-5-5-|
|-7-7-7-7-7-7-7-7-|-7-7-7-7-7-7-7-7-|-3-3-3-3-3-3-3-3-|-3-3-3-3-3-3-3-3-|
|-----------------|-----------------|-----------------|-----------------|


  E E E E E E E E   E E E E E E E E   E E E E E E E E   E E E E E E E E
|-----------------|-----------------|-----------------|-----------------|
|-----------------|-----------------|-----------------|-----------------|
|-----------------|-----------------|-----------------|-----------------|
|-7-7-7-7-7-7-7-7-|-7-7-7-7-7-7-7-7-|-----------------|-----------------|
|-5-5-5-5-5-5-5-5-|-5-5-5-5-5-5-5-5-|-9-9-9-9-9-9-9-9-|-9-9-9-9-9-9-9-9-|
|-----------------|-----------------|-7-7-7-7-7-7-7-7-|-7-7-7-7-7-7-7-7-|
|
| E E E E E E E E   E E E E E E E E   E E E E E E E E   E E E E E E E E
|-----------------|-----------------|-----------------|-----------------|
|-----------------|-----------------|-----------------|-----------------|
|-----------------|-----------------|-----------------|-----------------|
|-7-7-7-7-7-7-7-7-|-7-7-7-7-7-7-7-7-|-----------------|-----------------|
|-5-5-5-5-5-5-5-5-|-5-5-5-5-5-5-5-5-|-9-9-9-9-9-9-9-9-|-9-9-9-9-9-9-9-9-|
|-----------------|-----------------|-7-7-7-7-7-7-7-7-|-7-7-7-7-7-7-7-7-|


  W          +W           W          +W
|----------|------------|----------|--------|
|----------|------------|----------|--------|
|----------|------------|----------|--------|
|-9--------|-(9)--------|-5--------|-(5)----|
|-7--------|-(7)--------|-3--------|-(3)----|
|----------|------------|----------|--------|
|
| W          +W           W          +W
|----------|------------|----------|--------|
|----------|------------|----------|--------|
|----------|------------|----------|--------|
|-9--------|-(9)--------|-5--------|-(5)----|
|-7--------|-(7)--------|-3--------|-(3)----|
|----------|------------|----------|--------|


   W           +W           W          +W
|-----------|-------------|----------|--------|
|-----------|-------------|----------|--------|
|-----------|-------------|----------|--------|
|-12--------|-(12)--------|-7--------|-(7)----|
|-10--------|-(10)--------|-5--------|-(5)----|
|-----------|-------------|----------|--------|
|
|  W           +W           W          +W
|-----------|-------------|----------|--------|
|-----------|-------------|----------|--------|
|-----------|-------------|----------|--------|
|-12--------|-(12)--------|-7--------|-(7)----|
|-10--------|-(10)--------|-5--------|-(5)----|
|-----------|-------------|----------|--------|


  W          +W           W          +W
|----------|------------|----------|--------|
|----------|------------|----------|--------|
|----------|------------|----------|--------|
|-9--------|-(9)--------|-5--------|-(5)----|
|-7--------|-(7)--------|-3--------|-(3)----|
|----------|------------|----------|--------|
|
| W          +W           W          +W
|----------|------------|----------|--------|
|----------|------------|----------|--------|
|----------|------------|----------|--------|
|-9--------|-(9)--------|-5--------|-(5)----|
|-7--------|-(7)--------|-3--------|-(3)----|
|----------|------------|----------|--------|


   W           +W           W          +W
|-----------|-------------|----------|--------|
|-----------|-------------|----------|--------|
|-----------|-------------|----------|--------|
|-12--------|-(12)--------|-7--------|-(7)----|
|-10--------|-(10)--------|-5--------|-(5)----|
|-----------|-------------|----------|--------|
|
|  W           +W           W          +W
|-----------|-------------|----------|--------|
|-----------|-------------|----------|--------|
|-----------|-------------|----------|--------|
|-12--------|-(12)--------|-7--------|-(7)----|
|-10--------|-(10)--------|-5--------|-(5)----|
|-----------|-------------|----------|--------|


  E E E E E E E E   E E E E E E E E
|-----------------|-----------------|
|-----------------|-----------------|
|-----------------|-----------------|
|-9-9-9-9-9-9-9-9-|-5-5-5-5-5-5-5-5-|
|-7-7-7-7-7-7-7-7-|-3-3-3-3-3-3-3-3-|
|-----------------|-----------------|
|
| E E E E E E E E   E E E E E E E E
|-----------------|-----------------|
|-----------------|-----------------|
|-----------------|-----------------|
|-9-9-9-9-9-9-9-9-|-5-5-5-5-5-5-5-5-|
|-7-7-7-7-7-7-7-7-|-3-3-3-3-3-3-3-3-|
|-----------------|-----------------|


   E  E  E  E  E  E  E  E   E E E E E E E E
|-------------------------|-----------------|----|
|-------------------------|-----------------|----|
|-------------------------|-----------------|----|
|-12-12-12-12-12-12-12-12-|-7-7-7-7-7-7-7-7-|----|
|-10-10-10-10-10-10-10-10-|-5-5-5-5-5-5-5-5-|----|
|-------------------------|-----------------|----|
|
|  E  E  E  E  E  E  E  E   E E E E E E E E
|-------------------------|-----------------|----|
|-------------------------|-----------------|----|
|-------------------------|-----------------|----|
|-12-12-12-12-12-12-12-12-|-7-7-7-7-7-7-7-7-|----|
|-10-10-10-10-10-10-10-10-|-5-5-5-5-5-5-5-5-|----|
|-------------------------|-----------------|----|


  E E E E E E E E   E E E E E E E E
|-----------------|-----------------|
|-----------------|-----------------|
|-----------------|-----------------|
|-9-9-9-9-9-9-9-9-|-5-5-5-5-5-5-5-5-|
|-7-7-7-7-7-7-7-7-|-3-3-3-3-3-3-3-3-|
|-----------------|-----------------|
|
| E E E E E E E E   E E E E E E E E
|-----------------|-----------------|
|-----------------|-----------------|
|-----------------|-----------------|
|-9-9-9-9-9-9-9-9-|-5-5-5-5-5-5-5-5-|
|-7-7-7-7-7-7-7-7-|-3-3-3-3-3-3-3-3-|
|-----------------|-----------------|


   E  E  E  E  E  E  E  E   E E E E E E E E
|-------------------------|-----------------|
|-------------------------|-----------------|
|-------------------------|-----------------|
|-12-12-12-12-12-12-12-12-|-7-7-7-7-7-7-7-7-|
|-10-10-10-10-10-10-10-10-|-5-5-5-5-5-5-5-5-|
|-------------------------|-----------------|
|
|  E  E  E  E  E  E  E  E   E E E E E E E E
|-------------------------|-----------------|
|-------------------------|-----------------|
|-------------------------|-----------------|
|-12-12-12-12-12-12-12-12-|-7-7-7-7-7-7-7-7-|
|-10-10-10-10-10-10-10-10-|-5-5-5-5-5-5-5-5-|
|-------------------------|-----------------|


  E E E E E E E E   E E E E E E E E
|-----------------|-----------------|
|-----------------|-----------------|
|-----------------|-----------------|
|-9-9-9-9-9-9-9-9-|-5-5-5-5-5-5-5-5-|
|-7-7-7-7-7-7-7-7-|-3-3-3-3-3-3-3-3-|
|-----------------|-----------------|
|
| E E E E E E E E   E E E E E E E E
|-----------------|-----------------|
|-----------------|-----------------|
|-----------------|-----------------|
|-9-9-9-9-9-9-9-9-|-5-5-5-5-5-5-5-5-|
|-7-7-7-7-7-7-7-7-|-3-3-3-3-3-3-3-3-|
|-----------------|-----------------|


   E  E  E  E  E  E  E  E   E E E E E E E E
|-------------------------|-----------------|
|-------------------------|-----------------|
|-------------------------|-----------------|
|-12-12-12-12-12-12-12-12-|-7-7-7-7-7-7-7-7-|
|-10-10-10-10-10-10-10-10-|-5-5-5-5-5-5-5-5-|
|-------------------------|-----------------|
|
|  E  E  E  E  E  E  E  E   E E E E E E E E
|-------------------------|-----------------|
|-------------------------|-----------------|
|-------------------------|-----------------|
|-12-12-12-12-12-12-12-12-|-7-7-7-7-7-7-7-7-|
|-10-10-10-10-10-10-10-10-|-5-5-5-5-5-5-5-5-|
|-------------------------|-----------------|


  E E E E E E E E   E E E E E E E E
|-----------------|-----------------|
|-----------------|-----------------|
|-----------------|-----------------|
|-9-9-9-9-9-9-9-9-|-5-5-5-5-5-5-5-5-|
|-7-7-7-7-7-7-7-7-|-3-3-3-3-3-3-3-3-|
|-----------------|-----------------|
|
| E E E E E E E E   E E E E E E E E
|-----------------|-----------------|
|-----------------|-----------------|
|-----------------|-----------------|
|-9-9-9-9-9-9-9-9-|-5-5-5-5-5-5-5-5-|
|-7-7-7-7-7-7-7-7-|-3-3-3-3-3-3-3-3-|
|-----------------|-----------------|


   E  E  E  E  E  E  E  E   E E E E E E E E
|-------------------------|-----------------|
|-------------------------|-----------------|
|-------------------------|-----------------|
|-12-12-12-12-12-12-12-12-|-7-7-7-7-7-7-7-7-|
|-10-10-10-10-10-10-10-10-|-5-5-5-5-5-5-5-5-|
|-------------------------|-----------------|
|
|  E  E  E  E  E  E  E  E   E E E E E E E E
|-------------------------|-----------------|
|-------------------------|-----------------|
|-------------------------|-----------------|
|-12-12-12-12-12-12-12-12-|-7-7-7-7-7-7-7-7-|
|-10-10-10-10-10-10-10-10-|-5-5-5-5-5-5-5-5-|
|-------------------------|-----------------|


  E E E E E E E E   E E E E E E E E
|-----------------|-----------------|
|-----------------|-----------------|
|-----------------|-----------------|
|-9-9-9-9-9-9-9-9-|-5-5-5-5-5-5-5-5-|
|-7-7-7-7-7-7-7-7-|-3-3-3-3-3-3-3-3-|
|-----------------|-----------------|
|
|-----------------|-----------------|
|-----------------|-----------------|
|-----------------|-----------------|
|-----------------|-----------------|
|-----------------|-----------------|
|-----------------|-----------------|


   E  E  E  E  E  E  E  E   E E E E E E E E
|-------------------------|-----------------|
|-------------------------|-----------------|
|-------------------------|-----------------|
|-12-12-12-12-12-12-12-12-|-7-7-7-7-7-7-7-7-|
|-10-10-10-10-10-10-10-10-|-5-5-5-5-5-5-5-5-|
|-------------------------|-----------------|
|
|-------------------------|-----------------|
|-------------------------|-----------------|
|-------------------------|-----------------|
|-------------------------|-----------------|
|-------------------------|-----------------|
|-------------------------|-----------------|


  E E E E E E E E   E E E E E E E E
|-----------------|-----------------|
|-----------------|-----------------|
|-----------------|-----------------|
|-9-9-9-9-9-9-9-9-|-5-5-5-5-5-5-5-5-|
|-7-7-7-7-7-7-7-7-|-3-3-3-3-3-3-3-3-|
|-----------------|-----------------|
|
|-----------------|-----------------|
|-----------------|-----------------|
|-----------------|-----------------|
|-----------------|-----------------|
|-----------------|-----------------|
|-----------------|-----------------|


   E  E  E  E  E  E  E  E   E E E E E E E E
|-------------------------|-----------------|
|-------------------------|-----------------|
|-------------------------|-----------------|
|-12-12-12-12-12-12-12-12-|-7-7-7-7-7-7-7-7-|
|-10-10-10-10-10-10-10-10-|-5-5-5-5-5-5-5-5-|
|-------------------------|-----------------|
|
|-------------------------|-----------------|
|-------------------------|-----------------|
|-------------------------|-----------------|
|-------------------------|-----------------|
|-------------------------|-----------------|
|-------------------------|-----------------|


  E E E E E E E E   E E E E E E E E
|-----------------|-----------------|
|-----------------|-----------------|
|-----------------|-----------------|
|-9-9-9-9-9-9-9-9-|-5-5-5-5-5-5-5-5-|
|-7-7-7-7-7-7-7-7-|-3-3-3-3-3-3-3-3-|
|-----------------|-----------------|
|
|-----------------|-----------------|
|-----------------|-----------------|
|-----------------|-----------------|
|-----------------|-----------------|
|-----------------|-----------------|
|-----------------|-----------------|


   E  E  E  E  E  E  E  E   E E E E E E E E
|-------------------------|-----------------|
|-------------------------|-----------------|
|-------------------------|-----------------|
|-12-12-12-12-12-12-12-12-|-7-7-7-7-7-7-7-7-|
|-10-10-10-10-10-10-10-10-|-5-5-5-5-5-5-5-5-|
|-------------------------|-----------------|
|
|-------------------------|-----------------|
|-------------------------|-----------------|
|-------------------------|-----------------|
|-------------------------|-----------------|
|-------------------------|-----------------|
|-------------------------|-----------------|


  E E E E E E E E   E E E E E E E E
|-----------------|-----------------|
|-----------------|-----------------|
|-----------------|-----------------|
|-9-9-9-9-9-9-9-9-|-5-5-5-5-5-5-5-5-|
|-7-7-7-7-7-7-7-7-|-3-3-3-3-3-3-3-3-|
|-----------------|-----------------|
|
|-----------------|-----------------|
|-----------------|-----------------|
|-----------------|-----------------|
|-----------------|-----------------|
|-----------------|-----------------|
|-----------------|-----------------|


   E  E  E  E  E  E  E  E   E E E E E E E E
|-------------------------|-----------------|
|-------------------------|-----------------|
|-------------------------|-----------------|
|-12-12-12-12-12-12-12-12-|-7-7-7-7-7-7-7-7-|
|-10-10-10-10-10-10-10-10-|-5-5-5-5-5-5-5-5-|
|-------------------------|-----------------|
|
|-------------------------|-----------------|
|-------------------------|-----------------|
|-------------------------|-----------------|
|-------------------------|-----------------|
|-------------------------|-----------------|
|-------------------------|-----------------|


  W          +W           +W           +W
|----------|------------|------------|--------|
|----------|------------|------------|--------|
|----------|------------|------------|--------|
|-9--------|-(9)--------|-(9)--------|-(9)----|
|-7--------|-(7)--------|-(7)--------|-(7)----|
|----------|------------|------------|--------|
|
| W          +W           +W           +W
|----------|------------|------------|--------|
|----------|------------|------------|--------|
|-9--------|-(9)--------|-(9)--------|-(9)----|
|----------|------------|------------|--------|
|----------|------------|------------|--------|
|----------|------------|------------|--------|




comments
We did not receive enough feedback on this tab! Please rate:
print report bad tab
1 2 3 4 5
I want to post or [tab]
guest
You may want to rate the tab now too:
select rating
Please do not post tabs as comments. Select "correction" instead!