Oops, an error
Loading. Please wait.

Cutt-throat - Behind The Curtain Tab

547 views 1 this week
no commentswrite comment
1 2 3 4 5
please rate
add to favorites launch autoscroll
font size
0
reset
Autoscroll
+/-
esc
set tempo
stop
Contributor
WARNING: You are trying to view
                                    content from Ultimate-Guitar.com
                                    in an unauthorized application,
                                    which is prohibited.

                                    Please use an official Ultimate
                                    Guitar Tabs application for iPhone,
                                    iPad or Android to access legitimate
                                    chords, guitar, bass, and drum tabs
                                    from Ultimate-Guitar.com database.

                                    Type "ultimate guitar tabs" in Apple
                                    App Store's or Android Market's
                                    search to find the application.
Artist: Cutt-Throat
Song: Selphish
Album: Behind The Curtain (2009)
Composer: C. Adams
Tuning: Drop B

Intro/Verse
|-----------------------|
|-----------------------|
|-----------------------|
|----------5------------|
|------------0--0-------|
|-0--0-5-7--------7-5-7-|

Chorus
|---------------------------------
|---------------------------------
|---------------------------------
|---------------------------------
|-0---0-0-0---0-0-1---0-0-1---0-0-
|-0---0-0-0---0-0-1---0-0-1---0-0-
      . .     . .     . .     . .

Bridge 1
|-----------------------------------------|
|---------------------------------2----2--|
|---4----4----5----5----7----7---2-2--2-2-|
|--2-2--2-2--7-7--7-7--9-9--9-9-0----0----|
|-0----0----7----7----9----9--------------|
|-----------------------------------------|

Interlude
|---------------------------------|
|---------------------------------|
|---------------------------------|
|---------------------------------|
|---------------------------------|
|-520-520-520-520-520-520-520-520-|

Bridge
|---------------------------------|
|---------------------------------|
|---------4-4-4-4-----------------|
|-2-2-2-2-x-x-x-x-9-9-0-7-5-5-4-4-|
|-2-2-2-2-2-2-2-2-9-9-0-7-5-5-4-4-|
|-0-0-0-0---------9-9-0-7-5-5-4-4-|

Outro
|---------------------------------|---------------------------------|
|---------------------------------|---------------------------------|
|---------------------------------|---------------------------------|
|---------------------------------|---------------------------------|
|-0-------0-------0-------0-1-2-3-|-0-------0-------0-------0-1-2-3-|
|-0-0000000-0000000-0000000-1-2-3-|-0-0000000-0000000-0000000-1-2-3-|

=========================

Artist: Cutt-Throat
Song: Self Appointed Fear
Album: Behind The Curtain (2009)
Composer: C. Adams
Tuning: Drop A

Intro Pt. 1
|-----------------------------|
|-----------------------------|
|-----------------------------|
|-1p-x-x-1p-x-x-1p-x-x-1p-x-x-|
|-1p-x-x-1p-x-x-1p-x-x-1p-x-x-|
|-1p-x-x-1p-x-x-1p-x-x-1p-x-x-|

Intro Pt. 2
|-------------------------------------------------|
|-------------------------------------------------|
|-------------------------------------------------|
|-1-0-0-1-0-0-1-0-0-1-0-0-1-0-0-1-0-0-1-0-0-1-0-0-|
|-1-0-0-1-0-0-1-0-0-1-0-0-1-0-0-1-0-0-1-0-0-1-0-0-|
|-1-0-0-1-0-0-1-0-0-1-0-0-1-0-0-1-0-0-1-0-0-1-0-0-|

Verse
|-----------------------------------------------------|
|-----------------------------------------------------|
|-----------------------------------------------------|
|-1-0-0-1-0-0-1-0-0-1-0-0-1-0-0-1-0-0-5-5-5-5-3-3-3-3-|
|-1-0-0-1-0-0-1-0-0-1-0-0-1-0-0-1-0-0-5-5-5-5-3-3-3-3-|
|-1-0-0-1-0-0-1-0-0-1-0-0-1-0-0-1-0-0-5-5-5-5-3-3-3-3-|

Chorus
|-------------------|
|-------------------|
|-------------------|
|-0-2-0-0-7-0-5-----|
|-0-2-0-0-7-0-5-----|
|-0-2-0-0-5-0-3-----|

Bridge
|-----------------|
|-----------------|
|-----------------|
|-----------------|
|-----------------|
|-1-1-1-1-1-1-3-1-|

|-----------------------------------------------------------------|
|-----------------------------------------------------------------|
|-----------------------------------------------------------------|
|-1-1-1-1-1-1-3-1-1-1-1-1-1-1-3-1-1-1-1-1-1-1-3-1-1-1-1-1-5-5-5-5-|
|-1-1-1-1-1-1-3-1-1-1-1-1-1-1-3-1-1-1-1-1-1-1-3-1-1-1-1-1-5-5-5-5-|
|-1-1-1-1-1-1-3-1-1-1-1-1-1-1-3-1-1-1-1-1-1-1-3-1-1-1-1-1-3-3-3-3-|

|-------------------------------------|
|-------------------------------------|
|-------------------------------------|
|-1-1------1-1------1-1------1-1------|
|-1-1------1-1------1-1------1-1------|
|-1-1------1-1------1-1------1-1------|

=========================

Artist: Cutt-Throat
Song: Inside
Album: Behind The Curtain (2009)
Composer: C. Adams
Tuning: Open A

Intro
|-------------------------
|-------------------------
|-----9-------------------
|-0---x--0-0--------------
|-0---7--0-0-3h5p3--2h4p2-
|-0------0-0-3h5p3--2h4p2-

Verse No Guitar

Pre Chorus
|-----------------------------------------------------------------|
|-----------------------------------------------------------------|
|-----------------------------------------------------------------|
|-2-2-2-2-4-4-4-4-2-2-2-2-4-4-4-4-2-2-2-2-4-4-4-4-7-7-7-7-5-5-5-5-|
|-2-2-2-2-4-4-4-4-2-2-2-2-4-4-4-4-2-2-2-2-4-4-4-4-7-7-7-7-5-5-5-5-|
|-0-0-0-0-4-4-4-4-0-0-0-0-4-4-4-4-0-0-0-0-4-4-4-4-7-7-7-7-5-5-5-5-|

Chorus
|-----------------------------------------------------------------|
|-----------------------------------------------------------------|
|-----------------------------------------------------------------|
|-4-4-4-4-4-4-4-4-4-4-4-4-7-7-7-7-5-5-5-5-5-5-5-5-9-9-9-9-9-9-9-9-|
|-x-x-x-x-x-x-x-x-x-x-x-x-x-x-x-x-x-x-x-x-x-x-x-x-x-x-x-x-x-x-x-x-|
|-2-2-2-2-2-2-2-2-2-2-2-2-5-5-5-5-3-3-3-3-3-3-3-3-7-7-7-7-7-7-7-7-|

Interlude
|--------------------------------------------------------------|
|--------------------------------------------------------------|
|--------------------------------------------------------------|
|-2-2-2222-2-2-2-2-2-2222-2-2-2-2-2-2222-2-2-2-7-7-7-7-9-9-9-9-|
|-2-2-2222-2-2-2-2-2-2222-2-2-2-2-2-2222-2-2-2-7-7-7-7-9-9-9-9-|
|-0-0-0000-0-0-0-0-0-0000-0-0-0-0-0-0000-0-0-0-5-5-5-5-7-7-7-7-|

Bridge
|-------------------------------|--------------------------------|
|-------------------------------|--------------------------------|
|-------------------------------|--------------------------------|
|-2-2-2222-2-2-2-2-2-2222-5-5-5-|-2-2-2222-2-2-2-7-7-7-7-9-9-9-9-|
|-2-2-2222-2-2-2-2-2-2222-5-5-5-|-2-2-2222-2-2-2-7-7-7-7-9-9-9-9-|
|-0-0-0000-0-0-0-0-0-0000-3-3-3-|-0-0-0000-0-0-0-5-5-5-5-7-7-7-7-|

=========================

Artist: Cutt-Throat
Song: Sadgasm
Album: Behind The Curtain (2009)
Composer: C. Adams
Tuning: Drop B

Verse
|-------------3---------------------------------|
|-------------3---------------------------------|
|-------------3---------------------------------|
|-2-0-0-3-0-0-------2-0-0-3-0-0-7-0-0-7-0-0-7-0-|
|-2-0-0-3-0-0-------2-0-0-3-0-0-7-0-0-7-0-0-7-0-|
|-2-0-0-3-0-0-------2-0-0-3-0-0-7-0-0-7-0-0-7-0-|

Pre Chorus No Guitar

Chorus
|---------------------------------|---------------------------------|
|---------7-7-7-7-8-8-8-8-9-9-9-9-|---------------------------------|
|---------0-0-0-0-0-0-0-0-0-0-0-0-|---------------------------------|
|-2-2-2-2-x-x-x-x-x-x-x-x-x-x-x-x-|-2-2-2-2-9-9-9-9-7-7-7-7-5-5-5-5-|
|-2-2-2-2-5-5-5-5-6-6-6-6-7-7-7-7-|-2-2-2-2-9-9-9-9-7-7-7-7-5-5-5-5-|
|-0-0-0-0-------------------------|-0-0-0-0-9-9-9-9-7-7-7-7-5-5-5-5-|

Bridge 1
|-------------|--------------------|
|-3-----4-----|----3--------4------|
|-2-----3-----|---2--------3-------|
|-0-----1-----|--0--------1--------|
|-0-----1-----|--------------------|
|-0-----1-----|--------------------|

Interlude
|--------------------------------|---------------------------------|
|--------------------------------|---------------------------------|
|--------------------------------|---------------------------------|
|-2-0-1-8--------7-5-0-5-3-0-3-1-|-2-0-1-0-2-0-1-0-2-0-1-0-2-0-1-0-|
|-2-0-1-8--------7-5-0-5-3-0-3-1-|-2-0-1-0-2-0-1-0-2-0-1-0-2-0-1-0-|
|-2-0-1-8--------7-5-0-5-3-0-3-1-|-2-0-1-0-2-0-1-0-2-0-1-0-2-0-1-0-|

Bridge 2
|-----------------------------------------------------------------|
|-----------------------------------------------------------------|
|-----------------------------------------------------------------|
|-2-0-1-0-2-0-1-0-2-0-1-0-2-0-1-0-5-0-3-0-5-0-3-0-5-0-3-0-5-0-3-0-|
|-2-0-1-0-2-0-1-0-2-0-1-0-2-0-1-0-5-0-3-0-5-0-3-0-5-0-3-0-5-0-3-0-|
|-2-0-1-0-2-0-1-0-2-0-1-0-2-0-1-0-5-0-3-0-5-0-3-0-5-0-3-0-5-0-3-0-|

|-----------------------------------------------------------------|
|-----------------------------------------------------------------|
|-----------------------------------------------------------------|
|-7-0-5-0-7-0-5-0-7-0-5-0-7-0-5-0-5-0-3-0-5-0-3-0-5-0-3-0-5-0-3-0-|
|-7-0-5-0-7-0-5-0-7-0-5-0-7-0-5-0-5-0-3-0-5-0-3-0-5-0-3-0-5-0-3-0-|
|-7-0-5-0-7-0-5-0-7-0-5-0-7-0-5-0-5-0-3-0-5-0-3-0-5-0-3-0-5-0-3-0-|

Bridge 3
|------------------|-------|
|---3-----3--------|-3-----|
|--0-----0---0-----|-0-----|
|---------------0--|-0-----|
|-2-----2----------|-2-----|
|------------------|-------|

=========================

Artist: Cutt-Throat
Song: Reddy, Set, Blow
Album: Behind The Curtain (2009)
Composer: C. Adams
Tuning: Drop B

Intro
|---------------------------------|
|---------------------------------|
|---------------------------------|
|-x-x-x-x-x-x-x-x-x-x-x-x-x-x-x-x-|
|-x-x-x-x-x-x-x-x-x-x-x-x-x-x-x-x-|
|-x-x-x-x-x-x-x-x-x-x-x-x-x-x-x-x-|

Verse
|-----------------|-----------------|
|-----------------|-----------------|
|-----------------|-----------------|
|-0-1-2---0-1-2-3-|-5-0-4-0-3-0-2-0-|
|-0-1-2---0-1-2-3-|-5-0-4-0-3-0-2-0-|
|-0-1-2---0-1-2-3-|-5-0-4-0-3-0-2-0-|

Chorus
|-----------------|
|-----------------|
|-----------------|
|-0-2-3-5-0-2-5-3-|
|-0-2-3-5-0-2-5-3-|
|-0-2-3-5-0-2-5-3-|

Pick Up
|---------------------------------|
|---------------------------------|
|---------------------------------|
|-2-2-2-2-2-2-2-2-2-2-2-2-2-2-2-2-|
|-2-2-2-2-2-2-2-2-2-2-2-2-2-2-2-2-|
|-0-0-0-0-0-0-0-0-0-0-0-0-0-0-0-0-|
  _______________________________

Bridge
|--------------------------------------------------------------------|
|---------------------------------|----------------------------------|
|---------------------------------|---------2-2-2-2-5-5-5-5-7-7-7-7--|
|-2-2-2-2-7-7-7-7-5-5-5-5-9-9-9-9-|-2-2-2-2-2-2-2-2-x-x-x-x-x-x-x-x--|
|-2-2-2-2-x-x-x-x-x-x-x-x-x-x-x-x-|-2-2-2-2-0-0-0-0-3-3-3-3-5-5-5-5--|
|-0-0-0-0-5-5-5-5-3-3-3-3-7-7-7-7-|-0-0-0-0--------------------------|

=========================

Artist: Cutt-Throat
Song: Copykat
Album: Behind The Curtain (2009)
Composer: C. Adams
Tuning: Open A

Intro/Verse
|---------------------------------|
|---------------------------------|
|---------------------------------|
|---------------------------------|
|---------------------------------|
|-0-0-0-0-0-1-2-3-5-5-5-5-5-7-8-7-|

|-----------------------------------------|
|-----------------------------------------|
|-----------------------------------------|
|-----------------------------------------|
|-----------------------------------------|
|-9-9-9-9-9-9-9-9-11-11-11-11-11-10-12-12-|

|---------------------------------|
|---------------------------------|
|---------------------------------|
|---------------------------------|
|---------------------------------|
|-0-0-0-0-0-1-2-3-5-5-5-5-5-7-8-7-|

|---------------------------------|
|---------------------------------|
|---------------------------------|
|---------------------------------|
|---------------------------------|
|-9-9-9-9-9-9-9-9-9-9-9-9-9-9-6-6-|

Chorus/Bridge
|-2-2-2-2-2-2-2-2-2-2-2-2-2-2-2-2-1-1-1-1-1-1-1-1-1-1-1-1-1-1-1-1-|
|-3-3-3-3-3-3-3-3-3-3-3-3-3-3-3-3-1-1-1-1-1-1-1-1-1-1-1-1-1-1-1-1-|
|-4-4-4-4-4-4-4-4-4-4-4-4-4-4-4-4-2-2-2-2-2-2-2-2-2-2-2-2-2-2-2-2-|
|-4-4-4-4-4-4-4-4-4-4-4-4-4-4-4-4-3-3-3-3-3-3-3-3-3-3-3-3-3-3-3-3-|
|-2-2-2-2-2-2-2-2-2-2-2-2-2-2-2-2-3-3-3-3-3-3-3-3-3-3-3-3-3-3-3-3-|
|---------------------------------1-1-1-1-1-1-1-1-1-1-1-1-1-1-1-1-|

=========================

Artist: Cutt-Throat
Song: Nursery Rhymes
Album: Behind The Curtain (2009)
Composer: C. Adams
Tuning: Drop B

Intro
|-----------------------------|
|-----------------------------|
|-----4------4------4-----7---|
|-x-x-x--x-x-x--x-x-x---x-x---|
|-4-4-4--4-4-4--4-4-4---7-7---|
|-2-2-2--2-2-2--2-2-2---5-5---|

|-----------------------------|
|-----------------------------|
|-----4------4------4-----7---|
|-x-x-x--x-x-x--x-x-x---x-x---|
|-4-4-4--4-4-4--4-4-4---7-7---|
|-2-2-2--2-2-2--2-2-2---5-5---|

|-----------------------------|
|-----4------4------4-----7---|
|-x-x-x--x-x-x--x-x-x---x-x---|
|-x-x-x--x-x-x--x-x-x---x-x---|
|-4-4-4--4-4-4--4-4-4---7-7---|
|-2-2-2--2-2-2--2-2-2---5-5---|

|-----------------------------|
|-----4------4------4-----7---|
|-x-x-x--x-x-x--x-x-x---x-x---|
|-x-x-x--x-x-x--x-x-x---x-x---|
|-4-4-4--4-4-4--4-4-4---7-7---|
|-2-2-2--2-2-2--2-2-2---5-5---|

Verse X3
|-----------------------------------------------------------------|
|-----------------------------------------------------------------|
|---------7-7-7-7-7-7-7-7-7-7-7-7---------7-7-7-7-5-5-5-5-9-9-9-9-|
|-2-2-2-2-x-x-x-x-x-x-x-x-x-x-x-x-2-2-2-2-x-x-x-x-x-x-x-x-x-x-x-x-|
|-2-2-2-2-5-5-5-5-5-5-5-5-5-5-5-5-2-2-2-2-5-5-5-5-3-3-3-3-7-7-7-7-|
|-0-0-0-0-------------------------0-0-0-0-------------------------|

|-------------------------------------------------------------------------|
|-------------------------------------------------------------------------|
|---------7-7-7-7-7-7-7-7-7-7-7-7---------9-9-9-9-10-10-10-10-11-11-11-11-|
|-2-2-2-2-x-x-x-x-x-x-x-x-x-x-x-x-2-2-2-2-x-x-x-x--x--x--x--x--x--x--x--x-|
|-2-2-2-2-5-5-5-5-5-5-5-5-5-5-5-5-2-2-2-2-7-7-7-7--8--8--8--8--9--9--9--9-|
|-0-0-0-0-------------------------0-0-0-0---------------------------------|

Pre Chorus
|---------------------------------|
|---------------------------------|
|---------5-5-5-5-7-7-7-7-6-6-6-6-|
|-0-0-0-0-x-x-x-x-x-x-x-x-x-x-x-x-|
|-0-0-0-0-3-3-3-3-5-5-5-5-4-4-4-4-|
|-0-0-0-0-------------------------|

|---------------------------------|
|---------------------------------|
|---------------------------------|
|---------------------------------|
|---------------------------------|
|-5-3-2-0-5-3-2-0-5-3-2-0-5-3-2-0-|

Chorus
|-----------------------------------------------------------------|
|-----------------------------------------------------------------|
|-----------------------------------------------------------------|
|-0-0-0-0-3-3-3-3-7-7-7-7-5-5-5-5-3-3-3-3-7-7-7-7-5-5-5-5-9-9-9-9-|
|-0-0-0-0-3-3-3-3-7-7-7-7-5-5-5-5-3-3-3-3-7-7-7-7-5-5-5-5-9-9-9-9-|
|-0-0-0-0-3-3-3-3-7-7-7-7-5-5-5-5-3-3-3-3-7-7-7-7-5-5-5-5-9-9-9-9-|

Bridge 1 No Guitar

Bridge 2
|---------------------------------------------------------------------|
|---------------------------------------------------------------------|
|---------------------------------------------------------------------|
|-2-2-2-2-5-5-5-5-9-9-9-9-7-7-7-7-5-5-5-5-9-9-9-9-7-7-7-7-11-11-11-11-|
|-2-2-2-2-5-5-5-5-9-9-9-9-7-7-7-7-5-5-5-5-9-9-9-9-7-7-7-7-11-11-11-11-|
|-0-0-0-0-3-3-3-3-7-7-7-7-5-5-5-5-3-3-3-3-7-7-7-7-5-5-5-5--9--9--9--9-|

Ending
|-------|
|-------|
|-------|
|-2-2---|
|-2-2---|
|-0-0---|

=========================

Artist: Cutt-Throat
Song: Sexlexia
Album: Behind The Curtain (2009)
Composer: C. Adams
Tuning: Drop A

Main Riff
|----------------|-----------------|-----------------|
|----------------|-3-3-3-3-5-5-5-5-|-----------------|
|--------3-5-3-5-|-0-0-0-0-0-0-0-0-|-----------------|
|-2-2--0-x-x-x-x-|-x-x-x-x-x-x-x-x-|-5-5-5-5-3-3-3-3-|
|-2-2--0-1-3-1-3-|-1-1-1-1-3-3-3-3-|-5-5-5-5-3-3-3-3-|
|-0-3--0---------|-----------------|-5-5-5-5-3-3-3-3-|

Pre Chorus
|-----------------------------------------------------------------|
|-----------------------------------------------------------------|
|-----------------------------------------------------------------|
|-2-----2-----2-----2-----2---2---5-----5-----5-----5-----5---5---|
|-2-----2-----2-----2-----2---2---5-----5-----5-----5-----5---5---|
|-0-0-0-0-0-0-0-0-0-0-0-0-0-0-0-0-3-3-3-3-3-3-3-3-3-3-3-3-3-3-3-3-|

|-----------------------------------------------------------------|
|-----------------------------------------------------------------|
|-----------------------------------------------------------------|
|-7-----7-----7-----7-----7---7---9-----9-----9-----9-----9-9-9-9-|
|-7-----7-----7-----7-----7---7---9-----9-----9-----9-----9-9-9-9-|
|-5-5-5-5-5-5-5-5-5-5-5-5-5-5-5-5-7-7-7-7-7-7-7-7-7-7-7-7-7-7-7-7-|

Chorus
|---------------------------------|---------------------------------|
|---------------------------------|---------------------------------|
|---------------------------------|---------------------------------|
|-2-2-2-2-2-2-2-2-7-7-7-7-5-5-5-5-|-3-3-3-3-3-3-3-3-4-4-4-4-4-4-4-4-|
|-2-2-2-2-2-2-2-2-7-7-7-7-5-5-5-5-|-3-3-3-3-3-3-3-3-4-4-4-4-4-4-4-4-|
|-0-0-0-0-3-3-3-3-5-5-5-5-3-3-3-3-|-1-1-1-1-1-1-1-1-2-2-2-2-2-2-2-2-|

Bridge 1
|---------------------------------------------------------|
|---------------------------------------------------------|
|---------------------------------------------------------|
|-7-7-7-7-7---7-7-7-7-7---7---7-7-7-7-7---5-5-5-5-5---5---|
|-7-7-7-7-7---7-7-7-7-7---7---7-7-7-7-7---5-5-5-5-5---5---|
|-5-5-5-5-5---5-5-5-5-5---5---5-5-5-5-5---3-3-3-3-3---3---|

Bridge 2
|---------------------------------|
|---------------------------------|
|---------------------------------|
|-------5-7-7-7-7-------5-7-8-8-8-|
|-5-7-0-----------5-7-0-----------|
|---------------------------------|

========================

Artist: Cutt-Throat
Song: The Hemingway Solution
Album: Behind The Curtain (2009)
Composer: C. Adams
Tuning: Drop B

Verse
|----------------------------------|
|----------------------------------|
|----------------------------------|
|----------------------------------|
|-------------5555------------2222-|
|-32003200320022223200320032000000-

Main Riff
|----------------------------------|
|----------------------------------|
|----------------------------------|
|----------------------------------|
|----------------------------------|
|-32000000320000003200000087657654-

|----------------------------------|
|----------------------------------|
|----------------------------------|
|----------------------------------|
|--------------------------5-5-5-5-|
|-320000003200000032000000-2-2-2-2-|

Bridge 2
|---------------------------------|
|---------------------------------|
|---------------------------------|
|-2-2-2-2-2-2-2-2-2-2-2-2-3-3-3-3-|
|-2-2-2-2-2-2-2-2-2-2-2-2-3-3-3-3-|
|-0-0-0-0-0-0-0-0-0-0-0-0-1-1-1-1-|
   ______   ______   ______

=========================

Artist: Cutt-Throat
Song: Fragile
Album: Behind The Curtain (2009)
Composer: C. Adams
Tuning: Drop B

Intro
|-------------------------------------|
|-------------------------------------|
|-2---------------5-2-------------2---|
|-2---5--7--2----2--2---5--7--2----2--|
|-0---5--7--2---0---0---5--7--2-----0-|
|-----3--5--0-------------------------|

Verse
|-----------------------------------------------------|
|-----------------------------------------------------|
|-----------------------------------------------------|
|-2-2-2---2-2-2---2-2-2---0-5-2-2-2---2-2-2--0--5-4-3-|
|-2-2-2---2-2-2---2-2-2---0-5-2-2-2---2-2-2--0--5-4-3-|
|-0-0-0---0-0-0---0-0-0---0-3-0-0-0---0-0-0--0--3-2-1-|

Chorus
|-----------------|
|-----------------|
|-----------------|
|-2-3-3-3-5-5-7-7-|
|-2-3-3-3-5-5-7-7-|
|-0-1-1-1-3-3-5-5-|

Interlude 1
|-----------------------------------------------------------------|
|-----------------------------------------------------------------|
|-5-5-5-5-7-7-7-7-6-6-6-6-8-8-8-8-5-5-5-5-7-7-7-7-8-8-8-8-9-9-9-9-|
|-x-x-x-x-x-x-x-x-x-x-x-x-x-x-x-x-x-x-x-x-x-x-x-x-x-x-x-x-x-x-x-x-|
|-3-3-3-3-5-5-5-5-4-4-4-4-6-6-6-6-3-3-3-3-5-5-5-5-6-6-6-6-7-7-7-7-|
|-----------------------------------------------------------------|

Interlude 2
|-----------------------------------------|
|-----------------------------------------|
|-8-8-8-8-9-9-9-9-10-10-10-10-11-11-11-11-|
|-x-x-x-x-x-x-x-x--x--x--x--x--x--x--x--x-|
|-6-6-6-6-7-7-7-7--8--8--8--8--9--9--9--9-|
|-----------------------------------------|

Bridge
|-----------------------------------------------------------------|
|-----------------------------------------------------------------|
|-------------------------------------------------2-2-2-2-5-5-5-5-|
|-0-0-x-x-2-2-2-2-0-0-x-x-2-2-2-2-0-0-x-x-2-2-2-2-2-2-2-2-5-5-5-5-|
|-0-0-x-x-2-2-2-2-0-0-x-x-2-2-2-2-0-0-x-x-2-2-2-2-0-0-0-0-3-3-3-3-|
|-0-0-x-x-0-0-0-0-0-0-x-x-0-0-0-0-0-0-x-x-0-0-0-0-----------------|

=========================

Artist: Cutt-Throat
Song: Cradle
Album: Behind The Curtain (2009)
Composer: C. Adams
Tuning: Open A

Intro/Verse
|-------------------------------------------------------------|
|---3------3-------3------3-------3------3-------2------2-----|
|----2------2--2----0------0--0----2------2--2----0------0--0-|
|--0------0---0---0------0---0---0------0---0---0------0---0--|
|-------------------------------------------------------------|
|-0------0-------3------3-------0------0-------3------3-------|

Chorus
|--------------------------------------------------------------|
|--------------------------------------------------------------|
|--------------------------------------------------------------|
|-2--2-2-2-----3-5-0-5-7-0-7-9-2-2-2-2-2-2-2-2-3-5-0-5-7-0-7-9-|
|-2--2-2-2-----3-5-0-5-7-0-7-9-2-2-2-2-2-2-2-2-3-5-0-5-7-0-7-9-|
|-0--0-0-3fb---3-5-0-5-7-0-7-9-0-0-0-0-3-3-3-3-3-5-0-5-7-0-7-9-|

Bridge 1
|-------------------------------------------------------------|
|---9------9-------9------9-------9------9-------8------8-----|
|----8------8--8----0------0--0----8------8--8----0------0--0-|
|--0------0---0---0------0---0---0------0---0---0------0---0--|
|-------------------------------------------------------------|
|-0------0-------9------9-------0------0-------9------9-------|

Bridge 2
|-----------------------------------------------------------------|
|-----------------------------------------------------------------|
|-----------------------------------------------------------------|
|-9-9-9-9-9-9-9-9-7-7-7-7-7-7-7-7-5-5-5-5-5-5-5-5-2-2-2-2-2-2-2-2-|
|-9-9-9-9-9-9-9-9-7-7-7-7-7-7-7-7-5-5-5-5-5-5-5-5-2-2-2-2-2-2-2-2-|
|-7-7-7-7-7-7-7-7-5-5-5-5-5-5-5-5-3-3-3-3-3-3-3-3-0-0-0-0-0-0-0-0-|

=========================

Artist: Cutt-Throat
Song: 7 Tribes, 28 Bodies, 26 Souls (Hidden Track)
Album: Behind The Curtain (2009)
Composer: C. Adams
Tuning: Drop B

Chorus
|--------------------------|
|----3-----3-----9-----9---|
|---0-0---0-0---7-7---7-7--|
|--0---0-0---0-7---7-7---7-|
|-2-----2-----7-----7------|
|--------------------------|
comments
We did not receive enough feedback on this tab! Please rate:
print report bad tab
1 2 3 4 5
I want to post or [tab]
guest
You may want to rate the tab now too:
select rating
Please do not post tabs as comments. Select "correction" instead!