Oops, an error
Loading. Please wait.

Daybreak Embrace - Suffocate Tab

208 views 1 this week
no commentswrite comment
1 2 3 4 5
excellent!
x 1
add to favorites launch autoscroll
font size
0
reset
Autoscroll
+/-
esc
set tempo
stop
Contributor
Difficulty
Tuning
novice
A# F A# D# G C
WARNING: You are trying to view
                                    content from Ultimate-Guitar.com
                                    in an unauthorized application,
                                    which is prohibited.

                                    Please use an official Ultimate
                                    Guitar Tabs application for iPhone,
                                    iPad or Android to access legitimate
                                    chords, guitar, bass, and drum tabs
                                    from Ultimate-Guitar.com database.

                                    Type "ultimate guitar tabs" in Apple
                                    App Store's or Android Market's
                                    search to find the application.
Song: Suffocate
Artist: Daybreak Embrace (http://www.daybreakembrace.com)
Album: Tomorrow Awaits - EP
Tabbed By: Kyle MacDonald (kylehnat@hotmail.com)

Tuning: Bb F Bb Eb G C  (Drop tuning, 2 whole-steps down)
Guitar 1: Lead
Guitar 2: Rythym

b = bend
r = release
h = hammer-on
p = pull-off
x = muted string
* = palm mute


INTRO

Guitar 1
 C|-----------------------------||
 G|---------13----------15------||
Eb|---14----------14------------||
Bb|12----12----12----12---------||
 F|-----------------------------||
Bb|-----------------------------||
                                 | X 3
Guitar 2                         |
 C|-----------------------------||
 G|-----------------------------||
Eb|-----------------------------||
Bb|0-0-0--0-0-0--0-0--0--------0||
 F|0-0-0--0-0-0--0-0--0--------0||
Bb|0-0-0--0-0-0--0-0--0--------0||
   * * *  * * *  * *  *        *

Guitar 1
 C|-----------------------------|
 G|---------13--------3---------|
Eb|---14----------14--6b7-------|
Bb|12----12----12---------------|
 F|-----------------------------|
Bb|-----------------------------|

Guitar 2                         
 C|-----------------------------|
 G|-----------------------------|
Eb|-----------------------------|
Bb|0-0-0--0-0-0--0-0------------|
 F|0-0-0--0-0-0--0-0------------|
Bb|0-0-0--0-0-0--0-0------------|
   * * *  * * *  * *  

Guitar 1
 C|-----------------------------------------------|    
 G|5---5---5---------------6---6---6--------------|     
Eb|--7---7---7---7---7-------7---7---7---7---7----|      
Bb|-----------------------------------------------|      
 F|-----------------------------------------------|     
Bb|-----------------------------------------------|       

 C|-----------------------------------------------|    
 G|10--10--10---------------8---8---8-------------|     
Eb|--10--10--10--10--10-------9---9---9---9---9---|      
Bb|-----------------------------------------------|      
 F|-----------------------------------------------|     
Bb|-----------------------------------------------|       

Guitar 2                         
 C|-----------------------------------------------|
 G|-----------------------------------------------|
Eb|-----------------------------------------------|
Bb|0-0-0--0-0-0--0-0--0--0-0-0-0--0-0-0--0-0--0--0|
 F|0-0-0--0-0-0--0-0--0--0-0-0-0--0-0-0--0-0--0--0|
Bb|0-0-0--0-0-0--0-0--0--0-0-0-0--0-0-0--0-0--0--0|
   * * *  * * *  * *  *  * * * *  * * *  * *  *  *
                         
 C|-----------------------------------------------|
 G|-----------------------------------------------|
Eb|-----------------------------------------------|
Bb|8-8-8--8-8-8--8-8--8--8-5-5-5--5-5-5--5-5--5---|
 F|8-8-8--8-8-8--8-8--8--8-5-5-5--5-5-5--5-5--5---|
Bb|8-8-8--8-8-8--8-8--8--8-5-5-5--5-5-5--5-5--5---|
   * * *  * * *  * *  *  * * * *  * * *  * *  *  

VERSE 1

Guitar 1
 C|------------------------------------------------------------||
 G|5---------5---------5------6---------6---------6------------||
Eb|--7-7--7----7-7--7----7-7----7-7--7----7-7--7----7-7--------||
Bb|------------------------------------------------------------||
 F|------------------------------------------------------------||
Bb|------------------------------------------------------------||
   * * *  *  * * *  *  * * *  * * *  *  * * *  *  * * *         | X 2
                                                                |
 C|------------------------------------------------------------||
 G|10----------10----------10------8-------8-------8-----------||
Eb|--10-10--10---10-10--10---10-10--9-9--9--9-9--9--9-9--------||
Bb|------------------------------------------------------------||
 F|------------------------------------------------------------||
Bb|------------------------------------------------------------||
   * *  *   *  * *  *   *  *  *  * ** *  * ** *  * ** *

Guitar 2 (second time only)
 C|------------------------------------------------------------|
 G|------------------------------------------------------------|
Eb|------------------------------------------------------------|
Bb|0----0----0-----0---0------0----0----0-----0---0------------|
 F|0----0----0-----0---0------0----0----0-----0---0------------|
Bb|0----0----0-----0---0------0----0----0-----0---0------------|
   *    *    *     *   *      *    *    *     *   *       
 C|------------------------------------------------------------|
 G|------------------------------------------------------------|
Eb|------------------------------------------------------------|
Bb|8----8----8-----8---8------5----5----5-----5---5------------|
 F|8----8----8-----8---8------5----5----5-----5---5------------|
Bb|8----8----8-----8---8------5----5----5-----5---5------------|
   *    *    *     *   *      *    *    *     *   *       

PRE-CHORUS 1

Guitar 1
 C|-----------------------------|
 G|---------13----------15------|
Eb|---14----------14------------| X 8
Bb|12----12----12----12---------|
 F|-----------------------------|
Bb|-----------------------------|

Guitar 2
 C|--------------------------------------------------|
 G|--------------------------------------------------|
Eb|--------------------------------------------------|
Bb|8-8-8------8--8-8-8---------0-0-0-----0--0-0-0----|
 F|8-8-8------8--8-8-8---------0-0-0-----0--0-0-0----|
Bb|8-8-8------8--8-8-8---------0-0-0-----0--0-0-0----|
   * * *      *  * * *         * * *     *  * * *

 C|--------------------------------------------------|
 G|--------------------------------------------------|
Eb|--------------------------------------------------|
Bb|8-8-8--8--8-8-8--8--8-8-8--8--8-8-8--8------------|
 F|8-8-8--8--8-8-8--8--8-8-8--8--8-8-8--8------------|
Bb|8-8-8--8--8-8-8--8--8-8-8--8--8-8-8--8------------|
   * * *  *  * * *  *  * * *  *  * * *  *  

 C|--------------------------------------------------|
 G|--------------------------------------------------|
Eb|--------------------------------------------------|
Bb|33333333333333337777777777777777------------------|
 F|33333333333333337777777777777777------------------|
Bb|33333333333333337777777777777777------------------|
   ********************************

CHORUS 1

Guitar 1/Guitar 2
 C|--------------------------------------------------||
 G|--------------------------------------------------||
Eb|--------------------------------------------------||
Bb|00000000000000008888888888888888------------------||
 F|00000000000000008888888888888888------------------||
Bb|00000000000000008888888888888888------------------||
                                                      | X 2
 C|--------------------------------------------------||
 G|--------------------------------------------------||
Eb|--------------------------------------------------||
Bb|33333333333333335555555555555555------------------||
 F|33333333333333335555555555555555------------------||
Bb|33333333333333335555555555555555------------------||

FILL

Guitar 2
 C|----------------------|
 G|----------------------|
Eb|----------------------|
Bb|----------------------|
 F|----------------------|
Bb|0-0-0--0-0-0--0-0--0--|

PRE-VERSE 2

Guitar 1
 C|-----------------------------------------------|    
 G|6---6---6---------------10---10---10-----------|     
Eb|--7---7---7---7---7-------10---10---10-10-10---|      
Bb|-----------------------------------------------|      
 F|-----------------------------------------------|     
Bb|-----------------------------------------------|

 C|--------------------------|    
 G|8---8---8-----------------|     
Eb|--9---9---9--9--9---------|      
Bb|--------------------------|      
 F|--------------------------|     
Bb|--------------------------|

Guitar 2
 C|-----------------------------------------------|
 G|-----------------------------------------------|
Eb|-----------------------------------------------|
Bb|0-0-0--0-0-0--0-0--0--0-8-8-8--8-8-8--8-8--8--8|
 F|0-0-0--0-0-0--0-0--0--0-8-8-8--8-8-8--8-8--8--8|
Bb|0-0-0--0-0-0--0-0--0--0-8-8-8--8-8-8--8-8--8--8|
   * * *  * * *  * *  *  * * * *  * * *  * *  *  *

 C|--------------------------|
 G|--------------------------|
Eb|--------------------------|
Bb|5-5-5--5-5-5--5-5--5------|
 F|5-5-5--5-5-5--5-5--5------|
Bb|5-5-5--5-5-5--5-5--5------|
   * * *  * * *  * *  *  

VERSE 2

Guitar 1
 C|------------------------------------------------------------||
 G|5---------5---------5------6---------6---------6------------||
Eb|--7-7--7----7-7--7----7-7----7-7--7----7-7--7----7-7--------||
Bb|------------------------------------------------------------||
 F|------------------------------------------------------------||
Bb|------------------------------------------------------------||
   * * *  *  * * *  *  * * *  * * *  *  * * *  *  * * *         | X 2
                                                                |
 C|------------------------------------------------------------||
 G|10----------10----------10------8-------8-------8-----------||
Eb|--10-10--10---10-10--10---10-10--9-9--9--9-9--9--9-9--------||
Bb|------------------------------------------------------------||
 F|------------------------------------------------------------||
Bb|------------------------------------------------------------||
   * *  *   *  * *  *   *  *  *  * ** *  * ** *  * ** *

Guitar 2 (second time only)
 C|------------------------------------------------------------|
 G|------------------------------------------------------------|
Eb|------------------------------------------------------------|
Bb|0----0----0-----0---0------0----0----0-----0---0------------|
 F|0----0----0-----0---0------0----0----0-----0---0------------|
Bb|0----0----0-----0---0------0----0----0-----0---0------------|
   *    *    *     *   *      *    *    *     *   *       
 C|------------------------------------------------------------|
 G|------------------------------------------------------------|
Eb|------------------------------------------------------------|
Bb|8----8----8-----8---8------5----5----5-----5---5------------|
 F|8----8----8-----8---8------5----5----5-----5---5------------|
Bb|8----8----8-----8---8------5----5----5-----5---5------------|
   *    *    *     *   *      *    *    *     *   *       

PRE-CHORUS 2

Guitar 1
 C|-----------------------------|
 G|---------13----------15------|
Eb|---14----------14------------| X 4
Bb|12----12----12----12---------|
 F|-----------------------------|
Bb|-----------------------------|

Guitar 2
 C|--------------------------------------|
 G|--------------------------------------|
Eb|--------------------------------------|
Bb|8-8-8-----------8--8-8-8--------------|
 F|8-8-8-----------8--8-8-8--------------|
Bb|8-8-8-----------8--8-8-8--------------|
   * * *           *  * * *  

 C|--------------------------------------|
 G|--------------------------------------|
Eb|--------------------------------------|
Bb|33333333333333337777777777777777------|
 F|33333333333333337777777777777777------|
Bb|33333333333333337777777777777777------|
   ********************************

CHORUS 2

Guitar 1/Guitar 2
 C|--------------------------------------------------||
 G|--------------------------------------------------||
Eb|--------------------------------------------------||
Bb|00000000000000008888888888888888------------------||
 F|00000000000000008888888888888888------------------||
Bb|00000000000000008888888888888888------------------||
                                                      | X 2
 C|--------------------------------------------------||
 G|--------------------------------------------------||
Eb|--------------------------------------------------||
Bb|33333333333333335555555555555555------------------||
 F|33333333333333335555555555555555------------------||
Bb|33333333333333335555555555555555------------------||

INTERLUDE

Guitar 1/Guitar 2
 C|----------------------------------|
 G|----------------------------------|
Eb|----------------------------------|
Bb|3-3-3-3-3-3-3-3-5-5-5-5-5-5-5-5---|
 F|3-3-3-3-3-3-3-3-5-5-5-5-5-5-5-5---|
Bb|3-3-3-3-3-3-3-3-5-5-5-5-5-5-5-5---|
   * * * * * * * * * * * * * * * *   

Guitar 1
 C|-----------------------------|
 G|---------13----------15------|
Eb|---14----------14------------| X 2
Bb|12----12----12----12---------|
 F|-----------------------------|
Bb|-----------------------------|

Guitar 2
 C|-----------------------------|
 G|-----------------------------|
Eb|-----------------------------|
Bb|0-0-0--0-0-0--0-0--0--------0|
 F|0-0-0--0-0-0--0-0--0--------0|
Bb|0-0-0--0-0-0--0-0--0--------0|
   * * *  * * *  * *  *        *

 C|-----------------------------|
 G|-----------------------------|
Eb|-----------------------------|
Bb|0-0-0--0-0-0--0-0--0---------|
 F|0-0-0--0-0-0--0-0--0---------|
Bb|0-0-0--0-0-0--0-0--0---------|
   * * *  * * *  * *  *        

Guitar 1/Guitar 2
 C|--------------------------------------|
 G|--------------------------------------|
Eb|--------------------------------------|
Bb|88888888888888885555555555555555------|
 F|88888888888888883333333333333333------|
Bb|8888888888888888----------------------|
   
Guitar 1
 C|-----------------------------|
 G|---------13----------15------|
Eb|---14----------14------------| X 2
Bb|12----12----12----12---------|
 F|-----------------------------|
Bb|-----------------------------|

Guitar 2
 C|-----------------------------|
 G|-----------------------------|
Eb|-----------------------------|
Bb|0-0-0--0-0-0--0-0--0--------0|
 F|0-0-0--0-0-0--0-0--0--------0|
Bb|0-0-0--0-0-0--0-0--0--------0|
   * * *  * * *  * *  *        *

 C|-----------------------------|
 G|-----------------------------|
Eb|-----------------------------|
Bb|0-0-0--0-0-0--0-0--0---------|
 F|0-0-0--0-0-0--0-0--0---------|
Bb|0-0-0--0-0-0--0-0--0---------|
   * * *  * * *  * *  *        

Guitar 1
 C|------------------------------------------------------------|
 G|5---------5---------5------6---------6-------8--------------|
Eb|--7-7--7----7-7--7----7------7-7--7----7-7------------------|
Bb|------------------------------------------------------------|
 F|------------------------------------------------------------|
Bb|------------------------------------------------------------|
   
SOLO

Guitar 1
 C|----------------------12-12b13r12b13r12----12b13r12b13r12-15-13-12-|
 G|----------------13-15-------------------15-------------------------|
Eb|11b12r11---14------------------------------------------------------|
Bb|--------12---------------------------------------------------------|
 F|-------------------------------------------------------------------|
Bb|-------------------------------------------------------------------|

 C|----------------------12-12b13r12b13r12--------------------13------|
 G|----------------13-15-------------------13-13h15h17--15h17---------|
Eb|11b12r11---14------------------------------------------------------|
Bb|--------12---------------------------------------------------------|
 F|-------------------------------------------------------------------|
Bb|-------------------------------------------------------------------|

 C|---13h15-13h15h17--15p13-------------------------------------------|
 G|17-----------------------15----------------------------------------|
Eb|-------------------------------------------------------------------|
Bb|-------------------------------------------------------------------|
 F|-------------------------------------------------------------------|
Bb|-------------------------------------------------------------------|

Guitar 2
 C|--------------------------------------------------||
 G|--------------------------------------------------||
Eb|--------------------------------------------------||
Bb|00000000000000008888888888888888------------------||
 F|00000000000000008888888888888888------------------||
Bb|00000000000000008888888888888888------------------||
                                                      | X 2
 C|--------------------------------------------------||
 G|--------------------------------------------------||
Eb|--------------------------------------------------||
Bb|33333333333333335555555555555555------------------||
 F|33333333333333335555555555555555------------------||
Bb|33333333333333335555555555555555------------------||
 
CHORUS 3

Guitar 1/Guitar 2
 C|--------------------------------------------------|
 G|--------------------------------------------------|
Eb|--------------------------------------------------|
Bb|0---0---0---xx--8888888888888888------------------|
 F|0---0---0---xx--8888888888888888------------------|
Bb|0---0---0---xx--8888888888888888------------------|

 C|--------------------------------------------------|
 G|--------------------------------------------------|
Eb|--------------------------------------------------|
Bb|3333333333333333-55-55-55-55-xxxx-----------------|
 F|3333333333333333-55-55-55-55-xxxx-----------------|
Bb|3333333333333333-55-55-55-55-xxxx-----------------|
                    ** *  ** *

 C|--------------------------------------------------|
 G|--------------------------------------------------|
Eb|--------------------------------------------------|
Bb|00000000000000008888888888888888------------------|
 F|00000000000000008888888888888888------------------|
Bb|00000000000000008888888888888888------------------|
                                                      
 C|--------------------------------------------------|
 G|--------------------------------------------------|
Eb|--------------------------------------------------|
Bb|33333333333333335555555555555555------------------|
 F|33333333333333335555555555555555------------------|
Bb|33333333333333335555555555555555------------------|

OUTRO

Guitar 1/Guitar 2
 C|-----------------------------------------------|
 G|-----------------------------------------------|
Eb|-----------------------------------------------|
Bb|0-0-0--0-0-0--0-0--0--0-0-0-0--0-0-0--0-0--0--0|
 F|0-0-0--0-0-0--0-0--0--0-0-0-0--0-0-0--0-0--0--0|
Bb|0-0-0--0-0-0--0-0--0--0-0-0-0--0-0-0--0-0--0--0|
   * * *  * * *  * *  *  * * * *  * * *  * *  *  *

 C|-----------------------------------------------|
 G|-----------------------------------------------|
Eb|-----------------------------------------------|
Bb|0-0-0--0-0-0--0-0--0--0-0-0-0--0-0-0--0-0--0---|
 F|0-0-0--0-0-0--0-0--0--0-0-0-0--0-0-0--0-0--0---|
Bb|0-0-0--0-0-0--0-0--0--0-0-0-0--0-0-0--0-0--0---|
   * * *  * * *  * *  *  * * * *  * * *  *   
comments
We did not receive enough feedback on this tab! Please rate:
1 2 3 4 5
I want to post or [tab]
guest
You may want to rate the tab now too:
select rating
Please do not post tabs as comments. Select "correction" instead!