Oops, an error
Loading. Please wait.

Dicks In The Sun - A More Serious Attempt Tab

770 views 1 this week
no commentswrite comment
1 2 3 4 5
poor
x 1
Autoscroll
+/-
esc
set tempo
stop
Hey! There's an official Ultimate Guitar app which is ideal
for learning songs when you're away from computer. Get the app
WARNING: You are trying to view
                                    content from Ultimate-Guitar.com
                                    in an unauthorized application,
                                    which is prohibited.

                                    Please use an official Ultimate
                                    Guitar Tabs application for iPhone,
                                    iPad or Android to access legitimate
                                    chords, guitar, bass, and drum tabs
                                    from Ultimate-Guitar.com database.

                                    Type "ultimate guitar tabs" in Apple
                                    App Store's or Android Market's
                                    search to find the application.
Dicks In The Sun - A More Serious Attempt

1.Minneapolis
2.Underwater Sex Party
3.Pig Pussy
4.Song
5.Mud Pie
6.Stink Hole
7.Keep Your Naked Ways
8.In You
9.Horny
10.Cat Poopy
11.Lumpy
12.Jungle Bush
13.Fat Chicks Wearing Big Daipers
14.Perky Tits




        When the band made their first album the just screw around with the
sound and distorstion. Which sounds terrible in most of their old songs. If
you ask me I don't think they knew what they were doing at the time. This
ablum I tabbed out is their more serious atempt at their music. This is
their second album and the better of the two.



1.Minneapolis

Intro/Verse
e---------------2-2--3-----------3---------------0---0---|
B-----------3-----3------3-------3-----------1-------1---|
G-------2---------2----------3---3-------2-----------2---|
D---0-------------0--------------3---3---------------3---|
A--------------------------------------------------------|
E--------------------------------------------------------|

Chorus
e---0--------------0----------------0---0---3---------------3--|
B------1-----------1-----------1--------1-------1-----------1--|
G----------2-------2-------2------------2-----------2-------2--|
D--------------3---3---2----------------2---------------2---2--|
A--------------------------------------------------------------|
E--------------------------------------------------------------|

Solo
e-----------------------------------------------------------------|
B-----------------------------------------------------------------|
G----------------2-4-------3-1-0---------------2------------------|
D----------0-2-2-----2-4/5-------2-0-----------2-2-2-2-2~--4-4h5--|
A--2-2-0-2---------------------------2-2-2-0-0-0------------------|
E-----------------------------------------------------------------|



2.Underwater Sex Party

Intro
e---------------------------------------------------------------|
B---------------------------------------------------------------|
G------------------------------------------------------------4--|
D------------------7h9---(9)--9--7-7---7---5~~~------------4----|
A---5----4----7------------------------------------------2------|
E-6----5----8---------------------------------------------------|

verse
e-----------------------------------------------------|
B-----------------------------------------------------|
G-----------------------------------------------------|
D------------------7h9---(9)--9--7-7---7---5~~~-------|
A---5----4----7---------------------------------------|
E-6----5----8-----------------------------------------|

Chorus
e---------------------------------12-15-------12-15-15----|
B-------------------------8-11/14-------11-14-------------|
G-----5----4-----7---9-11---------------------------------|
D---5----4-----7------------------------------------------|
A-3----2-----5--------------------------------------------|
E---------------------------------------------------------|



3.Pig Pussy

Intro
e-------------5--7---7-------9-----9-3-------5-----|
B-----------3------5-----------7--------3------5---|
G---------4------------6---------8----4------6-----|
D-------5----------------7-9--------------5------7-|
A-----5--------------------------------------------|
E---3----------------------------------------------|

verse
e-------5-7---7-------9-----9-3-------5-----|
B---3-------5-----------7--------3------5---|
G-----4---------6---------8----4------6-----|
D-5---------------7-9--------------5------7-|
A-------------------------------------------|
E-------------------------------------------|

chorus
e----9---------5-------7---------|
B--------7-3---------------5-----|
G------8-----4-----------6-------|
D--9---------------5---------7---|
A----------------5---------------|
E--------------------3-----------|



4.Song

intro
e-------------------------------------------------------------|
B-------------------------------------------------------------|
G-------------------------------------------------------------|
D---6---6-------6-6----6--6------6---6-----6---6--------------|
A---------6----------6------6--6-------6-6-------6-6---6---6--|
E-4---4-----4-4----4----------4----4---------4-------4--4-----|

verse
e------------------------------------------------------|
B------------------------------------------------------|
G------------------------------------------------------|
D---------2-2-----2-----2-----2-2----------------------|
A---2---2-----2-------2---2-----------2-2---2---2-2----|
E-0---0---------0---0-------0-----0-0-----0---0-----0--|

e-------------------------------------------------------------|
B-------------------------------------------------------------|
G-------------------------------------------------------------|
D---6---6-------6-6----6--6------6---6-----6---6--------------|
A---------6----------6------6--6-------6-6-------6-6---6---6--|
E-4---4-----4-4----4----------4----4---------4-------4--4-----|

chorus
e-----------------------------------------------------------|
B-----------------------------------------------------------|
G-----------------------------------------------------------|
D------4---------4--4-------4---4-------4-4---4-------4---4-|
A----4---4---4-4------4--4--------4---4-----4------4--------|
E--2-------2------2-----2--2--2-----2----------2-2------2---|

solo
e--------------------------------------------------------------|
B-------------------------------------4-5/7-7-7-7-7-7-7-7-7~---|
G-----------------------------------4--------------------------|
D---------------------------------3----------------------------|
A---------3-5/8-8-8-6-------3h5-6------------------------------|
E--2-4--5-------------7-4p5------------------------------------|



5.Mud Pie

intro
e--7--7--7--7--7--7--7--7--7--7--7--7--8--8--8--8--8--8-----|
B-----------------------------------------------------------|
G--6--6--6--6--6--6--5--5--5--5--5--5--6--6--6--6--6--6-----|
D-----------------------------------------------------------|
A-----------------------------------------------------------|
E-----------------------------------------------------------|

verse
e-----------------------------------------------------------|
B--7--7--7--7--7--7--7--7--7--7--7--7--8--8--8--8--8--8-----|
G-----------------------------------------------------------|
D--6--6--6--6--6--6--5--5--5--5--5--5--6--6--6--6--6--6-----|
A-----------------------------------------------------------|
E-----------------------------------------------------------|

e--7--7--7--7--7--7--7--7--7--7--7--7--8--8--8--8--8--8-----|
B-----------------------------------------------------------|
G--6--6--6--6--6--6--5--5--5--5--5--5--6--6--6--6--6--6-----|
D-----------------------------------------------------------|
A-----------------------------------------------------------|
E-----------------------------------------------------------|

Chorus
e--7--8--7--8--7--8--7--8--7--8--7--8----|
B----------------------------------------|
G--6--6--6--6--6--6--5--5--5--5--5--5----|
D----------------------------------------|
A----------------------------------------|
E----------------------------------------|



6.Stink

Intro
e-----------------------------------------|
B-----------------------------------------|
G-----------------------------------------|
D-9-9-9-9-9-7-7-7-7-7-5-5-5-5-5-2-2-2-2-2-|
A-9-9-9-9-9-7-7-7-7-7-5-5-5-5-5-2-2-2-2-2-|
E-9-9-9-9-9-7-7-7-7-7-5-5-5-5-5-2-2-2-2-2-|

E-----------------------------------------|
B-----------------------------------------|
G-----------------------------------------|
D-5-5-5-5-5-7-7-7-7-7-5-5-5-5-5-2-2-2-2-2-|
A-5-5-5-5-5-7-7-7-7-7-5-5-5-5-5-2-2-2-2-2-|
E-5-5-5-5-5-7-7-7-7-7-5-5-5-5-5-2-2-2-2-2-|

Verse
e---------------------------------------------------------------------------|
B---------------------------------------------------------------------------|
G---------------------------------------------------------------------------|
D-7-7-7-7-7-5-5-5-5-5-2-2-2-2-2-5-5-5-5-5-7-7-7-7-7-5-5-5-5-5-2-2-2-2-2-5~--|
A-7-7-7-7-7-5-5-5-5-5-2-2-2-2-2-5-5-5-5-5-7-7-7-7-7-5-5-5-5-5-2-2-2-2-2-5~--|
E-7-7-7-7-7-5-5-5-5-5-2-2-2-2-2-5-5-5-5-5-7-7-7-7-7-5-5-5-5-5-2-2-2-2-2-5~--|

Chorus
e---------------------------------------------------------------------------|
B---------------------------------------------------------------------------|
G---------------------------------------------------------------------------|
D-7~--------5~--------2~--------5~--------7~--------5~--------2~--------5~--|
A-7~--------5~--------2~--------5~--------7~--------5~--------2~--------5~--|
E-7~--------5~--------2~--------5~--------7~--------5~--------2~--------5~--|

solo
e------------------------------------------------------------|
B------------------------------------------------------------|
G----------------------------------------------8-8-8-8-8-8-8-|
D-9-9-7---------------------------11--9-8-7-7-7-7-7-7-7-7-7--|
A-------9\-------------7--9-10-11----------------------------|
E-----------9--7-7-7-9---------------------------------------|

e---------------------------------13--14-15-17---19~-|
B-----------------------14----15---------------------|
G-8----10----13----15--------------------------------|
D----------------------------------------------------|
A----------------------------------------------------|
E----------------------------------------------------|



7.Keep your Naked Ways

Intro
e-----------2--1--1----------------2--1--|
B--2--4--1--3--1--1-------2--4--1--3--1--|
G--2--4--0--2--2--2-------2--4--0--2--2--|
D--2--4--2--0--3--3-------2--4--2--0--3--|
A--0--2--3----------------0--2--3--------|
E----------------------------------------|

Verse
e-----------2--1-----------2--1--|
B--2--4--1--3--1--2--4--1--3--1--|
G--2--4--0--2--2--2--4--0--2--2--|
D--2--4--2--0--3--2--4--2--0--3--|
A--0--2--3--------0--2--3--------|
E--------------------------------|

Chorus
e-----2-----1-----2--1-----------2--1--|
B--2--3--4--1--1--3--1--2--4--1--3--1--|
G--2--2--4--2--0--2--2--2--4--0--2--2--|
D--2--0--4--3--2--0--3--2--4--2--0--3--|
A--0-----2-----3--------0--2--3--------|
E--------------------------------------|



8.In you

Intro
e------------------------------------------------------------------|
B------------------------------------------------------------------|
G------------------------------------------------------------------|
D---4---4---4---4---4---4------5---5---5---5------4---4---4---4----|
A-5---0---5---0---5---0---5--7---0---7---0---7--5---0---5---0---5--|
E------------------------------------------------------------------|

e------------------------------------------------------------------|
B------------------------------------------------------------------|
G------------------------------------------------------------------|
D------------------------------------------------------------------|
A---4---4---4---4---4---4------5---5---5---5------4---4---4---4----|
E-5---0---5---0---5---0---5--7---0---7---0---7--5---0---5---0---5--|

verse
e------------------------------------------------------------------------|
B------------------------------------------------------------------------|
G------------------------------------------------------------------------|
D---4---4---4---4---4---4---------5---5---5---5---------4---4---4---4----|
A-5---0---5---0---5---0---5-----7---0---7---0---7-----5---0---5---0---5--|
E------------------------------------------------------------------------|

e------------------------------------------------------------------------|
B------------------------------------------------------------------------|
G------------------------------------------------------------------------|
D------------------------------------------------------------------------|
A---4---4---4---4---4---4---------5---5---5---5---------4---4---4---4----|
E-5---0---5---0---5---0---5-----7---0---7---0---7-----5---0---5---0---5--|

Chorus
e------------------------------------------------------------------|
B------------------------------------------------------------------|
G------------------------------------------------------------------|
D-----4-------4-------4----------5-------5----------4-------4------|
A---4---4---4---4---4---4------5---5---5---5------4---4---4---4----|
E-5---4---5---4--5----4---5--7---7---7---7---7--5---7---5---7---5--|



9.Horny

Intro/verse
e----------------------------------------------------|
B-4-4-4-4-4-4-4-4-2-2-2-2-2-2-2-2--------------------|
G-4-4-4-4-4-4-4-4-2-2-2-2-2-2-2-2-0-0-0-0-0-0-0-0----|
D-4-4-4-4-4-4-4-4-2-2-2-2-2-2-2-2-0-0-0-0-0-0-0-0----|
A-2-2-2-2-2-2-2-2-0-0-0-0-0-0-0-0-2-2-2-2-2-2-2-2----|
E---------------------------------3-3-3-3-3-3-3-3----|

Chorus
e----------------------------------------------------|
B----------------------------------------------------|
G-4-4-4-4-4-4-4-4-2-2-2-2-2-2-2-2--------------------|
D-4-4-4-4-4-4-4-4-2-2-2-2-2-2-2-2-5-5-5-5-5-5-5-5----|
A-2-2-2-2-2-2-2-2-0-0-0-0-0-0-0-0-5-5-5-5-5-5-5-5----|
E---------------------------------3-3-3-3-3-3-3-3----|

Solo
e--------------------------------------------|
B--------------------------------10/13--13---|
G----------9--11-11--11h12--12---------------|
D--/9-9-11-----------------------------------|
A--------------------------------------------|
E--------------------------------------------|



10.Cat Poopy
Intro/Verse
E|-----------------------------------------------------|
B|-----------------------------------------------------|
G|--2-------------4-----------6-------------4----------|
D|--2-2-2-2-2-2---4-4-4-4-4---6-6-6-6-6-6---4-4-4-4-4~-|
A|--0-0-0-0-0-0---2-2-2-2-2---4-4-4-4-4-4---2-2-2-2-2~-|
E|-----------------------------------------------------|

Chorus
E|--------------------------------------------------|
B|--------------------------------------------------|
G|--2-----------4-----------6-----------4-----------|  
D|--2-----------4-----------6-----------4-----------|
A|--0-----------2-----------4-----------2-----------|
E|--------------------------------------------------|

solo
E|--7-----------------------7---------------------------------------|
B|---8-----------5-----------------------9------------7--7--7-7---7-|
G|-----8--8\6-6p5--6--6/8-8---8--8/10-10---10--10\8-8---------------|
D|------------------------------------------------------------------|
A|------------------------------------------------------------------|
E|------------------------------------------------------------------|

Outro
E|--------------------------------------------------------|
B|--------------------------------------------------------|
G|-2-2-2-2-2-2-2-2-4-4-4-4-4-4-6-6-6-6-6-6-6-6-4-4-4-4-4--|
D|-2-2-2-2-2-2-2-2-4-4-4-4-4-4-6-6-6-6-6-6-6-6-4-4-4-4-4~-|
A|-0-0-0-0-0-0-2-2-2-2-2-2-2-2-4-4-4-4-4-4-4-4-2-2-2-2-2~-|
E|--------------------------------------------------------|


11.Lumpy
Intro
e-----------------------------------------------|
B-----------------------------------------------|
G-----------------------------------------------|
D-------------------------6-----6---------6~----|
A----------------------6-----6-----6------6~----|
E---0-0-0-0---------4-----------------4---4~----|

Verse
e---------------------------------------------------|
B---------------------------------------------------|
G-6~~--6-------------------6~~--6------8~~--8-------|
D-6~~--6------6---6--------6~~--6------8~~--8-------|
A-4~~--4------6---6--------4~~--4------6~~--6-------|
E-------------4---4---------------------------------|

e------------------------------------------------------|
B------------------------------------------------------|
G-6~~--6-------------------6~~--6----------------------|
D-6~~--6------6---6--------6~~--6------6~--6---4--4----|
A-4~~--4------6---6--------4~~--4------6~--6---4--4----|
E-------------4---4--------------------4~--4---2--2----|

Outro
e--------------------------------------------------------|
B--------------------------------------------------------|
G-6-6-6-6-6-6-6-6-6-6-------------------------6-6-6-8-8--|
D-6-6-6-6-6-6-6-6-6-6-6-6-6-6-6-6-6-6-6-6-6-6-6-6-6-8-8--|
A-4-4-4-4-4-4-4-4-4-4-6-6-6-6-6-6-6-6-6-6-6-6-4-4-4-6-6--|
E---------------------4-4-4-4-4-4-4-4-4-4-4-4------------|



12.Jungle Bush
Intro
e------------------------------------------------------|
B------------------------------------------------------|
G------------------------------------------------------|
D-----------------------------------6-6-6-6--8-8-8-8---|
A---8--8--8----/8-8-8-8-8--6-6-6-6--6-6-6-6--8-8-8-8---|
E---8--8--8\---/8-8-8-8-8--6-6-6-6---------------------|

Verse p.m.
e-----------------------------------------|
B-----------------------------------------|
G-----------------------------------------|
D----------------------6-6-6-6--8-8-8-8---|
A--8-8-8-8-8--6-6-6-6--6-6-6-6--8-8-8-8---|
E--8-8-8-8-8--6-6-6-6---------------------|

chorus
e----------------------------------------------------|
B----------------------------------------------------|
G----------------------------------------------------|
D---------------------------6-6--8-8-8--6-6-6-5-5-5--|
A--8-8--6-6-6--8-8-8-9-9-9--6-6--8-8-8--6-6-6-5-5-5--|
E--8-8--6-6-6--8-8-8-9-9-9---------------------------|

solo
e----------------------------------------------------|
B----------------------------------------------------|
G----------------------------------------------------|
D-----------------8\6~--6--6-5-----------------------|
A--8~--8~--8--10----------------7/9-9-9-11---12------|
E----------------------------------------------------|



13.Fat Chicks Wearing Big Daipers
1ntro
e--3--3--3--3--3--3--3--3--3--3--3--3--3--3--3--3--3--|
B--0--0--0--0--0--0--0--0--0--0--0--0--0--0--0--0--0--|
G--0--0--0--0--0--0--0--0--0--0--0--0--0--0--0--0--0--|
D--2--2--0--0--0--2--2--0--0--2--0--2--0--2--0--2--0--|
A--2--2--2--2--2--2--2--0--0--2--2--2--2--2--2--2--2--|
E--------3--3--3--------2--2-----3-----3-----3-----3--|

Verse
e--3--3--3--3--3--3--3--3--3--3--3--3--3--|
B--0--0--0--0--0--0--0--0--0--0--0--0--0--|
G--0--0--0--0--0--0--0--0--0--0--0--0--0--|
D--2--2--0--0--0--2--2--0--0--2--0--2--0--|
A--2--2--2--2--2--2--2--0--0--2--2--2--2--|
E--------3--3--3--------2--2-----3-----3--|

e--3--3--3--3--3--3--3--3--3--3--3--3--3--3--3--3--3--|
B--0--0--0--0--0--0--0--0--0--0--0--0--0--0--0--0--0--|
G--0--0--0--0--0--0--0--0--0--0--0--0--0--0--0--0--0--|
D--2--2--0--0--0--2--2--0--0--2--0--2--0--2--0--2--0--|
A--2--2--2--2--2--2--2--0--0--2--2--2--2--2--2--2--2--|
E--------3--3--3--------2--2-----3-----3-----3-----3--|

Chorus
e--3---3---3---3---3---3---3---3--|
B--0---0---0---0---0---0---0---0--|
G--0---0---0---0---0---0---0---0--|
D--2---0---2---0---2---0---0---0--|
A--2---2---2---0---2---2---2---2--|
E------3-------2-------3---3---3--|

e--3--3--3--3--3--3--3---3---3---3---3--|
B--0--0--0--0--0--0--0---0---0---0---0--|
G--0--0--0--0--0--0--0---0---0---0---0--|
D--2--2--0--0--2--2--0---2---0---0---0--|
A--2--2--2--2--2--2--0---2---2---2---2--|
E--------3--3--------2-------3---3---3--|



14.Perky Tits

Intro
e------------------------------------------------------|
B------------------------------------------------------|
G------------------------------------------------------|
D-----------------7-----------------8---------------8--|
A---7-----5---3-5-5-6-8---5-7-3-5-5-6-7-7-----3-5-5-6--|
E-5-5-3-5-3-5---------6-6-3-5---------5-5-3-5----------|

Verse
e------------------------------------------------------|
B------------------------------------------------------|
G------------------------------------------------------|
D-----------------7-8---------5-7-7-8---------5-7-7-8--|
A-------7-5-7-3-5-5-6-8-8-5-7-3-5-5-6-7-7-5-7-3-5-5-6--|
E-5-5-3-5-3-5---------6-6-3-5---------5-5-3-5----------|

Chorus
e--------------------------------------------|
B--------------------------------------------|
G--------------------------------------------|
D--------7---5-----7---------5-5-------------|
A----5---5-6-3-3-5-5-8-8-----3-3-5-5-7-7-----|
E--5-3-5-------------6-6-3-5---------5-5-3-5-|

e-------------------------------------------|
B-------------------------------------------|
G-------------------------------------------|
D-----------5-5-7-7---------5-5-------------|
A---5-7-5-6-3-3-5-5-8-8-----3-3-5-5-7-7-----|
E-5-3-5-------------6-6-3-5---------5-5-3-5-|
comments
We did not receive enough feedback on this tab! Please rate:
print report bad tab
1 2 3 4 5
I want to post or [tab]
guest
You may want to rate the tab now too:
select rating
Please do not post tabs as comments. Select "correction" instead!