Oops, an error
Loading. Please wait.

Dream - My Will Tab

770 views 6 this week
no commentswrite comment
1 2 3 4 5
please rate
add to favorites launch autoscroll
font size
0
reset
Autoscroll
+/-
esc
set tempo
stop
Contributor
Difficulty
intermediate
WARNING: You are trying to view
                                    content from Ultimate-Guitar.com
                                    in an unauthorized application,
                                    which is prohibited.

                                    Please use an official Ultimate
                                    Guitar Tabs application for iPhone,
                                    iPad or Android to access legitimate
                                    chords, guitar, bass, and drum tabs
                                    from Ultimate-Guitar.com database.

                                    Type "ultimate guitar tabs" in Apple
                                    App Store's or Android Market's
                                    search to find the application.
 Q=130
 4/4
  Gtr I
  Q.   E +Q   Q    Q.   E +Q   E E   +W           W
|-3----2-(2)--0--|-2---------------|------------|------|
|----------------|------3-(3)----5-|-(5)--------|------|
|----------------|-------------4---|------------|-4----|
|----------------|-----------------|------------|------|
|----------------|-----------------|------------|------|
|----------------|-----------------|------------|------|


   Q.    E  +Q    Q     H     H       Q.    E  +Q    Q     H     H
|-12----14-(14)--15--|-------15----|-15----17-(17)--19--|-19----17----|
|--------------------|-15----------|--------------------|-------------|
|--------------------|-------------|--------------------|-------------|
|--------------------|-------------|--------------------|-------------|
|--------------------|-------------|--------------------|-------------|
|--------------------|-------------|--------------------|-------------|


  Q.   E +Q   Q    Q.   E +Q   E E   +H.      E E   +E  E +H     E E
|-4----3-(3)--1--|-3---------------|----------3-4-|-(4)------------3-|
|----------------|------4-(4)----6-|-(6)----------|-----4-(4)--------|
|----------------|-------------5---|--------------|------------------|
|----------------|-----------------|--------------|------------------|
|----------------|-----------------|--------------|------------------|
|----------------|-----------------|--------------|------------------|


  Q  E E +E  E E E   Q.   E Q  E S S   Q  E E +E  E E E   Q.   E H
|-4--4-4-(4)-4-4-6-|-4-----------1-3-|-4--4-4-(4)-4-4-6-|-4----3-3----|
|------------------|-1----4-4--------|------------------|-------------|
|------------------|-3---------------|------------------|-------------|
|------------------|-----------------|------------------|-------------|
|------------------|-----------------|------------------|-------------|
|------------------|-----------------|------------------|-------------|


   H     Q   Q     H     H       H     Q   Q     W
|-16----15--18--|-------------|-------13--18--|-20----|
|---------------|-18----16----|-15------------|-------|
|---------------|-------------|---------------|-------|
|---------------|-------------|---------------|-------|
|---------------|-------------|---------------|-------|
|---------------|-------------|---------------|-------|


  E E E E +E  E +E  E   +Q   E E +Q   E E   Q  E E +E  E E E   +E  E H    Q
|---2-3-2-(2)---------|-------------------|------------------|---------------|
|-5-----------------3-|-(3)--5-3-(3)----3-|-5--5-3-(3)-------|-----3---------|
|-------------4-(4)---|---------------4---|------------4-2-4-|-(4)---4-------|
|---------------------|-------------------|------------------|---------------|
|---------------------|-------------------|------------------|---------------|
|---------------------|-------------------|------------------|---------------|


  E E E E +E  E +E  E   +Q   E E +Q   E E   Q  E E +E  E E E   +H     H
|---2-3-2-(2)---------|-------------------|----3-2-(2)-3-3-3-|-(3)---------|
|-5-----------------3-|-(3)--5-3-(3)----3-|-5----------------|-------------|
|-------------4-(4)---|---------------4---|------------------|-------------|
|---------------------|-------------------|------------------|-------------|
|---------------------|-------------------|------------------|-------------|
|---------------------|-------------------|------------------|-------------|


  E E E E +E  E +E  E   +Q   E E +Q   E E   Q  E E +E  E E E   +E  E H    Q
|---2-3-2-(2)---------|-------------------|------------------|---------------|
|-5-----------------3-|-(3)--5-3-(3)----3-|-5--5-3-(3)-------|-----3---------|
|-------------4-(4)---|---------------4---|------------4-2-4-|-(4)---4-------|
|---------------------|-------------------|------------------|---------------|
|---------------------|-------------------|------------------|---------------|
|---------------------|-------------------|------------------|---------------|


  E E E E +E  E +E  E   +Q   E E +Q   E E   Q  E E +E  E E E   +H     H
|---2-3-2-(2)---------|-------------------|----3-2-(2)-3-3-3-|-(3)---------|
|-5-----------------3-|-(3)--5-3-(3)----3-|-5----------------|-------------|
|-------------4-(4)---|---------------4---|------------------|-------------|
|---------------------|-------------------|------------------|-------------|
|---------------------|-------------------|------------------|-------------|
|---------------------|-------------------|------------------|-------------|


  Q  Q  E E E E   +E  E +E  E +E  E E E   Q  Q  E E E E   +E  E Q  E E E E
|---------------|-----------------------|---------------|------------------|
|-3-----3-5-6-5-|-(5)-------------------|-----------1-1-|-(1)-3-3----3-5-6-|
|---------------|-----5-(5)-5-(5)-3-2-3-|-5-----5-2-----|------------------|
|---------------|-----------------------|---------------|------------------|
|---------------|-----------------------|---------------|------------------|
|---------------|-----------------------|---------------|------------------|


  +E  E +E  E E E E E   +E  E +E  E +E  E E E   +H     E E E E   +W
|-------------------1-|-(1)-3-(3)-3-(3)-1-3-3-|-(3)------3-5-5-|-(5)----|
|-(6)-5-(5)-3---3-5---|-----------------------|----------------|--------|
|---------------------|-----------------------|----------------|--------|
|---------------------|-----------------------|----------------|--------|
|---------------------|-----------------------|----------------|--------|
|---------------------|-----------------------|----------------|--------|


  Q  Q  E E E E   +E  E +E  E +E  E E E   Q  Q  E. S +E  E   Q  E E +E  E E E
|---------2-3-2-|-(2)-------------------|----------------2-|-2--3-3-(3)---2-3-|
|-5-----5-------|-----3-(3)-3-(3)-------|-4-----4--5-(5)---|------------5-----|
|---------------|-----------------5-4-5-|------------------|------------------|
|---------------|-----------------------|------------------|------------------|
|---------------|-----------------------|------------------|------------------|
|---------------|-----------------------|------------------|------------------|


  +E  E +E  E +E  E E E   +E  E +E  E E E E E   Q.   E Q  E E   Q.   E H
|-(3)-2-(2)-0-(0)-0-2-3-|-(3)-2-(2)-0---0-2-3-|-3----2-2----4-|-4----3-3----|
|-----------------------|---------------------|---------------|-------------|
|-----------------------|---------------------|---------------|-------------|
|-----------------------|---------------------|---------------|-------------|
|-----------------------|---------------------|---------------|-------------|
|-----------------------|---------------------|---------------|-------------|


  Q.   E +Q   Q    Q.   E +Q   E E   +H     Q  E E   +E  E +Q   E E E E
|-4----3-(3)--1--|-3-------------1-|-(1)-------3-4-|-(4)----------------|
|-1--------------|-1----4-(4)--1---|---------------|-----4-(4)----1-4-1-|
|----------------|-----------------|---------------|--------------------|
|----------------|-----------------|---------------|--------------------|
|----------------|-----------------|---------------|--------------------|
|----------------|-----------------|---------------|--------------------|


  +E  E Q  Q  E E   +Q   E E +Q   E S S   Q  E E +E  E E E   Q.   E H
|-------------1---|------1----------1-3-|-4--4-4-(4)-4-4-6-|-4----3-3----|
|-(1)-----------4-|-(4)----4-(4)--------|-6--6-6-(6)-6-6-8-|-------------|
|-----1-1---------|---------------------|------------------|-3------3----|
|-----------------|---------------------|------------------|-------------|
|-----------------|---------------------|------------------|-------------|
|-----------------|---------------------|------------------|-------------|


  Q.   E +Q   Q    Q.   E +Q   E E   +H     Q  E E   +E  E +H     E E
|-4----3-(3)--1--|-3-------------1-|-(1)-------3-4-|-(4)------------3-|
|-1--------------|-1----4-(4)--1---|---------------|-----4-(4)--------|
|----------------|-----------------|---------------|------------------|
|----------------|-----------------|---------------|------------------|
|----------------|-----------------|---------------|------------------|
|----------------|-----------------|---------------|------------------|


  Q  E E +E  E E E   Q.   E Q  E S S   Q  E E +E  E E E   Q.   E H
|-4--4-4-(4)-4-4-6-|-4-----------1-3-|-4--4-4-(4)-4-4-6-|-4----3-3----|
|-6--6-6-(6)-6-6-6-|-4----4-4--------|-6--6-6-(6)-6-6-8-|-------------|
|------------------|-----------------|------------------|-3------3----|
|------------------|-----------------|------------------|-------------|
|------------------|-----------------|------------------|-------------|
|------------------|-----------------|------------------|-------------|


   Q   E  E  +E   E  E  E    +E   E  H     Q
|-16--16------------------|---------------15--|
|--------20-(20)-18-16-16-|-(16)-18-18--------|
|--------17-(17)----------|------17-17--------|
|-------------------------|------18-18--------|
|-------------------------|-------------------|
|-------------------------|-------------------|


   Q   E  E  +E   E  E  E    +E   E  Q   +H
|-16--16------------------|---------------------|
|--------20-(20)-18-16-16-|-(16)-18-18--(18)----|
|--------17-(17)----------|------17-17--(17)----|
|-------------------------|------18-18--(18)----|
|-------------------------|---------------------|
|-------------------------|---------------------|


  E E E E +E  E +E  E   +Q   E E +Q   E E   Q  E E +E  E E E   +E  E H    Q
|---2-3-2-(2)---------|-------------------|------------------|---------------|
|-5-----------------3-|-(3)--5-3-(3)----3-|-5--5-3-(3)-------|-----3---------|
|-------------4-(4)---|---------------4---|------------4-2-4-|-(4)---4-------|
|---------------------|-------------------|------------------|---------------|
|---------------------|-------------------|------------------|---------------|
|---------------------|-------------------|------------------|---------------|


  E E E E +E  E +E  E   +Q   E E +Q   E E   Q  E E +E  E E E   +H     H
|---2-3-2-(2)---------|-------------------|----3-2-(2)-3-3-3-|-(3)---------|
|-5-----------------3-|-(3)--5-3-(3)----3-|-5----------------|-------------|
|-------------4-(4)---|---------------4---|------------------|-------------|
|---------------------|-------------------|------------------|-------------|
|---------------------|-------------------|------------------|-------------|
|---------------------|-------------------|------------------|-------------|


  Q  Q  E E E E   +E  E +E  E +E  E E E   Q  Q  E E E E   +E  E Q  E E E E
|---------------|-----------------------|---------------|------------------|
|-3-----3-5-6-5-|-(5)-------------------|-----------1-1-|-(1)-3-3----3-5-6-|
|---------------|-----5-(5)-5-(5)-3-2-3-|-5-----5-2-----|------------------|
|---------------|-----------------------|---------------|------------------|
|---------------|-----------------------|---------------|------------------|
|---------------|-----------------------|---------------|------------------|


  +E  E +E  E E E E E   +E  E +E  E +E  E E E   +H     E E E E   +W
|-(1)-0-(0)-------0-1-|-(1)-3-(3)-3-(3)-1-3-3-|-(3)------3-5-5-|-(5)----|
|-----------3---3-----|-----------------------|----------------|--------|
|---------------------|-----------------------|----------------|--------|
|---------------------|-----------------------|----------------|--------|
|---------------------|-----------------------|----------------|--------|
|---------------------|-----------------------|----------------|--------|


  Q  Q  E E E E   +E  E +E  E +E  E E E   Q  Q  E. S +E  E   Q  E E +E  E E E
|---------2-3-2-|-(2)-------------------|----------0-(0)-2-|-2--3-3-(3)---2-3-|
|-5-----5-------|-----3-(3)-3-(3)-1-0-1-|-4-----4----------|------------5-----|
|---------------|-----------------------|------------------|------------------|
|---------------|-----------------------|------------------|------------------|
|---------------|-----------------------|------------------|------------------|
|---------------|-----------------------|------------------|------------------|


  +E  E +E  E +E  E E E   +E  E +E  E E E E E   Q.   E Q  E E   Q.   E H
|-(3)-2-(2)-0-(0)-0-2-3-|-(3)-2-(2)-0---0-2-3-|-3----2-2----4-|-4----3-3----|
|-----------------------|---------------------|---------------|-------------|
|-----------------------|---------------------|---------------|-------------|
|-----------------------|---------------------|---------------|-------------|
|-----------------------|---------------------|---------------|-------------|
|-----------------------|---------------------|---------------|-------------|


  Q.   E +Q   Q    Q.   E +Q   E E   +H     Q  E E   +E  E +Q   E E E E
|-4----3-(3)--1--|-3-------------1-|-(1)-------3-4-|-(4)----------------|
|-1--------------|-1----4-(4)--1---|---------------|-----4-(4)----1---1-|
|----------------|-----------------|---------------|----------------3---|
|----------------|-----------------|---------------|--------------------|
|----------------|-----------------|---------------|--------------------|
|----------------|-----------------|---------------|--------------------|


  +E  E Q  Q  E E   +Q   E E +Q   E S S   Q  E E +E  E E E   Q.   E H
|-------------1---|-----------------1-3-|-4--4-4-(4)-4-4-6-|-4----3-3----|
|-(1)-----------4-|-(4)--6-4-(4)--------|-6--6-6-(6)-6-6-8-|-------------|
|-----1-1---------|---------------------|------------------|-3------3----|
|-----------------|---------------------|------------------|-------------|
|-----------------|---------------------|------------------|-------------|
|-----------------|---------------------|------------------|-------------|


  Q.   E +Q   Q    Q.   E +Q   E E   +H     Q  E E   +E  E +H     E E
|-4----3-(3)--1--|-3-------------1-|-(1)-------3-4-|-(4)------------3-|
|-1--------------|-1----4-(4)--1---|---------------|-----4-(4)--------|
|----------------|-----------------|---------------|------------------|
|----------------|-----------------|---------------|------------------|
|----------------|-----------------|---------------|------------------|
|----------------|-----------------|---------------|------------------|


  Q  E E +E  E E E   Q.   E Q  E S S   Q  E E +E  E E E   Q.   E H
|-4--4-4-(4)-4-4-6-|-4-----------1-3-|-4--4-4-(4)-4-4-6-|-4----3-3----|
|-6--6-6-(6)-6-6-6-|-4----4-4--------|-6--6-6-(6)-6-6-8-|-------------|
|------------------|-----------------|------------------|-3------3----|
|------------------|-----------------|------------------|-------------|
|------------------|-----------------|------------------|-------------|
|------------------|-----------------|------------------|-------------|


   W           H     H       W           +H      H
|-16--------|-15----18----|-----------|---------------|
|-----------|-------------|-18--------|-(18)----20----|
|-----------|-------------|-----------|---------------|
|-----------|-------------|-----------|---------------|
|-----------|-------------|-----------|---------------|
|-----------|-------------|-----------|---------------|


   W           H     H       W          H    H
|-----------|-------18----|-20--------|-----------|
|-21--------|-20----------|-18--------|-----------|
|-----------|-------------|-----------|-3----5----|
|-----------|-------------|-----------|-5----5----|
|-----------|-------------|-----------|-----------|
|-----------|-------------|-----------|-----------|


  Q.   E +Q   Q    Q.   E +Q   E E   +H     Q  E E   +E  E +Q   E E E E
|-4----3-(3)--1--|-3---------------|-----------3-4-|-(4)----------------|
|-1--------------|-1----4-(4)----6-|-(6)-----------|-----4-(4)----------|
|----------------|-------------5---|---------------|--------------5-3-5-|
|----------------|-----------------|---------------|--------------------|
|----------------|-----------------|---------------|--------------------|
|----------------|-----------------|---------------|--------------------|


  +E  E Q  Q  E E   +Q   E E +Q   E S S   Q  E E +E  E E E   Q.   E H
|-------------1---|------1----------1-3-|-4--4-4-(4)-4-4-6-|-4----3-3----|
|---------------4-|-(4)----4-(4)--------|-6--6-6-(6)-6-6-8-|-------------|
|-(5)-1-1---------|---------------------|------------------|-3------3----|
|-----------------|---------------------|------------------|-------------|
|-----------------|---------------------|------------------|-------------|
|-----------------|---------------------|------------------|-------------|


  Q.   E +Q   Q    Q.   E +Q   Q     H    E E E E   +E  E +E  E +E  E E E
|-4----3-(3)-----|------8-(8)--8--|--8------4-6-8-|-(8)-9-(9)-8-(8)-8-6-8-|
|-1-----------6--|-8--------------|--9------------|-----------------------|
|----------------|-5--------------|-10------------|-----------------------|
|----------------|----------------|---------------|-----------------------|
|----------------|----------------|---------------|-----------------------|
|----------------|----------------|---------------|-----------------------|


  +E  E +E  E +Q    E E   +H     Q  E E   Q  E E +E  E E E   Q.   E H
|-(8)-------------------|---------------|-1--3-4-(4)-4-4-6-|-4----6-6----|
|-----9-(9)-9-(9)-------|-------------4-|------------------|--------8----|
|------------------10-8-|-(8)-----------|------------------|-------------|
|-----------------------|---------------|------------------|-------------|
|-----------------------|---------------|------------------|-------------|
|-----------------------|---------------|------------------|-------------|


  H.      E E   +E  E +Q   Q   E  E    +Q    E  E  +Q    E  E    +W
|-8-------6-8-|-(8)-----------13-11-|-(11)--13-11-(11)--13-11-|-(11)----|
|-9-------8-9-|-(9)-8-(8)-----------|-------------------------|---------|
|-------------|-----8-(8)-----------|-------------------------|---------|
|-------------|---------------------|-------------------------|---------|
|-------------|---------------------|-------------------------|---------|
|-------------|---------------------|-------------------------|---------|


  W          W          W          H    H
|-4--------|----------|-4--------|-6----8----|
|-6--------|-4--------|-6--------|-8----8----|
|----------|-5--------|----------|-----------|
|----------|----------|----------|-----------|
|----------|----------|----------|-----------|
|----------|----------|----------|-----------|


  H.      E E   +E  E +Q   Q   E  E    +Q    E  E  +Q    E  E    +W
|-8-------6-8-|-(8)-----------13-11-|-(11)--13-11-(11)--13-11-|-(11)----|
|-9-------8-9-|-(9)-8-(8)-----------|-------------------------|---------|
|-------------|-----8-(8)-----------|-------------------------|---------|
|-------------|---------------------|-------------------------|---------|
|-------------|---------------------|-------------------------|---------|
|-------------|---------------------|-------------------------|---------|


  W          W          W          H    H
|-4--------|----------|-4--------|-6----8----|
|-6--------|-4--------|-6--------|-8----8----|
|----------|-5--------|----------|-----------|
|----------|----------|----------|-----------|
|----------|----------|----------|-----------|
|----------|----------|----------|-----------|


  H.      E E   +E  E +Q   Q   E  E    +Q    E  E  +Q    E  E    +W
|-8-------6-8-|-(8)-----------13-11-|-(11)--13-11-(11)--13-11-|-(11)----|
|-9-------8-9-|-(9)-8-(8)-----------|-------------------------|---------|
|-------------|-----8-(8)-----------|-------------------------|---------|
|-------------|---------------------|-------------------------|---------|
|-------------|---------------------|-------------------------|---------|
|-------------|---------------------|-------------------------|---------|


  W          W          W          H    H
|-4--------|----------|-4--------|-6----8----|
|-6--------|-4--------|-6--------|-8----8----|
|----------|-5--------|----------|-----------|
|----------|----------|----------|-----------|
|----------|----------|----------|-----------|
|----------|----------|----------|-----------|


  Q=65        Q=130
   W          W
|--8--------|------*|
|--9--------|------*|
|-10--------|------*|
|-----------|------*|
|-----------|------*|
|-----------|------*|


W - whole; H - half; Q - quarter; E - 8th; S - 16th; T - 32nd; X - 64th; a - acciaccatura
+ - note tied to previous; . - note dotted; .. - note double dotted
Uncapitalized letters represent notes that are staccato (1/2 duration)
Irregular groupings are notated above the duration line
Duration letters will always appear directly above the note/fret number it represents the
duration for.  Duration letters with no fret number below them represent rests.  Multi-
bar rests are notated in the form Wxn, where n is the number of bars to rest for.  Low
melody durations appear below the staff

Tablature Legend
----------------
 h   - hammer-on
 p   - pull-off
 b   - bend
 pb  - pre-bend
 r   - bend release (if no number after the r, then release immediately)
 /\  - slide into or out of (from/to "nowhere")
 s   - legato slide
 S   - shift slide
<n> - natural harmonic
[n]  - artificial harmonic
n(n) - tapped harmonic
 ~   - vibrato
 tr  - trill
 T   - tap
 TP  - trem. picking
 PM  - palm muting
\n/  - tremolo bar dip; n = amount to dip
 \n  - tremolo bar down
 n/  - tremolo bar up
/n\  - tremolo bar inverted dip
 =   - hold bend; also acts as connecting device for hammers/pulls
 <> - volume swell (louder/softer)
 x   - on rhythm slash represents muted slash
 o   - on rhythm slash represents single note slash

Misc Legend
-----------
 |  - bar
||  - double bar
||o - repeat start
o|| - repeat end
*|  - double bar (ending)
 :  - bar (freetime)
 $  - Segno
 &  - Coda
Tempo markers - <E/E./Q/Q./H/H.> = BPM(8/16=s8/s16), where s8 = swing 8ths, s16 = swing 16ths
comments
We did not receive enough feedback on this tab! Please rate:
print report bad tab
1 2 3 4 5
I want to post or [tab]
guest
You may want to rate the tab now too:
select rating
Please do not post tabs as comments. Select "correction" instead!