Oops, an error
Loading. Please wait.

Dysfunction - Tribute Tab

369 views 1 this week
4 commentsread comments
1 2 3 4 5
worth learning
x 4
add to favorites launch autoscroll
font size
0
reset
Autoscroll
+/-
esc
set tempo
stop
Contributor
Difficulty
advanced
WARNING: You are trying to view
                                    content from Ultimate-Guitar.com
                                    in an unauthorized application,
                                    which is prohibited.

                                    Please use an official Ultimate
                                    Guitar Tabs application for iPhone,
                                    iPad or Android to access legitimate
                                    chords, guitar, bass, and drum tabs
                                    from Ultimate-Guitar.com database.

                                    Type "ultimate guitar tabs" in Apple
                                    App Store's or Android Market's
                                    search to find the application.
Heres the songs we have:
1.Unholy Confessions-Avenged Sevenfold
2.(intro)Smoke on the Water(metal version)-Deep Purple
3.Duality-Slipknot
4.Thank you for the Venom-My Chemical Romance
5.(intro)Suffering-Coheed and Cambria
6.(intro)Blinded in Chains-Avenged Sevenfold
7.(intro)Bat Country-Avenged Sevenfold
8.(intro)Sweet Child O Mine-Guns N Roses

1.Unholy Confessions
Intro
|--------------------------------------------------------------------------|
|--------------------------------------------------------------------------|
|--------------------------------------------------------------------------|
|-0-0----------------------------------------------------------------------|
|-0-0--5---7---8---10---8---7h8p7-----------10-0-8-0-7~-------7-0-8-0------|
|-0-0----0---0---0----0---0-------10~--8-8---------------7-7----------10~--|
PM- -    -   -   -    -   -            - -               - -


|-------------------------------------------------|
|-------------------------------------------------|
|-------------------------------------------------|
|-0-0----------------------------------8-8x--7-7x-|
|-0-0--5---7---8---10---8---7h8p7------8-8x--7-7x-|
|-0-0----0---0---0----0---0-------10~--8-8x--7-7x-|
PM- -    -   -   -    -   -



Harmonized part - Guitar 1
|--------------------------------------------------------------------------|
|--------------------------------------------------------------------------|
|--------------------------------------------------------------------------|
|-0-0----------------------------------------------------------------------|
|-0-0--5---7---8---10---8---7h8p7-----------10-0-8-0-7~-------7-0-8-0------|
|-0-0----0---0---0----0---0-------10~--8-8---------------7-7----------10~--|
PM- -    -   -   -    -   -            - -               - -


Harmonized part - Guitar 2
|---------------------------------------------------------------------|
|---------------------------------------------------------------------|
|---------------------------------------------------------------------|
|-0-0--3---5---7---8---7---5h7p5---------8---7---5~-------5---7-------|
|-0-0----------------------------7~--------0---0------------0---0-7~--|
|-0-0----0---0---0---0---0-----------8-8-------------7-7--------------|
PM- -    -   -   -   -   -           - -             - -


Fill
|-----------------|
|-8-8-10-10-6-6-4-|
|-7-7--9--9-5-5-3-|
|-----------------|
|-----------------|
|-----------------|


Verse
|------------------------------------------------------------------------|
|-----------------13-13\11--11\10-10/11------------------8-8-10-10-6-6-4-|
|-7-7-7--7--------12-12\10--10\-9--9/10------------------7-7--9--9-5-5-3-|
|-7-7-7--7-0--0--------------------------8-8-8--8-8-10-------------------|
|-5-5-5--5-0--0--------------------------8-8-8--8-8-10-------------------|
|----------0--0--------------------------8-8-8--8-8-10-------------------|
PM       - -                                    - -


|------------------------------------------------------------------
|------------------------------------------------------------------
|------------------------------------------------------------------
|-12121212-12--1212121212--1212--5-7-8888-8--10101010-10--10-10-10-
|-12121212-12--1212121212--1212--5-7-8888-8--10101010-10--10-10-10-
|-12121212-12--1212121212--1212--5-7-8888-8--10101010-10--10-10-10-
PM-- -- -- --     -- -- -- -- --  -- --  - - - - - -    -- -- -- --  


Bridge
|-----------------|
|-----------------|
|-----------------|
|-0-0---0-0-0-0-0-|
|-0-0---0-0-0-0-0-|
|-0-0---0-0-0-0-0-|
PM- -   - - - - -


Verse
|------------------------------------------------------------|
|------------------------------------------------------------|
|------------------------------------------------------------|
|-0-0------------------------0-0-----------------------------|
|-0-0--7---8---5-7-8--7-5-4~-0-0--7p0-8p0-12p0-13p0-12p0-<4>-|
|-0-0----0-------------------0-0-----------------------------|
PM- -    -                   - -


Chorus
|---------------------------------------------------------------------|
|---------------------------------------------------------------------|
|-7-7-7x---------5--5-5-5---------------------------------5-5-5-5-5-5-|
|-7-7-7x-0--2-3--5--5-5-5--2h3--2h3p2------3-3-3X--3--3-3-5-5-5-5-5-5-|
|-5-5-5x-0--2-3--3--3-3-3-------------5-3--3-3-3X--3--3-3-3-3-3-3-3-3-|
|--------0--2-3----------------------------3-3-3X--3--3-3-------------|


|-------------------------------------------------------------|
|-------------------------------------------------------------|
|-7-7-7x---------5-5-5-5-5-5-5-5------------------------------|
|-7-7-7x-0--2-3--5-5-5-5-5-5-5-5--3-3-3x--3--3-3-3--5-5-5x--3-|
|-5-5-5x-0--2-3--3-3-3-3-3-3-3-3--3-3-3x--3--3-3-3--5-5-5x--5-|
|--------0--2-3-------------------3-3-3x--3--3-3-3--5-5-5x--3-|


Solo part (harmonized)
|-------------------------------------------------------------------|
|-------------------------------------------------------------------|
|-------------------------------------------------------------------|
|-------------------------------------------------------------------|
|-10/12-10---8/10-8-10--8/10-12-10--5/7-5-7-5--8--7--5--4---7/8-7-8-|
|-------------------------------------------------------------------|

Verse   Riff I

|---------------------|
|---------------------|
|---------------------|
|---------------------|
|-0-0-0-0-0-0-0-0-0-0-|
|-0-0-0-0-0-0-0-0-0-0-|
|-0-0-0-0-0-0-0-0-0-0-|
PM- - - - - - - - - -


|----------------------------|
|----------------------------|
|----------------------------|
|-0-12-11-0-10-9-8-0-7-0-7-6-|
|-0-12-11-0-10-9-8-0-7-0-7-6-|
|-0-12-11-0-10-9-8-0-7-0-7-6-|


|---------------------------------|
|---------------------------------|
|---------------------------------|
|-0-11/12-11-0-9/10-9-8-0-7-0-7-6-|
|-0-11/12-11-0-9/10-9-8-0-7-0-7-6-|
|-0-11/12-11-0-9/10-9-8-0-7-0-7-6-|


|--------------------------------|
|--------------------------------|
|--------------------------------|
|--------------------------------|
|--------------------------------|
|-0-11^--0-10^--0-8^--0-7^--0-5^-|


|------------------------------------|
|------------------------------------|
|------------------------------------|
|--------------------------7-7\2-2-2-|
|--------------------------9-9\4-4-4-|
|-0-5^--0-5^--0-5~--0-3-0--7-7\2-2-2-|

Chorus        Riff VI

You can figure out the pattern. Just listen to the song.
     Peace out.
----------------------------------------------------------------------------
2.(intro)Smoke on the Water(metal Version)
|-------------------------|
|-------------------------|
|-------------------------|
|-0-3-5-0-3-6-5-0-3-5-3-0-|
|-0-3-5-0-3-6-5-0-3-5-3-0-|
|-------------------------|

just play this over and over again with tone all the way down to 1
----------------------------------------------------------------------------
3.Duality
Intro x4 (the first 2 times are real soft, last 2 are hard)
|---------------------------------------|
|---------------------------------------|
|---------------------------------------|
|---------------------------------------|
|---------------------------------------|
|--000000000000000033333333/66\11111111-|

Pre-verse x2
|---------------------------------------------------------------------|
|---------------------------------------------------------------------|
|-----------------------------3*b-------------------------------------|
|--0-0-0--0-0--0-0-0--0-0-1-3-------0-0-0--0-0--0-0-0--0-0-1-3--3*b---|
|--0-0-0--0-0--0-0-0--0-0-1-3-------0-0-0--0-0--0-0-0--0-0-1-3--------|
|--0-0-0--0-0--0-0-0--0-0-1-3-------0-0-0--0-0--0-0-0--0-0-1-3--------|
pm.........................         ........................

Verse(tremolo pick whole verse)x8
|------------------------------------------|
|------------------------------------------|
|------------------------------------------|
|------------------------------------------|
|------------------------------------------|
|--77777101010107777733333336666111111111--|
pm.........................................

Pre-chorus x1
|---------------------------------------|
|---------------------------------------|
|---------------------------------------|
|--3-3-33--3-3-3-33--3-3-3-33--3-3-3----|
|--3-3-33--3-3-3-33--3-3-3-33--3-3-3-3*-|
|--3-3-33--3-3-3-33--3-3-3-33--3-3-3----|
pm..................................
I push my fingers in to my...

Chorus(hold note is quick)x2
|-------------------------------------------|
|-------------------------------------------|
|-------------------------------------------|
|--0~000000000000000-3~333333-666-11111111--|
|--0~000000000000000-3~333333-666-11111111--|
|--0~000000000000000-3~333333-666-11111111--|
EYES....

Pre-verse 2 x1 tremolo pick
|----------------------------------------------------------------------|
|----------------------------------------------------------------------|
|----------------------------------------------------------------------|
|-------------------------------------------------------------3-5-1-0--|
|-------------------------------------------------------------3-5-1-0--|
|--777777101010107777733333336661111111111-777771010101077777-3-5-1-0--|
pm...........................................................
verse x4

Pre-chorus x1

Chorus x4

Chorus Guitar 2 on 3rd and 4th times
|----------------------------|
|----------------------------|
|----------------------------|
|---5-5--8-8--12-12-13/12b---|
|----------------------------|
|----------------------------|

Bridge x4
|---------------------------------------------------------------------|
|---------------------------------------------------------------------|
|---------------------------------------------------------------------|
|------------------------------3*b------------------------------------|
|--0-0-0--0-0--0-0-0--0-0-1-3-------0-0-0--0-0--0-0-0--0-0-1-3--3*b---|
|--0-0-0--0-0--0-0-0--0-0-1-3-------0-0-0--0-0--0-0-0--0-0-1-3--------|
|--0-0-0--0-0--0-0-0--0-0-1-3-------0-0-0--0-0--0-0-0--0-0-1-3--------|

Pre-chorus x1

Fill 1 (add this on the end of the prechorus)
|---------------------------------------|
|---------------------------------------|
|---------------------------------------|
|---------------------------------------|
|---------------------------------------|
|--77777101010107777733333336661111111--|

Chorus x4

Outro light palm muting
|---------------------------------------------------------------|
|---------------------------------------------------------------|
|------------------------------3*b------------------------------|
|--0-0-0--0000--0-0-0--0010--3------0-0-0--0000--0-0-0--0-0-1-0-|
|--0-0-0--0000--0-0-0--0010--3------0-0-0--0000--0-0-0--0-0-1-0-|
|--0-0-0--0000--0-0-0--0010--3------0-0-0--0000--0-0-0--0-0-1-0-|
pm..............................................................

with heavy palm muting
|---------------------------------------------------------------------------|
|---------------------------------------------------------------------------|
|------------------------------------------3*b------------------------------|
|-0-0-0-0---0-0-0--0000--0-0-0--0-0-1-0--3------0-0-0--0000--0-0-0--0-0-1-0-|
|-0-0-0-0---0-0-0--0000--0-0-0--0-0-1-0--3------0-0-0--0000--0-0-0--0-0-1-0-|
|-0-0-0-0---0-0-0--0000--0-0-0--0-0-1-0--3------0-0-0--0000--0-0-0--0-0-1-0-|
.......................................         ...........................

|-------|
|-------|
|-------|
|-3-3*b-
|-3-----|
|-3-----|

now with light palm muting again
|-------------------------------------------------------------------------|
|-------------------------------------------------------------------------|
|---------------------------------3*b-------------------------------------|
|--0-0-0--0000--0-0-0--0-0-1-0--3------0-0-0--0000--0-0-0--0-0-1-0-3-3*b--|
|--0-0-0--0000--0-0-0--0-0-1-0--3------0-0-0--0000--0-0-0--0-0-1-0-3------|
|--0-0-0--0000--0-0-0--0-0-1-0--3------0-0-0--0000--0-0-0--0-0-1-0-3------|
..............................         ...........................

song order:
intro x4
pre-verse x1
verse x8
pre-chorus x1
chorus x2
pre-verse2 x1
verse x4
pre-chorus x1
chorus x4
bridge x
pre-chorus x1
fill 1 x1
chorus x4
outro x1
----------------------------------------------------------------------------
4.Thank you for the Venom
::INTRO::
  Guitar 1
e|--------------------------------------------------------------------|
B|--------------------------------------------------------------------|
G|--------------------------------------------------------------------|
D|---4----------------0h2------------------2---4---5-----2-----4------|
A|---2--2-4-5-2-4---------4-5-4-2-------------------------------------|
E|----------------2-3-------------3-2--0-0---0---0---0-0---0-0--------|
PM      . . . . . . .     . . . . . .  . .   .   .   . .   . .
e|--------------------------------------------------------------------|
B|--------------------------------------------------------------------|
G|--------------------0h2---------------------------------------------|
D|---4----------------------5---4---2-----2---4---5-----2----4--------|
A|---2--2-4-5-2-4-----------------------------------------------------|
E|----------------2-3-----0---0---0---0-0---0---0---0-0---0-0---------|
PM      . . . . . . .     .   .   .   . .   .   .   . .   . .
 
  Guitar 2
e|-------------------------------------------------------------------|
B|-------------------------------------------------------------------|
G|---7-7-7-7-7-7-7-7-6-6-6-6-7-7-7-7-7-7-7-7-9-9-9-9-11-11-11-11-----|
D|---9-9-9-9-9-9-9-9-9-9-9-9-9-9-9-9-9-9-9-9-9-9-9-9-9--9--9--9------|
A|-------------------------------------------------------------------|
E|-------------------------------------------------------------------|

e|-------------------------------------------------------------------|
B|-------------------------------------------------------------------|
G|---7-7-7-7-7-7-7-7-6-6-6-6-12-12-12-12-12/11-11-7-7-7-7-7/6-6------|
D|---9-9-9-9-9-9-9-9-9-9-9-9-9--9--9--9--9--9--9--9-9-9-9-9-9-9------|
A|-------------------------------------------------------------------|
E|-------------------------------------------------------------------|

e|--------------|
B|--------------|
G|---7-(16x)----|
D|---9----------|
A|--------------|
E|--------------|
PM   .
                        ::VERSE::
e|-----------------------------------------------------------|
B|-----------------------------------------------------------|
G|-----------------------------7-7-7-7-7-9-6-6-6-6-6-6-6-6---|
D|-----------------------------x-x-x-x-x-x-x-x-x-x-x-x-x-x---|
A|---4-4-4-4-4-5--4-4-4-4-4-5--5-5-5-5-5-7-4-4-4-4-4-4-4-4---|
E|---2-2-2-2-2-3--2-2-2-2-2-3--------------------------------|

e|--------------------------------------------------------------|
B|--------------------------------------------------------------|
G|-----------------9-9-9-9-11-11------------------------11-11---|
D|---4-4-4--4-4-4--x-x-x-x-x--x---4-4-4--4-4-4--9-9-9-9-x--x----|
A|---2-2-2--2-2-2--7-7-7-7-9--9---2-2-2--2-2-2--7-7-7-7-9--9----|
E|--------------------------------------------------------------|

e|--------------------------------------------------|
B|--------------------------------------------------|
G|--------------------------------------------------| PM
D|---4-4-4-4-4-4-4-4--7-9---4-4-4-4-4-4-4-4--7-9----| second 
A|---2-2-2-2-2-2-2-2--5-7---2-2-2-2-2-2-2-2--5-7----| time
E|--------------------------------------------------| round

                          ::PRECHORUS::
e|------------------------------------------------------------------------|
B|------------------------------------------------------------------------|
G|------------------------------------------------------------------------|
D|------------------------------------------------------------------------|
A|---5-5-5-5-5-5-5-5-7-7-7-7-9-9-9-9-9-9-9-9-9-9-9-9-1111111112-12-12-12--|
E|---3-3-3-3-3-3-3-3-5-5-5-5-7-7-7-7-6-6-6-6-6-6-6-6-9-9-9-9-10-10-10-10--|
                                                     Elevens
 
e|----------------------------------------------------------------------|
B|----------------------------------------------------------------------|
G|----------------------------------------------------------------------|
D|----------------------------------------------------------------------|
A|---5-5-5-5-5-5-5-5-5-5-5-5-5-5-5-5-7-7-7-7-7-7-7-7-7-7-7-7-7-7-7-7----|
E|---3-3-3-3-3-3-3-3-3-3-3-3-3-3-3-3-5-5-5-5-5-5-5-5-5-5-5-5-5-5-5-5----|

                 ::CHORUS::
  Guitar 1
e|--------------------------------------------|
B|--------------------------------------------|
G|--------------------------------------------|
D|---12--------11--------9---------5----------|
A|---x--(16x)--x--(16x)--x--(16x)--x--(16x)---|
E|---10--------9---------7---------3----------|

  Guitar 2
e|--------------------------------------------|
B|--------------------------------------------|
G|---7--------7--------4----------------------|
D|---7-(16x)--7-(16x)--4-(16x)-5--------------|
A|---5--------4--------2-------5-(16x)--------|
E|-----------------------------3--------------|

  After Second Chorus
e|--------------------------------|
B|--------------------------------|
G|--------------------------------|
D|---4--x--4p0-4p0-4p0-4p0-4p0----|
A|---2--x-------------------------|
E|--------------------------------|

  LEAD
e|------------------------------------------------------------------------|
B|------------------------------------------------------------------------|
G|---4-4-4-4-4-4-4-4-4-4-4-4-4-4-6-6-6-6-7-7-7-7-7-7-7-7-6-6-6-6-6-6-6-6--|
D|------------------------------------------------------------------------|
A|------------------------------------------------------------------------|
E|------------------------------------------------------------------------|

e|------------------------------------------------------------------------|
B|------------------------------------------------------------------------|
G|---6-6-6-6-6-6-6-6-6-6-6-6-6-6-7-7-7-7-9-9-9-9-9-9-9-9-7-7-7-7-7-7-7-7--|
D|------------------------------------------------------------------------|
A|------------------------------------------------------------------------|
E|------------------------------------------------------------------------|

e|-------------------------------------------------------------------------|
B|-------------------------------------------------------------------------|
G|-11-11-11-11-9-9-8-8-8-8-9-9-9-9-11-11-11-11-11-11-11-12-9-9-9-9-9-9-9-9-|
D|-------------------------------------------------------------------------|
A|-------------------------------------------------------------------------|
E|-------------------------------------------------------------------------|

e|------------------------------------------------|
B|------------------------------------------------|
G|---9-9-9-9-9-9-9-11-11-11-11-12-12-12-12--------|
D|------------------------------------------------|
A|------------------------------------------------|
E|------------------------------------------------|
 
  RYTHYM
e|------------------------------------------|
B|------------------------------------------|
G|------------------------------------------|
D|---4-(16x)--------------------------------|
A|---2--------5-(16x)--5-(16x)--4-(16x)-----|
E|------------3--------1--------2-----------|

                            ::SOLO::
e|---------------------------------------12-14-12-14--17-19-17---|
B|---------------------12-14-15-14-15-14-------------------------|
G|---11-12-14-11-12-14-------------------------------------------|
D|---------------------------------------------------------------|
A|---------------------------------------------------------------|
E|---------------------------------------------------------------|

e|-14-15-14----14----14---14-15-14----14----------19-15-14----14-----------|
B|----------17----17---------------17----17-15-14----------17----17-15-14--|
G|-------------------------------------------------------------------------|
D|-------------------------------------------------------------------------|
A|-------------------------------------------------------------------------|
E|-------------------------------------------------------------------------|

e|-------------------------------------------------------------------------|
B|--15p14p12-14p12----12---------------------------------------------------|
G|-----------------14----14-12--14p12p11-12p11----11-----------------------|
D|---------------------------------------------14----14-12--14p12p11-12p11-|
A|-------------------------------------------------------------------------|
E|-------------------------------------------------------------------------|

e|----------------------------------------------------|
B|----------------------------------------------------|
G|----------------------------------------------------|
D|----11----------------------------------------------|
A|-14----14-12--14p12p10-12p10----10------------------|
E|-----------------------------14----14-14p12p10-0~---|
----------------------------------------------------------------------------
5.(intro) The Suffering
Phase I (Guitar II)
E|-----------------------------------------------------------------------------------|
B|-----------------------------------------------------------------------------------|
G|-----------------------------------------------------------------------------------|
D|------5-2--0-0-0--5-2--7--9/-------------------------------------------------10-10-|
A|-10/-------------------5--7/--2-2--------------5-7--7-7-7-7-7-5--------------8--8--|
E|-8-/--------------------------0-0--0-0-0--0-0--3-5--5-5-5-5-5-3---0-3-5-3--0-------|
        . .  . . .  . .         . .  . . .  . .       . . . .       . . . .  .

--------------------------||
--------------------------||
--------------------------||
---10-10--10-10--10-10-12-||
---7--8---7--8---7--8--10-||
--------------------------||
   .  .          .  .

Phase I Pt. 1 (Guitar I)
E|------------------------------------------------------------------------------------|
B|------------------------------------------------------------------------------------|
G|-----------------------5--4/-------------------7-9--------9-7/----------7-----10/12-|
D|------5-2--0-0-0--5-2--5--5/-------------------x-x--------x-x-------------7/--x--x--|
A|------------------------------2-2--------------5-7--------7-5/----------------8-/10-|
E|------------------------------0-0--0-0-0--0-0-------0-0-0-------0-3-5-3-------------|
        . .  . . .  .           . .  . . .  . .       . . .       . . . .

-------------------------||
-------------------------||
---12/14---14/16/14--12/-||
---x--x----x--x--x---x---||
---10/12---12/14/12--10/-||
-0-------0---------------||
 .       .

Phase I Pt. 2 (Guitar I)
E|---------------------------------------------------------------------------------------|
B|---------------------------------------------------------------------------------------|
G|-----------------------5--4/-------------------7*-9--------9*-7/----------7*-----10/12-|
D|------5-2--0-0-0--5-2--5--5/-------------------------------------------------7/---x--x-|
A|------------------------------2-2------------------------------------------------8-/10-|
E|------------------------------0-0--0-0-0--0-0-------0-0-0--------0-3-5-3---------------|
        . .  . . .  .           . .  . . .  . .       . . .        . . . .

------------------------||
------------------------||
--12/14---14/16/14--12/-||
---x--x----x--x--x---x--||
--10/12---12/14/12--10/-||
------------------------||

Phase II (Guitar I)
E|----------------------------------------------------------------------------------------|
B|----------------------------------------------------------------------------------------|
G|----------------------------------------------------------------------------------------|
D|--------------------------------------------------------------------------------------5-|
A|-12/-----------------------------------3--3-3-3--3-3-3--3-3-5--7-7-...--7-5--5-...--5-3-|
E|-10/-----------------------------------1--1-1-1--1-1-1--1-1-3--5-5-...--5-3--3-...--3---|
                                            . . .  . . .  . .      . ...       . ...

--------------------------------||
--------------------------------||
--------------------------------||
-5-...-5------------------------||
-3-...-3-3--3-...-3/--3-...-3---||
---------1--1-...-1/--1-...-1/12||
 . ...      . ...       ...

Phase II Pt. 1 (Guitar II)
E|---------------------------|
B|---------------------------|
G|---------------------------|
D|---------------------------|
A|-12/---x-x-x--x-x-x--x-x-x-|
E|-10/---x-x-x--x-x-x--x-x-x-|

|---8---8------------------8---8--------------------------------------------------------|
|-8---8---8-6-5b--7-5b---8---8---8------------------------------------------------------|
|-------------------------------------5-7-5/-----5-7-5h7p5----5-7-5/-------------5-5-5/-|
|-----------------------------------5---------5-------------5--------7-7-7-7-7-7--------|
|---------------------------------------------------------------------------------------|
|---------------------------------------------------------------------------------------|
                                  .         .             .        . . . . . . . .

|------------||
|------------||
|------------||
|------------||
|-3-...-3----||
|-1-...-1/12-||


Phase II Pt. 2 (Guitar II)
E|---8---8------------------8---8-------------------------------------------------10-10b-8-8-||
B|-8---8---8-6-5b--7-5b---8---8---8----------------------------------------------------------||
G|-------------------------------------5-7-5/-----5-7-5h7p5----5-7-5/------------------------||
D|-----------------------------------5---------5-------------5--------7-7-7-7-7-7------------||
A|-------------------------------------------------------------------------------------------||
E|-------------------------------------------------------------------------------------------||
                                     .         .             .        . . . . . .

Phase III (Guitar I)
E|-------------------------||
B|-------------------------||
G|-------------------------||
D|-5-...-------------------||
A|-3-...-5-...-7-...-3-...-||
E|-------3-...-5-...-1-...-||

Phase III Pt. 1 (Guitar II)
E|-----------------------------------------------------------------------------------||
B|-----------------------------------------------------------------------------------||
G|-----12-10-9-10-9------12-10-9-10-9---9-...-9/7-...-7/9-...-9/10-------------------||
D|-10----------------10-----------------x-...-x/x-...-x/x-...-x/x--------------------||
A|--------------------------------------7-...-7/5-...-5/7-...-7/8----2h3p2---2h3---5-||
E|-------------------------------------------------------------------------3-----3---||

Phase III Pt. 2 (Guitar II)
E|----------------------------------------------------------------------------------------||
B|----------------------------------------------------------------------------------------||
G|-----12-10-9-10-9---------9-10-12-12b-10---9-...-9/7-...-7/9-...-9/10-------------------||
D|-10----------------10--12------------------x-...-x/x-...-x/x-...-x/x--------------------||
A|-------------------------------------------7-...-7/5-...-5/7-...-7/8----2h3p2---2h3---5-||
E|------------------------------------------------------------------------------3-----3---||

Phase IV (Guitar I)
E|---------------------------------------------------------||
B|---------------------------------------------------------||
G|---------------------------------------------------------||
D|-5-...---------------------------------------------------||
A|-3-...-5-...-7-...-3-...-5-...--8-7---8-7---10-------10/-||
E|-------3-...-5-...-1-...-3-...------8-----8-8--------8-/-||

Phase IV (Guitar II)
E|------------------------------------------------------------------------------------|
B|------------------------------------------------------------------------------------|
G|-----12-10-9-10-9------12-10-9-10-9---9-...-9/7-...-7/9-...-9/10--------------------|
D|-10----------------10-----------------x-...-x/x-...-x/x-...-x/x---------------------|
A|--------------------------------------7-...-7/5-...-5/7-...-7/8----2h3p2---2h3---5--|
E|-------------------------------------------------------------------------3-----3----|

-------------------------------------------||
-------------------------------------------||
-------------------------------------------||
-------------------------------------------||
----2-------------8-7---8-7---10-------10/-||
-----------3----------8-----8-8--------8---||
----------------------------------------------------------------------------
6.(intro)Blinded In Chains
INTRO

E---------------------------------------------|
B-------Palm Mute-----------------------------|
G---------------------------------------------| 
D-0000000--0000000--0000----------------------| x4
A-0000000--0000000--0000----------------------|
D-0000000--0000000--0000----------------------|

E--------------------------------------------------|
B--------------------13-15-11----15-13-10----13/17-|
G--7---7---7-7-9-10-----------12----------10-------|
D----7---7-----------------------------------------|
A--------------------------------------------------|
D--------------------------------------------------|

E-------------------------------18-17-18-17--18-17-18-17-------------|
B-18-17-18-17-15-18-17-18-17-15------------18-----------18-----------|
G--------------------------------------------------------------------|
D--------------------------------------------------------------------|
A--------------------------------------------------------------------|
D--------------------------------------------------------------------|

E---17-18-----18-17-----17-15-13h15p13-------|
B-20-----20-15-----18-15--------------17-----|
G--------------------------------------------|
D--------------------------------------------|
A--------------------------------------------|
D--------------------------------------------|

PREVERSE

E--------------------------------------------|
B----Palm Mute-------------------------------|
G--------------------------------------------|
D-00-000-000-06666-00-00(0-000-04444)--------| x2
A-00-000-000-06666-00-00(0-000-04444)--------|
D-00-000-000-06666-00-00(0-000-04444)--------|play the ()part only once

E--------------------------13^------------------------------------------13^--|
B--------------12-12-15-12-------------------15-12----------12-12-15-12------|
G------14--13^----------------------14--13^-------15-14-12-------------------|
D-12-12--12--------------------12-12--12-------------------------------------|
A----------------------------------------------------------------------------|
D----------------------------------------------------------------------------|

E--------------------------------------------------------------15-16-17-18-17-15-17-|
B-15-12-----------------------------------13-14-15-16-15-13-15----------------------|
G------15-14-12--14--12-13-14-15-14-12-14-------------------------------------------|
D-----------------------------------------------------------------------------------|
A-----------------------------------------------------------------------------------|
D-----------------------------------------------------------------------------------|

E-----------------------|
B----------------16-15^-|
G-12-13-14-15-14--------|
D-----------------------|
A-----------------------|
D-----------------------|


E------------------------------------------|
B----Palm Mute-----------------------------|
G------------------------------------------|
D-00-000-000-06666-00-000-000-04444--------| x4
A-00-000-000-06666-00-000-000-04444--------|
D-00-000-000-06666-00-000-000-04444--------|
----------------------------------------------------------------------------
7.Bat Country(intro)
intro (with phaser effect)
E|---------------------------------| x4
B|---------------------------------|
G|-7-7-----------------------------|
D|-7-7—-6-6--0-0-0-0---------------|
A|-5-5—-6-6--0-0-0-0-------------0-|
D|------6-6—-0-0-0-0-5-3-5-6-5-3-0-|

E|-------------| x2
B|-------------|
G|-7-----------|
D|-7—-6—-5—-3--|
A|-5—-6—-5—-3--|
D|----6—-5—-3--|

E|------------------------------|x2
B|------------------------------|       
G|------------------------------|
D|------------------------------|
A|-555555555--------------------|
D|----------66666666-0000000000-|

----------------------------------------------------------------------------
8.Sweet Child O Mine(intro)
|-------------15----15----|
|----15-------------------|
|-------14-12----14----14-|
|-12----------------------|
|-------------------------|
|-------------------------|x2

|-------------15----15----|
|----15-------------------|
|-------14-12----14----14-|
|-14----------------------|
|-------------------------|
|-------------------------|x2

|-------------15----15----|
|----15-------------------|
|-12----14-12----14----14-|
|-------------------------|
|-------------------------|
|-------------------------|x2

|-------------15----15----|
|----15-------------------|
|-------14-12----14----14-|
|-12----------------------|
|-------------------------|
|-------------------------|x2

this is our album that we are playing in performances now they sound weird but were gettin better
comments
print report bad tab
4 comments total. Showing first comments.
0 reply
superdawggy77 wrote on March 27 2006, 06:54 pm

how is this a misc unsigned band tab if you just steal other ppls songs?

0 reply
doggy_hat wrote on May 29 2006, 06:35 pm

It's a cover band, for when people want to play in a band but aren't willing to put in the effort to write their own songs, or simply aren't creative enough.

0 reply
WCS_Is_Worse1 wrote on November 18 2006, 03:53 am

i thought this tab was advanced wheres the rest of smoke on the water and bat country?

I want to post or [tab]
guest
You may want to rate the tab now too:
select rating
Please do not post tabs as comments. Select "correction" instead!