Oops, an error
Loading. Please wait.

Evans - Drink And Drive Tab

ver1
ver1

Album

Whole song

More versions @911Tabs.com
357 views 3 this week
2 commentsread comments
1 2 3 4 5
worth learning
x 5
add to favorites launch autoscroll
font size
0
reset
Autoscroll
+/-
esc
set tempo
stop
Contributor
WARNING: You are trying to view
                                    content from Ultimate-Guitar.com
                                    in an unauthorized application,
                                    which is prohibited.

                                    Please use an official Ultimate
                                    Guitar Tabs application for iPhone,
                                    iPad or Android to access legitimate
                                    chords, guitar, bass, and drum tabs
                                    from Ultimate-Guitar.com database.

                                    Type "ultimate guitar tabs" in Apple
                                    App Store's or Android Market's
                                    search to find the application.
www.snuvvixnet.net

(This is our first album but we have more songs than the shown.
I hope you guys put us up on the "real" ultimate-guitar.com and not as unsigned bands.  Thanks! / Monta)

Album: Drink and Drive
Group: Evans
-----------------------

Live on the edge
Intro..

|-----------------------------------------------------------------8-|
|-------------------------------------------------------------------|
|-----------------------------------------------------------8-------|
|----12-------7-------10----------------------------------8---p10---|   x2
|-10----<>--5---<>--8----<>----10-------6-------8-------8-----------|
|----------------------------8----<>--4---<>--6---<>--8-----------8-|


Verse..

|-------xx-------x-------xx---------------xx-------x-------xx-------|
|-------xx-------x-------xx---------------xx-------x-------xx-------|
|-------xx-------x-7-777-xx--77777--------xx-------x-------xx-------|
|-9-999-xx-99999-x-7-777-xx--77777--7-777-xx-77777-x-5-555-xx-55555-|
|-9-999-xx-99999-x-5-555-xx--55555--7-777-xx-77777-x-5-555-xx-55555-|
|-7-777-xx-77777-x-------xx---------5-555-xx-55555-x-3-333-xx-33333-|


Chorus..

|--------------------------------------------------------------------|
|--------------------------------------------------------------------|
|---------------------------9-99-99-99-999---------------------------|
|-12-1212-1212-1212-121212--9-99-99-99-999--10-1010-1010-1010-101010-|
|-12-1212-1212-1212-121212--7-77-77-77-777--10-1010-1010-1010-101010-|
|-10-1010-1010-1010-101010-------------------8--8-8--8-8--8-8--8-8-8-|


Verse 1

My life is near crashing, I live on the edge.
I feel the fear above me, I can't run away.
These things can happen, to everyone i swear.
Pray to god, that it doesent come your way.
A sickness thought, about overdose, just to
think of it, it makes me wanna go to hell.

Chorus

To live on the edge, isn't a break.
For a better life, for a better time,
for a better world.

To live on the edge, isn't a break.
The girls think you're nuts and your
friends think, you're a pain in the ass.

Verse 2

I can't get out now, it's to late.
I might as well, take a joint by myself.
My life's getting colder.
Everything is just a mess, thinking to myself;
What will happen to me next.

Chorus

To live on the edge, isn't a break.
For a better life, for a better time,
for a better world.

To live on the edge, isn't a break.
To hear the fear within, it's just to
much for me, i'm all alone now.

Verse 3

Now i'm laying there, at the hospital.
Trying to fight for my life, surrounded
by sweet eighteens. I see them, but that's
precice, my eyes is shut, but i can still
see a glimt.

Chorus

To live on the edge, isn't a break.
For a better life, for a better time,
for a better world. Everything is just
a mess, thinking to myself; Would i die
or would i cry...

Chorus (x2)

Outro..

|------------------------------------|
|-------5----------------------------|
|---7-----7-------5---3h5-5bp3-3/5\3-|
|-----7-----7/------5----------5/7\5-|
|-5---------5/--3--------------------|
|------------------------------------|


Means

<>      Harmonic Tones
h       Hammer on
p       Push
b       Bend
x       Mute
/       Slide up
\       Slide down
^       Vibrato
**      Tremolo
-------------------------------------------

Roadtrippin
Intro..

|------------------------|
|------------------------|
|------------------------|
|-7777-7h9p7-9/11-11-----|   x4
|-9999-------9/11-11-9-7-|
|------------------------|

|----------------------|
|----------------------|
|----------------------|
|-7777-7h9p7-666-7-9-7-|   x4
|-9999-------666-7-9-7-|
|----------------------|

|-------------------------------|
|-------------------------------|
|-------------------------------|
|-999-111111-777-999-7777777777-|
|-000-000000-000-000-9999999999-|
|-------------------------------|

Verse..
        
|-------------------------------|
|-------------------------------|
|-------------------------------|
|-999-111111-777-999-7777777777-|
|-000-000000-000-000-9999999999-|
|-------------------------------|
    
Chorus..

|-------------------------------|
|-------------------------------|
|-999-111111-777-999-7777777777-|
|-000-000000-000-000-9999999999-|
|-------------------------------|
|-------------------------------|

Verse 1

Feel like takin the road to California beach. 
Chicks and alcohol is up in the air.
a couple of smokes and routbeer 
near, near in my atmosphere.

Verse 2

The sunshine it hotter then ever today.
Cause today is the day.
The day we won't forget. 
Never ever forget.

Bridge

The first day of our first roadtrip.
The first day of our new life.

Chorus

Roadtrippin, makes you forget
Roadtrippin, makes you start on something new
Roadtrippin, makes you enjoy your life
We wanna share our happiness with you.

Verse 3

When our roadtrip starts
Everything is packed and perfect
We wanna feel, we wanna smell
We wanna be were everything is happen

Bridge

Now the revolution is here
We will wake up from all boring things
Now it's just we, the time and the long long road

Chorus

Roadtrippin, makes you forget
Roadtrippin, makes you start on something new
Roadtrippin, makes you enjoy your life
We wanna share our happiness with you.

Chorus (x3)


Outro..

|------------------------|
|------------------------|
|------------------------|
|-7777-7h9p7-9/11-11-----|   x2
|-9999-------9/11-11-9-7-|
|------------------------|

|----------------------|
|----------------------|
|----------------------|
|-7777-7h9p7-666-7-9-7-|   x2
|-9999-------666-7-9-7-|
|----------------------|
------------------------------

Midnight Hour
Verse..

Am - 5-7-7-5-5-5
C  - 8-10-10-8-8-8
?  - 7-7-9-9-8-7

Chorus..

12-8-10-12
12-8-10-12
10-6-8--10

Verse 1

In the midnight hour
i want you here
In the midnight hour
i'll kiss your lips
before i kiss your
tits. oh ho ho,
i'll take a drink and
go straight into drunk

Verse 2

You step into the cabin
of mine, you get surprised
and i ask you why. Gives
me no answer so i get a
little bad. You suddenly
give me credit for a thing
still i don't know what but
it sure looks bright.

Verse 3
Draging your fingernails down
my body while you scream out
loud *raaaooorr*.
I can see in your eyes that you
look for more. I take that moment
and makes it real with a storm.

and then..

Chorus

Wooops into bed, all our clothes
is of but it doesn't move on and
why, are we that shy? Right on time
in the Midnight Hour. Just in time
for the Midnight Hour.

Verse 4

This can't be happening, this can't
be right. It's written in my life but
now it's out of sight. I get real mad
i get real sad, twisting and thinking
on and of, oh bad. Now my lifes changed,
it comes and goes.

and then..

Chorus

Wooops into bed, all our clothes
is of but it doesn't move on and
why, are we that shy? Right on time
in the Midnight Hour. Just in time
for the Midnight Hour.

Chorus (x2)

Outro..

Am - 5-7-7-5-5-5
C  - 8-10-10-8-8-8
?  - 7-7-9-9-8-7
-------------------

The friend
Intro..

  Guitar 1
|-11--11--11--11h12-14-12-11----|
|---12--12--12--------------12-9|
|-------------------------------|
|-------------------------------|
|-------------------------------|
|-------------------------------|

..Continue to play first and second part until the intro stops


  Guitar 2
|-11--11--11--11h12-14-14-14-14--------|
|---12--12--12-----------------13-12-11|
|--------------------------------------|
|--------------------------------------|
|--------------------------------------|
|--------------------------------------|

..Then
 
 Guitar 1
|----------xx-----------------------------------------------xx-|
|----------xx-----------------------------------------------xx-|
|----------xx-11-12-12b-p11--11-12-12b-p11--11-12-12b-p11---xx-|
|-13131313-xx--------------13-------------13-------------13-xx-|
|-11111111-xx-----------------------------------------------xx-|
|----------xx-----------------------------------------------xx-|

|------------------------x---------------|
|------------------------x---------------|
|-1616161616161616161616-x-161616-16/1818|
|-1414141414141414141414-x-141414-14/1616|
|------------------------x---------------|
|------------------------x---------------|

Play The intro 3 Times!

Verse..

|----------xx-----------------------------------------------xx-|
|----------xx-----------------------------------------------xx-|
|----------xx-11-12-12b-p11--11-12-12b-p11--11-12-12b-p11---xx-|
|-13131313-xx--------------13-------------13-------------13-xx-|
|-11111111-xx-----------------------------------------------xx-|
|----------xx-----------------------------------------------xx-|

|------------------------x---------------|
|------------------------x---------------|
|-1616161616161616161616-x-161616-16/1818|
|-1414141414141414141414-x-141414-14/1616|
|------------------------x---------------|
|------------------------x---------------|

Chorus..

|------------------------------55-xx-5555-66-xx-6-66-6-x-0-33-xx-3-33333-|
|------------------------------55-xx-5555-66-xx-6-66-6-x-0-55-xx-5-55555-|
|-1212-xx-12b-1212-x-12b12b12b-77-xx-7777-66-xx-6-66-6-x-0-55-xx-5-55555-|
|-1010-xx-10--1010-x-101010----55-xx-5555-88-xx-8-88-8-x-0-33-xx-3-33333-|
|-1010-xx-10--1010-x-101010----55-xx-5555-66-xx-6-66-6-x-0-33-xx-3-33333-|
|------------------------------55-xx-5555-66-xx-6-66-6-x-0-33-xx-3-33333-|


Verse 1

They say memories ar golden; 
well maybe thats true 
I never wanted memories, 
I only wanted you. 

Verse 2

A million times I needed you, 
A million times I cried, 
If love alone could saved you, 
you never would have died. 

Chorus

You´ll always be a part of me 
You´ll always be my friend 
You´ll always be the only one 
I love you until the end

You´ll always be a part of me 
You´ll always be my friend 
You´ll always be the only one 
I love you until the end

Verse 3

In life I loved you dearly, 
In death I love you still, 
In my heart you hold a place 
that no one could never fill. 

Verse 4

If tears could build a stainway 
and heartache make a lane 
I´d walk the path to heaven, 
and bring you back again!

Chorus

You´ll always be a part of me 
You´ll always be my friend 
You´ll always be the only one 
I love you until the end

You´ll always be a part of me 
You´ll always be my friend 
You´ll always be the only one 
I love you until the end

Verse 5

If you were leafs on my tree
i'd never let it die to be,
cause you are my friend to stay
PLEASE OBAY!!!

Chorus

You´ll always be a part of me 
You´ll always be my friend 
You´ll always be the only one 
I love you until the end 

Chorus (x2)

outro..

|-----------------------------------|
|-----------------------------------|
|-15-13-12--------------------------|
|---------15-13-12------------------|
|-----------------15-13-12-10-12-13-|
|-----------------------------------|
--------------------------------------

Hold on girl
Intro..

|-----------------------------x-5-33-|
|-----------------------------x-5-33-|
|-----------------------------x-5-33-|
|-----8-------8-------4---5---4-7-55-|
|---7---7---7---7---5---5---4-5-8-55-|
|-5-------6-------3-----------3-6-33-|

Verse..

|-5-xxx-5-5555-3-xxx-3-3333-3-xxx-3-3333-|
|-5-xxx-5-5555-3-xxx-3-3333-3-xxx-3-3333-|
|-5-xxx-5-5555-3-xxx-3-3333-3-xxx-3-3333-|
|-7-xxx-7-7777-5-xxx-5-5555-5-xxx-5-5555-|
|-8-xxx-8-8888-6-xxx-6-6666-5-xxx-5-5555-|
|-5-xxx-5-5555-3-xxx-3-3333-3-xxx-3-3333-|

Chorus..

|-8--xxx-8--x-88888888-10-xxx-10-x-10101010-|
|-8--xxx-8--x-88888888-10-xxx-10-x-10101010-|
|-9--xxx-9--x-99999999-10-xxx-10-x-10101010-|
|-10-xxx-10-x-10101010-12-xxx-12-x-12121212-|
|-10-xxx-10-x-10101010-12-xxx-12-x-12121212-|
|-8--xxx-8--x-88888888-10-xxx-10-x-10101010-|

|-5-xxx-5-x-5555-|
|-5-xxx-5-x-5555-|
|-6-xxx-6-x-6666-|
|-7-xxx-7-x-7777-|
|-7-xxx-7-x-7777-|
|-5-xxx-5-x-5555-|

--------------------

Verse 1

Hold on girl, don't waste
the time. We got all day,
all night together, don't
let the sun fly by, don't
let the wind blow your eyes.
I want you to chase me with
your look so i can look straight
into your charming eyes.

Verse 2

Send me that booz and we'll
get high, not shy. If we
wanna get more intense we
have to move our deepest thought
and replace it with love.
Then if it doesn't work we got
ourselves to blame and play some
sugardaddy on the pavement instead.

Chorus

Your smile makes me cry of happiness.
Your eyes makes me smile like sickness.
You figuring what makes me smile and cry
but i don't tell you cause i can't stop.

Verse 3

You and me, against the time.
What a hit, we fit exactly what we wished
for. Sayin once again. Look me straight in
my eyes so i can see your charming eyes oh oh.

Verse 4

Us, in a tree. Kissing your softly lips while i
touch your smooth body. You remove my arm, i'm
not allowed to come closer, oh no!

Chorus

Your smile makes me cry of happiness.
Your eyes makes me smile like sickness.
You figuring what makes me smile and cry 
but i don't tell you cause i can't stop.
Chorus (x2)
-----------------------------------------

Drink and Drive
Intro..

Guitar 1      [First part]
|----------|----------|-------0--|
|-------0--|-------0--|-------0--|
|-----0----|-----0----|-----0----|
|---9------|---7------|---5------|
|-7--------|-5--------|-3--------|
|----------|----------|----------|

 
But Final Ending is

|----------x--|
|-------0--0--|
|-----x----x--|
|---4------4--|    
|-2--------2--|
|----------x--|

---------------------------------------------------------------------------

[Second Part]
|-0-0----------|-0-0----------|-0-0----------|
|-0-0-----0----|-0-0-----0----|-0-0-----0----|
|-----0-----0--|-----0-----0--|-----0-----0--|
|-9-9---9------|-7-7---7------|-5-5---5------|   6x
|-7-7----------|-5-5----------|-3-3----------|   
|--------------|--------------|--------------|

play this 6x but on the third time guitar 2 
starts to play ;  see below..

Guitar 2      [Second Part 2]
|-7-7h8p7--------|
|---------10p8h10|
|----------------|
|----------------| Then after it stops, guitar 1 plays ; see below
|----------------|
|----------------|

Guitar 1      [Third Part]
|---x---------x-x-----------x-x--------------|
|---0-0-------0-0-----------0-0--------------|
|---0-0-------0-0-----------0-0---4p0--------|
|---9-9/7-----7-7/9\7\5-----5-5/7-----7b-5~--|
|-7-x-------5-x-x---------3-x-x--------------|
|---x---------x-x-----------x----------------|

Meanwhile the Guitar 2 plays ;

              [Third Part 2]
|-------------5---5-7/8----14-15-15p12----15p12----15p12--------------|
|-5-7-7/8-7-8---7-------12-------------13-------13-------13-12-13~/0--|
|---------------------------------------------------------------------|
|---------------------------------------------------------------------|
|---------------------------------------------------------------------|
|---------------------------------------------------------------------|

Then after that Guitar 1 plays Second Part again 3 times.

Then..

|---x-x-------x-x-------00--x-x--|
|---0-0-------0-0-------00--x-0--|
|---0-0-------0-0-----------x-0--|
|---5-5/7-----7-7/10-10-10--x-9--| play this 3 times
|-3-x-3/5---5-x-5/7---------x-x--|
|---x-x-------x-x-----------x-x--|

---------------------------------------------------------------------------
Verse..

|---000--x-0-0-|---000--x-0-0-|---000--x-0-0-|---000--x-0\-0-|
|---888--x-8-8-|---000--x-0-0-|---000--x-0-0-|---000--x-0\-0-|
|---999--x-9-9-|---999--x-9-9-|---777--x-7-7-|---555--x-5\-4-|
|---999--x-9-9-|---999--x-9-9-|---777--x-7-7-|---555--x-5\-4-|
|-7-777--x-7-7-|-7-777--x-7-7-|-5-555--x-5-5-|-3-333--x-3\-2-|
|-0-000--x-0-0-|-8-888--x-8-8-|---xxx--x-x-x-|---xxx--x-x\-x-|

----------------------------------------------------------------------------
Chorus..

|--------------------------------------------------------------------|
|--------------------------------------------------------------------|
|-12121212-12121212-121212-7777-7777-777-9999-9999-999-5555-5555-555-|
|-12121212-12121212-121212-7777-7777-777-9999-9999-999-5555-5555-555-|
|-10101010-10101010-101010-5555-5555-555-7777-7777-777-3333-3333-333-|
|--------------------------------------------------------------------|

Then..

|-3------3----3-|
|--5---5--5-5-5-|
|---5---5--5--5-|
|----3--------3-|
|---------------|
|---------------|

----------------------------------------------------------------------------


Verse 1

I went to a party, mom. 
I remember what you said. 
You told me not to drink, mom. 
So I drank a soda instead. 
I really felt proud inside, mom. 
The way you said I would. 

I didn't drink and drive, mom. 
Even tough the others said I should. 
I know I did the right thing, mom. 
I know you are always right. 

Now the party is finally ending, mom. 
As everyone is driving out of sight.
As I got into my car, mom. 
I knew I'd get home in one piece.
Because of the way you raised me. 
So responsible and sweet. 

Chorus

I started to drive away, mom. 
But as I pulled out into the road. 
The other car didn't se me, mom. 
And hit me like a load. 

As I lay there on the pavement, mom. 
I hear the policeman say: 
'The other guy is drunk', mom. 
And now I'm the one who will pay. 
I'm laying here dying, mom... 
I wish you get here soon.

Someone should have told him, mom. 
Not to drink and drive. 
If only they had told him, mom. 
I would still be alive. 

Verse 2

How could this happened to me, mom? 
My life is just burst like a balloon. 
There is blood all around me, mom. 
And most of it is mine. 
I hear the medic say, mom. 
I'll die in a short time 

I just wanted to tell you, mom. 
I swear, I didn't drink. 
It was the others think. 

He was probably at the same party as I 
And I will die. 
Why do people drink, mom? 
It can ruin your whole life. 

I'm feeling sharp pains now. 
Pains just like a knife. 
The guy who hit me is walking, mom. 
I'm laying here dying. 
And all he can do is stare.

Tell my brother not to cry, mom. 
Tell daddy to be brave. 
And when I go to heaven, mom. 
Put 'daddy´s girl' on my grave.

Chorus

I started to drive away, mom. 
But as I pulled out into the road. 
The other car didn't se me, mom. 
And hit me like a load. 

As I lay there on the pavement, mom. 
I hear the policeman say: 
'The other guy is drunk', mom. 
And now I'm the one who will pay. 
I'm laying here dying, mom... 
I wish you get here soon. 

Someone should have told him, mom. 
Not to drink and drive. 
If only they had told him, mom. 
I would still be alive. 

Verse 3

My breath is getting shorter, mom. 
I´m becoming very scared. 
Please don't cry for me, mom. 
When I needed you, 
You were always there. 

I have one last question, mom. 
Before I say goodbye. 
I didn´t drink and drive, mom, 
So why am I the one to die? 

Chorus

I started to drive away, mom. 
But as I pulled out into the road. 
The other car didn't se me, mom. 
And hit me like a load. 

As I lay there on the pavement, mom. 
I hear the policeman say: 
'The other guy is drunk', mom. 
And now I'm the one who will pay. 
I'm laying here dying, mom... 
I wish you get here soon.

Someone should have told him, mom. 
Not to drink and drive. 
If only they had told him, mom. 
I would still be alive.

Solo

|----------12b-15p12--15p12--15p12-------------------------------------|
|-15-13-12----------13-----13-------12h15p12-12h15p12-12h15p12-12h15p12|
|----------------------------------------------------------------------|
|----------------------------------------------------------------------|
|----------------------------------------------------------------------|
|----------------------------------------------------------------------|

|-----------------------------------------------------------|
|12h14p12-12h14p12-12h14p12-12h14p12-------12---------------|
|---------------------------------------------12h14----14~~-|
|-----------------------------------------------------------|
|-----------------------------------------------------------|
|-----------------------------------------------------------|

Chorus

I started to drive away, mom. 
But as I pulled out into the road. 
The other car didn't se me, mom. 
And hit me like a load. 

As I lay there on the pavement, mom. 
I hear the policeman say: 
'The other guy is drunk', mom. 
And now I'm the one who will pay. 
I'm laying here dying, mom... 
I wish you get here soon.

Someone should have told him, mom. 
Not to drink and drive. 
If only they had told him, mom. 
I would still be alive.


Outro
|---------------------------x
|----0----------------------0
|------0--------------------0
|-------------12---------5--5 ~~~~~~
|-7--------------12----5----5
|----------10--------3------3

------------------------------------
Means

h           Hammer On
p           Punch
b           Bend
/           Slide up
\           Slide down
x           Mute
~~          Let Ring
^           Vibrato
**          Tremolo

------------------------------------

Unchanged
Intro..

|--------------------------33-xxxx-333-xx-3333/5-x-5-xxx-3-3/5-x-5-x-888888-|
|--------------------------55-xxxx-555-xx-3333/5-x-5-xxx-3-3/5-x-7-x-888888-|
|--------------------------55-xxxx-555-xx-5555/7-x-7-xxx-5-5/7-x-7-x-888888-|
|---------------5-555-xxxx-55-xxxx-555-xx-5555/7-x-7-xxx-5-5/7-x-7-x-101010-|
|-------3-3-5/7-7-777-xxxx-33-xxxx-333-xx-5555/7-x-7-xxx-5-5/7-x-5-x-101010-|
|-3h4h5-----------777-xxxx-33-xxxx-xxx-xx-3333/5-x-5-xxx-3-3/5-x-5-x-888888-|
                                       x2

Verse..

|-55-xx-55-x-5555-44-xx-44-x-4444-|
|-55-xx-55-x-5555-55-xx-55-x-5555-|
|-55-xx-55-x-5555-66-xx-66-x-6666-|
|-77-xx-77-x-7777-66-xx-66-x-6666-|
|-77-xx-77-x-7777-44-xx-44-x-4444-|
|-55-xx-55-x-5555-44-xx-44-x-4444-|

Bridge..

|-3-xxx-33-3------3-xxx-33-33-3-|
|-3-xxx-33--3-----3-xxx-55-55-5-|
|-4-xxx-44---4----4-xxx-55-55-5-|
|-5-xxx-55----5---5-xxx-55-55-5-|
|-5-xxx-55-----5--5-xxx-33-33-3-|
|-3-xxx-33------3-3-xxx-33-33-3-|

Chorus..

G, D, Em, C


Verse 1

I know, i know i couldn't
do more than i did but to
fade me out is more then i
can take. 

Verse 2

When you say it
doesn't matter, deep inside of
me there's a turnabout but i
swear deep enough i want it clear.

Verse 3

And the time has passed you've got nothin
more to say, even if you say you're
sorry, i wouldn't mind, cause to me
you'll still be unchanged.

Bridge

So don't act like you know me
don't act like you want me
cause my troubles already
begins to draft.

Chorus

I knew you couldn't change
I knew it right away
I thought i missjudged you
My dreams of you just fade away
You're still unchanged and girls
like that don't act like that.

Verse 4

I believe my destany has changed
I couriged myself not to stay,
forgive or sacrifise anything
for you, hou hou oo.

Bridge

So don't act like you know me
don't act like you want me
cause my troubles already
begins to draft.

Chorus

I knew you couldn't change
I knew it right away
I thought i missjudged you
My dreams of you just fade away
You're still unchanged and girls
like that don't act like that.

Verse 5

Now there's nothin more to give
all my troubles faded away when
you dissapeared for good.
Your atmosphere was unforgivable
and i almost got untrigable oh ho ho.

Bridge

So don't act like you know me
don't act like you want me
cause my troubles already
begins to draft.

Chorus

I knew you couldn't change
I knew it right away
I hope i'd missjudged you
My dreams of you just fade away
You're still unchanged and girls
like that don't act like that.

Made by Monta

//

This text has copywright by "Evans"
2 comments total.
0 reply
SkaterD2002 wrote on June 15 2004, 12:00 am

Man if i could rate you guys a 10 i def. would. The song Drink and Drive the riffs are Excellent. Dude I'd like to talk to you, if you can IM me on aim Misfits3388. Or email me aftermath_guitarist@hotmail.com

Great Work Here

0 reply
d_man_dude wrote on July 17 2006, 02:26 pm

nicr drink an drive sounds awesome

0 reply
Hermesind wrote on March 17 2014, 08:05 pm

http://wall.pouthapioume.gr/myband.aspx?i=1283

I want to post or [tab]
guest
You may want to rate the tab now too:
select rating
Please do not post tabs as comments. Select "correction" instead!