Oops, an error
Loading. Please wait.

Exo-delusion - Escape From Them Tab

22 views 1 this week
no commentswrite comment
1 2 3 4 5
please rate
Autoscroll
+/-
esc
set tempo
stop
Contributor
Difficulty
Tuning
intermediate
D G C F A D
WARNING: You are trying to view
                                    content from Ultimate-Guitar.com
                                    in an unauthorized application,
                                    which is prohibited.

                                    Please use an official Ultimate
                                    Guitar Tabs application for iPhone,
                                    iPad or Android to access legitimate
                                    chords, guitar, bass, and drum tabs
                                    from Ultimate-Guitar.com database.

                                    Type "ultimate guitar tabs" in Apple
                                    App Store's or Android Market's
                                    search to find the application.
Guitarra
               Q    Q    E.  Q    S  3x  Q    Q    E.  E.  E   
E||-------||-------------------------||-----------------------|
B||-------||-------------------------||-----------------------|
G||-------||*-----------------------*||-----------------------|
D||-------||*------------4----------*||------------4----------|
A||-------||-------------2-----------||------------2----------|
D||-------||---0----0----------------||--0----0------------0--|


  E  E  Q    Q    Q         Q    Q    E.  Q    S  3x  Q    Q    E.  E.  E   
-----------------------||-------------------------||-----------------------|
-----------------------||-------------------------||-----------------------|
-----------------------||*-----------------------*||-----------------------|
-----------------------||*------------4----------*||------------4----------|
-----------------------||-------------2-----------||------------2----------|
--3--4--3----3----0----||---0----0----------------||--0----0------------0--|


  E  E  Q    Q    Q         E  E  E  E  E  E  E  E     E  E  E  E  E  E  Q     
-----------------------||---------------------------|-------------------------|
-----------------------||---------------------------|-------------------------|
-----------------------||*--------------------------|--------------------2----|
-----------------------||*--------4--------4--------|--4--------4-----4--0----|
-----------------------||---------2--------2--------|--2--------2-----2-------|
--3--4--3----3----0----||---0--0-----0--0-----0--0--|-----0--0-----0----------|


  E  E  E  E  E  E  E  E     E  E  E  E  E  E  Q     3x
--------------------------|--------------------------||
--------------------------|--------------------------||
--------------------------|-------------------------*||
--------4--------4--------|--4--------4-----4--2----*||
--------2--------2--------|--2--------2-----2--0-----||
--0--0-----0--0-----0--0--|-----0--0-----0-----------||


   E  E  E  E  E  E  E  E      E   E   E   E   E   E   E   E   
---------------------------|----------------------------------|
---------------------------|----------------------------------|
*--------------------------|----------------------------------|
*--------4--------4--------|------12--11--10--12--11--10------|
---------2--------2--------|--12--------------------------12--|
---0--0-----0--0-----0--0--|----------------------------------|


  E  E  E  E  E  E  E  E      E   E  E  E   E  E  E   E     
--------------------------|-------------------------------||
--------------------------|-------------------------------||
--------------------------|------------------------------*||
--------2--------2--------|------10--9--8--10--9--8------*||
--------0--------0--------|--12----------------------12---||
--0--0-----0--0-----0--0--|-------------------------------||


   H        S. S. E  E.     H        S. S. E  E.     H        S. S. E  E.     
-------------------------|------------------------|-------------------------||
-------------------------|------------------------|--3----------------------||
*--4---------------------|--2---------------------|--2--------2--2--2--2---*||
*--4--------4--4--4--4---|--2--------2--2--2--2---|--0--------0--0--0--0---*||
---2--------2--2--2--2---|--0--------0--0--0--0---|-------------------------||
-------------------------|------------------------|-------------------------||


  E  E  E  E  E  E  S S S S      Q    Q    E.  Q    S  3x
----------------------------||-------------------------||
----------------------------||-------------------------||
----------------------------||*-----------------------*||
--4--2--4--2--4--2--4-4-4-4-||*------------4----------*||
--2--0--2--0--2--0--2-2-2-2-||-------------2-----------||
----------------------------||---0----0----------------||


  Q    Q    E.  E.  E     E  E  Q    Q    Q         Q    Q    E.  Q    S    
-----------------------|-----------------------||-------------------------||
-----------------------|-----------------------||-------------------------||
-----------------------|-----------------------||*-----------------------*||
------------4----------|-----------------------||*------------4----------*||
------------2----------|-----------------------||-------------2-----------||
--0----0------------0--|--3--4--3----3----0----||---0----0----------------||


  Q    Q    E.  E.  E     E  E  Q    Q    Q         E  E  E  E  E  E  E  E   
-----------------------|-----------------------||---------------------------|
-----------------------|-----------------------||---------------------------|
-----------------------|-----------------------||*--------------------------|
------------4----------|-----------------------||*--------4--------4--------|
------------2----------|-----------------------||---------2--------2--------|
--0----0------------0--|--3--4--3----3----0----||---0--0-----0--0-----0--0--|


  E  E  E  E  E  E  Q       E  E  E  E  E  E  E  E   
-------------------------|--------------------------|
-------------------------|--------------------------|
--------------------2----|--------------------------|
--4--------4-----4--0----|--------4--------4--------|
--2--------2-----2-------|--------2--------2--------|
-----0--0-----0----------|--0--0-----0--0-----0--0--|


  E  E  E  E  E  E  Q     3x   E  E  E  E  E  E  E  E   
--------------------------||---------------------------|
--------------------------||---------------------------|
-------------------------*||*--------------------------|
--4--------4-----4--2----*||*--------4--------4--------|
--2--------2-----2--0-----||---------2--------2--------|
-----0--0-----0-----------||---0--0-----0--0-----0--0--|


   E   E   E   E   E   E   E   E     E  E  E  E  E  E  E  E   
----------------------------------|--------------------------|
----------------------------------|--------------------------|
----------------------------------|--------------------------|
------12--11--10--12--11--10------|--------2--------2--------|
--12--------------------------12--|--------0--------0--------|
----------------------------------|--0--0-----0--0-----0--0--|


   E   E  E  E   E  E  E   E        Q    Q    Q    E  E   
-------------------------------||------------------------|
-------------------------------||------------------------|
------------------------------*||*-----------------------|
------10--9--8--10--9--8------*||*------------4----------|
--12----------------------12---||-------------2----0--2--|
-------------------------------||---0----0---------------|


  E  E  E  Q    E.  E.         Q     Q     Q     E   E   
-------------------------||-----------------------------|
-------------------------||-----------------------------|
------------------------*||*----------------------------|
-----0--2--3----3---2---*||*--------------12----12--11--|
--3----------------------||---12----12------------------|
-------------------------||----0-----0------------------|


   E   E   E   E   E   E   Q           Q     Q     Q     E  E   
---------------------------------||----------------------------|
---------------------------------||----------------------------|
--------------------------------*||*---------------------------|
--10--12--11--10--12--11--10----*||*--------------10----10--9--|
---------------------------------||---12----12-----------------|
---------------------------------||----0-----0-----------------|


  E   E  E  E   E  E  Q         Q    Q     Q      E   E   
----------------------------||---------------------------|
----------------------------||------------15-------------|
---------------------------*||------------17b----17--16--|
--8--10--9--8--10--9--8----*||--0----0-------------------|
----------------------------||---------------------------|
----------------------------||---------------------------|


   E   E   E   E   E   E   Q        Q      E   E   E   E   E   E   
--------------------------------|---------------------------------|
--------------------------------|--15-----------------------------|
--15--17--16--15--17--16--15----|--17b----15--14--13--15--14--13--|
--------------------------------|---------------------------------|
--------------------------------|---------------------------------|
--------------------------------|---------------------------------|


   E   E   E   E   E   E   Q        Q      E   E   E   E   E   E   
--------------------------------|---------------------------------|
--------------------------------|--15-----------------------------|
--15--14--13--15--14--13--15----|--17b----17--16--15--17--16--15--|
--------------------------------|---------------------------------|
--------------------------------|---------------------------------|
--------------------------------|---------------------------------|


   E   E   E   E   E   E   Q          Q     Q     H          3x
--------------------------------||---------------------------||
--------------------------------||---------------------------||
--17--16--15--17--16--15--17----||*-------------------------*||
--------------------------------||*--------------12b--------*||
--------------------------------||---12----12----------------||
--------------------------------||----0-----0----------------||


   E.   E.   E.   E.   Q        H          E    Q     E   
----------------------------|----------------------------|
----------------------------|----------------------------|
----------------------------|----------------------------|
--12---10-------------------|----------------------------|
------------12---10---------|----------------------------|
----------------------12----|--10s--------12s--10s----9--|


    Q    Q    E.  Q    S  3x  Q    Q    E.  E.  E     E  E  Q    Q    Q     
|-------------------------||-----------------------|-----------------------|
|-------------------------||-----------------------|-----------------------|
|*-----------------------*||-----------------------|-----------------------|
|*------------4----------*||------------4----------|-----------------------|
|-------------2-----------||------------2----------|-----------------------|
|---0----0----------------||--0----0------------0--|--3--4--3----3----0----|


    Q    Q    E.  Q    S  3x  Q    Q    E.  E.  E     E  E  Q    Q    Q     
|-------------------------||-----------------------|-----------------------|
|-------------------------||-----------------------|-----------------------|
|*-----------------------*||-----------------------|-----------------------|
|*------------4----------*||------------4----------|-----------------------|
|-------------2-----------||------------2----------|-----------------------|
|---0----0----------------||--0----0------------0--|--3--4--3----3----0----|


    E  E  E  E  E  E  E  E     E  E  E  E  E  E  Q     
|---------------------------|-------------------------|
|---------------------------|-------------------------|
|*--------------------------|--------------------2----|
|*--------4--------4--------|--4--------4-----4--0----|
|---------2--------2--------|--2--------2-----2-------|
|---0--0-----0--0-----0--0--|-----0--0-----0----------|


  E  E  E  E  E  E  E  E     E  E  E  E  E  E  Q     3x
--------------------------|--------------------------||
--------------------------|--------------------------||
--------------------------|-------------------------*||
--------4--------4--------|--4--------4-----4--2----*||
--------2--------2--------|--2--------2-----2--0-----||
--0--0-----0--0-----0--0--|-----0--0-----0-----------||


   E  E  E  E  E  E  E  E      E   E   E   E   E   E   E   E   
---------------------------|----------------------------------|
---------------------------|----------------------------------|
*--------------------------|----------------------------------|
*--------4--------4--------|------12--11--10--12--11--10------|
---------2--------2--------|--12--------------------------12--|
---0--0-----0--0-----0--0--|----------------------------------|


  E  E  E  E  E  E  E  E      E   E  E  E   E  E  E   E     
--------------------------|-------------------------------||
--------------------------|-------------------------------||
--------------------------|------------------------------*||
--------2--------2--------|------10--9--8--10--9--8------*||
--------0--------0--------|--12----------------------12---||
--0--0-----0--0-----0--0--|-------------------------------||


              /0\          /0\                                           
   H          H            H          H           E  E  E  E  Q    Q     
-----------------------|-----------------------|------------------------|
-----------------------|-----------------------|------------------------|
-----------------------|-----------------------|------------------------|
-----------------------|-----------------------|------------------------|
--12s--------12--------|---Ls--------12--------|--2-----2--2-------0----|
-----------------------|-----------------------|--2-----2--2-------0----|


  W                  
-------------------||
-------------------||
-------------------||
-------------------||
--L----------------||
--L----------------||




Duration Legend
---------------
W - whole
H - half
Q - quarter
E - 8th
S - 16th
T - 32nd
X - 64th
. - note dotted
|-n-|  - n-tuplets


Tablature Legend
----------------
L - tied note
x - dead note
g - grace note
(n) - ghost note
> - accentuded note
NH - natural harmonic
AH - artificial harmonic
TH - tapped harmonic
SH - semi harmonic
PH - pitch harmonic
h - hammer on
p - pull off
b - bend
br - bendRelease
pb - preBend
pbr - preBendRelease
brb - bendReleaseBend
\n/ - tremolo bar dip
\n - tremolo bar dive
-/n - tremolo bar Release up
/n\ - tremolo bar inverted dip
/n - tremolo bar return
-\n - tremolo bar Release down
S - shift slide
s - legato slide
/ -  slide into from below or out of upwards
\ -  slide into from above or out of downwards
~ - vibrato
W - wide vibrato
tr - trill
TP - tremolo picking
T - tapping
S - slap
P - pop
< - fade in
^ - brush up
v - brush down

comments
We did not receive enough feedback on this tab! Please rate:
print report bad tab
1 2 3 4 5
I want to post or [tab]
guest
You may want to rate the tab now too:
select rating
Please do not post tabs as comments. Select "correction" instead!