Oops, an error
Loading. Please wait.

Eye Set To Kill - Reach Tab

605 views 1 this week
no commentswrite comment
1 2 3 4 5
please rate
Autoscroll
+/-
esc
set tempo
stop
Difficulty
Tuning
intermediate
D A D G B E
Hey! There's an official Ultimate Guitar app which is ideal
for learning songs when you're away from computer. Get the app
WARNING: You are trying to view
                                    content from Ultimate-Guitar.com
                                    in an unauthorized application,
                                    which is prohibited.

                                    Please use an official Ultimate
                                    Guitar Tabs application for iPhone,
                                    iPad or Android to access legitimate
                                    chords, guitar, bass, and drum tabs
                                    from Ultimate-Guitar.com database.

                                    Type "ultimate guitar tabs" in Apple
                                    App Store's or Android Market's
                                    search to find the application.
  this is my 2nd tab
  una ko higinia then
  eto ang susunod
  REACH-eye set to kill
  hahahah cgurado tama to!!
  wala pa kasi gmagawa ng tab
  nito kea npilitan aq
  hmmmm...........
  sna mguztuhan nyo

  add nyo aq,.......
  e2 e-mail add q..

  sandatahang_screamo@yahoo.com
  hopesdielast_mond@yahoo.com.ph

  my miss lng aq ng konti d2 sa
  bridge part kayo na bhala umintindi

  ROCK en Roll
  wahahahahahha ;)

============================================================================
============================================================================
============================================================================

INTRO
 (guitar 1)
|---------------------------------------------------|
|---------------------------------------------------|
|---------------------------------------------------|
|-9~~~~~--------------------------------------------|
|-9~~~~~--------------------------------------------|
|-9~~~~~--------------------------------------------|

 (guitar 2)
|--------------------17-14--------------------------|
|-15-0-17-0-14h15----------17-15-14-14h15-----------|
|-----------------14----------------------14-16-----|
|---------------------------------------------------|
|---------------------------------------------------|
|---------------------------------------------------|

 (guitar 1)
|--------------------------------------------------|
|--------------------------------------------------|
|--------------------------------------------------|
|-5~~~~~-------------------------------------------|
|-5~~~~~-------------------------------------------|
|-5~~~~~-------------------------------------------|

 (guitar 2)
|--------------------17-14-------------------------|
|-15-0-17-0-14h15----------17-15-14-14h15----------|
|-----------------14----------------------14-------|
|--------------------------------------------------|
|--------------------------------------------------|
|--------------------------------------------------|

 (guitar 1)
|--------------------------------------------------|
|--------------------------------------------------|
|--------------------------------------------------|
|-0~~~~~-------------------------------------------|
|-0~~~~~-------------------------------------------|
|-0~~~~~-------------------------------------------|

 (guitar 2)
|--------------------------------------------------|
|-15\19-0-15-0-17-0-14h15-0-15h17-0-14h15----------|
|----------------------------------------14--------|
|--------------------------------------------------|
|--------------------------------------------------|
|--------------------------------------------------|

 (guitar 1)
|--------------------------------------------------|
|--------------------------------------------------|
|--------------------------------------------------|
|-77x77x77x77--11----------------------------------|
|-77x77x77x77--10----------------------------------|
|-77x77x77x77---8----------------------------------|

 (guitar 2)
|--------------------------------------------------|
|-15\19-0-15-0-17-0-14h15-0-15h17-0-14h15-14~~~~~--|
|--------------------------------------------------|
|--------------------------------------------------|
|--------------------------------------------------|
|--------------------------------------------------|

=============================================================================
 CHORUS PART 1
(guitar 1)
|---------------------------------------------------|
|---------------------------------------------------|
|---------------------------------------------------|
|-9999999999999999--5555555555555555----------------|
|-9999999999999999--5555555555555555----------------|
|-9999999999999999--5555555555555555----------------|

|---------------------------------------------------|
|---------------------------------------------------|
|---------------------------------------------------|
|-0000000000000000--777777771111111111111111--------|
|-0000000000000000--777777771010101010101010--------|
|-0000000000000000--77777777-8-8-8-8-8-8-8-8--------|

(gutiar 2)
|---------------------------------------------------|
|---------------------------------------------------|
|---------------------------------------------------|
|-9999999999999999--5555555555555555----------------|
|-9999999999999999--5555555555555555----------------|
|-9999999999999999--5555555555555555----------------|

|---------------------------------------------------|
|---------------------------------------------------|
|-12-12-12-12--11-11-11-11-9-9-9-9------------------|
|--x--x--x--x--x--x--x--x--x-x-x-x------------------|
|-10-10-10-10--9--9--9--9--7-7-7-7------------------|
|---------------------------------------------------|

|---------------------------------------------------|
|---------------------------------------------------|
|-7-7-7-7--6-6-6-6-6-6-6-6--3-3-3-3-3-3-3-3---------|
|-x-x-x-x--x-x-x-x-x-x-x-x--x-x-x-x-x-x-x-x---------|
|-5-5-5-5--4-4-4-4-4-4-4-4--1-1-1-1-1-1-1-1---------|
|---------------------------------------------------|

 CHORUS PART 2
 (guitar 1)
|---------------------------------------------------|
|---------------------------------------------------|
|---------------------------------------------------|
|-9999999999999999--5555555555555555----------------|
|-9999999999999999--5555555555555555----------------|
|-9999999999999999--5555555555555555----------------|

|---------------------------------------------------|
|---------------------------------------------------|
|---------------------------------------------------|
|-0000000000000000--777777771111111111111111--------|
|-0000000000000000--777777771010101010101010--------|
|-0000000000000000--77777777-8-8-8-8-8-8-8-8--------|

 (guitar 2)
|--------------------17-14--------------------------|
|-15-0-17-0-14h15----------17-15-14-14h15-----------|
|-----------------14----------------------14-16-----|
|---------------------------------------------------|
|---------------------------------------------------|
|---------------------------------------------------|

|--------------------17-14--------------------------|
|-15-0-17-0-14h15----------17-15-14-14h15-----------|
|-----------------14----------------------14--------|
|---------------------------------------------------|
|---------------------------------------------------|
|---------------------------------------------------|

|---------------------------------------------------|
|-15\19-0-15-0-17-0-14h15-0-15h17-0-14h15-----------|
|----------------------------------------14---------|
|---------------------------------------------------|
|---------------------------------------------------|
|---------------------------------------------------|

|---------------------------------------------------|
|-15\19-0-15-0-17-0-14h15-0-15h17-0-14h15-14~~~~~---|
|---------------------------------------------------|
|---------------------------------------------------|
|---------------------------------------------------|
|---------------------------------------------------|

=============================================================================
=============================================================================
 VERSE
 (guitar 1)
|---------------------------------------------------|
|---------------------------------------------------|
|---------------------------------------------------|
|-55555x5x5x5--------55555x5x5x5--------------------|
|-55555x5x5x5-7h9p5--55555x5x5x5-7h9p5--------------|
|-55555x5x5x5--------55555x5x5x5--------------------|
                                                     2x itong part na e2
|---------------------7*----------------------------|
|-------------7*-7*---------------------7*-7*-------|
|-------------------7*-----------------------7*-----|
|-99999x9x9x9--------------99999x9x9x9----------7*--|
|-99999x9x9x9--------------99999x9x9x9--------------|
|-99999x9x9x9--------------99999x9x9x9--------------|

 (guitar 2)
|---------------------------------------------------|
|---------------------------------------------------|
|---------------------------------------------------|
|-55555x5x5x5--------55555x5x5x5--------------------|
|-55555x5x5x5--------55555x5x5x5--------------------|
|-55555x5x5x5--------55555x5x5x5--------------------|
                                                    2x din eto
|---------------------------------------------------|
|---------------------------------------------------|
|---------------------------------------------------|
|-99999x9x9x9--------99999x9x9x9--------------------|
|-99999x9x9x9--------99999x9x9x9--------------------|
|-99999x9x9x9--------99999x9x9x9--------------------|

============================================================================
 PRE-CHORUS
 (guitar 1)
|---------------------------------------------------|
|---------------------------------------------------|
|---------------------------------------------------|
|-55555x5x5x5--------55555x5x5x5--------------------|
|-55555x5x5x5--------55555x5x5x5--------------------|
|-55555x5x5x5--------55555x5x5x5--------------------|

|---------------------------------------------------|
|---------------------------------------------------|
|-11-7\6-0h6-11-7\6-\2-\7\6-------------------------|(2x)
|---------------------------------------------------|
|---------------------------------------------------|
|---------------------------------------------------|

|---------------------------------------------------|
|---------------------------------------------------|
|---------------------------------------------------|
|-99999x9x9x9--------99999x9x9x9--------------------|
|-99999x9x9x9--------99999x9x9x9--------------------|
|-99999x9x9x9--------99999x9x9x9--------------------|

|---------------------------------------------------|
|---------------------------------------------------|
|-11-7\6-0h6-11-7\6-\2-\7\6-------------------------|(2x)
|---------------------------------------------------|
|---------------------------------------------------|
|---------------------------------------------------|

|---------------------------------------------------|
|---------------------------------------------------|
|---------------------------------------------------|
|-55555x5x5x5--------55555x5x5x5--------------------|
|-55555x5x5x5--------55555x5x5x5--------------------|
|-55555x5x5x5--------55555x5x5x5--------------------|

|---------------------------------------------------|
|---------------------------------------------------|
|-11-7\6-0h6-11-7\6-\2-\7\6-------------------------|(2x)
|---------------------------------------------------|
|---------------------------------------------------|
|---------------------------------------------------|

BACK TO CHORUS
        VERSE
        PRE-CHORUS
        CHORUS THEN
=============================================================================
=============================================================================
BRIDGE
 (guitar 1)
|---------------------------------------------------|
|---------------------------------------------------|
|---------------------------------------------------|
|-55555x5x5----------55555x5x5----------------------|
|-55555x5x5----------55555x5x5----------------------|
|-55555x5x5----------55555x5x5----------------------|

|---------------------------------------------------|
|---------------------------------------------------|
|----------------------------11~~~------------------|
|-99999x9x9----------99999x9x11~~~------------------|
|-99999x9x9----------99999x9x9~~~~------------------|
|-99999x9x9----------99999x9x9~~~~------------------|

|---------------------------------------------------|
|---------------------------------------------------|
|---------------------------------------------------|
|-55555x5x5--------55555x5x5x5----------------------|
|-55555x5x5--------55555x5x5x5----------------------|
|-55555x5x5--------55555x5x5x5----------------------|


|---------------------------------------------------|
|---------------------------------------------------|
|---------------------------------------------------|
|-9~~~~~--------------------------------------------|
|-9~~~~~--------------------------------------------|
|-9~~~~~--------------------------------------------|

=============================================================================
=============================================================================
INTERLUDE PART 1
 (KEYBOARD)
|---------------------------------------------------|
|---------------------------------------------------|
|---------------------------------------------------|
|---------------------------------------------------|
|---------------------------------------------------|
|---------------------------------------------------|

=============================================================================
=============================================================================
INTERLUDE PART 2
 (guitar 1)
  palm mute
|---------------------------------------------------|
|---------------------------------------------------|
|---------------------------------------------------|
|-9999999999999999----0000000000000000--------------|
|-9999999999999999----0000000000000000--------------|
|-9999999999999999----0000000000000000--------------|

|---------------------------------------------------|
|---------------------------------------------------|
|---------------------------------------------------|
|-555555555555555----77777777777777777--------------|
|-555555555555555----77777777777777777--------------|
|-555555555555555----77777777777777777--------------|

 (guitar 1)
|---------------------------------------------------|
|---------------------------------------------------|
|---------------------------------------------------|
|-9999999999999999----0000000000000000--------------|
|-9999999999999999----0000000000000000--------------|
|-9999999999999999----0000000000000000--------------|

|---------------------------------------------------|
|---------------------------------------------------|
|-11-(4x)-------------------------------------------|
|--------12-(4x)-11-(4x)-9-(4x)---------------------|(2x)
|---------------------------------------------------|
|---------------------------------------------------|

(guitar 1)
|---------------------------------------------------|
|---------------------------------------------------|
|---------------------------------------------------|
|-555555555555555----77777777777777777--------------|
|-555555555555555----77777777777777777--------------|
|-555555555555555----77777777777777777--------------|


|---------------------------------------------------|
|---------------------------------------------------|
|---------------------------------------------------|(2x)
|-5-(4x)-11-(4x)-9-(4x)-7-(4x)-5-(4x)---------------|
|---------------------------------------------------|
|---------------------------------------------------|

(guitar 1)
|---------------------------------------------------|
|---------------------------------------------------|
|---------------------------------------------------|
|-9999999999999999----0000000000000000--------------|
|-9999999999999999----0000000000000000--------------|
|-9999999999999999----0000000000000000--------------|

(guitar 2)
|---------------------------------------------------|
|---------------------------------------------------|
|-11-(4x)-------------------------------------------|
|--------12-(4x)-11-(4x)-9-(4x)---------------------|(2x)
|---------------------------------------------------|
|---------------------------------------------------|

(guitar 1)
|---------------------------------------------------|
|---------------------------------------------------|
|---------------------------------------------------|
|-555555555555555----77777777777777777--------------|
|-555555555555555----77777777777777777--------------|
|-555555555555555----77777777777777777--------------|

(guitar 2)
|---------------------------------------------------|
|---------------------------------------------------|
|---------------------------------------------------|
|-5-(4x)-11-(4x)-9-(4x)-7-(4x)-5-(4x)---------------|
|---------------------------------------------------|
|---------------------------------------------------|

|---------------------------------------------------|
|-5-(4x)-7-(4x)-8-(4x)-5-(4x)-----------------------|
|---------------------------------------------------|
|---------------------------------------------------|
|---------------------------------------------------|
|---------------------------------------------------|
 then.............
=============================================================================
=============================================================================
CHORUS-OUTRO
 GUITAR 1 AND 2
|---------------------------------------------------|
|---------------------------------------------------|
|---------------------------------------------------|
|-9999999999999999----0000000000000000--------------|
|-9999999999999999----0000000000000000--------------|
|-9999999999999999----0000000000000000--------------|
                                                     1x
|---------------------------------------------------|
|---------------------------------------------------|
|---------------------------------------------------|
|-555555555555555----77777777777777777--------------|
|-555555555555555----77777777777777777--------------|
|-555555555555555----77777777777777777--------------|

 (guitar 1)
|---------------------------------------------------|
|---------------------------------------------------|
|---------------------------------------------------|
|-9999999999999999----0000000000000000--------------|
|-9999999999999999----0000000000000000--------------|
|-9999999999999999----0000000000000000--------------|

 (guitar 2)
|--------------------17-14--------------------------|
|-15-0-17-0-14h15----------17-15-14-14h15-----------|
|-----------------14----------------------14-16-----|
|---------------------------------------------------|
|---------------------------------------------------|
|---------------------------------------------------|

|--------------------17-14-------------------------|
|-15-0-17-0-14h15----------17-15-14-14h15----------|
|-----------------14----------------------14-------|
|--------------------------------------------------|
|--------------------------------------------------|
|--------------------------------------------------|

 (guitar 1)
|---------------------------------------------------|
|---------------------------------------------------|
|---------------------------------------------------|
|-555555555555555----77777777777777777--------------|
|-555555555555555----77777777777777777--------------|
|-555555555555555----77777777777777777--------------|

 (guitar 2)
|--------------------------------------------------|
|-15\19-0-15-0-17-0-14h15-0-15h17-0-14h15----------|
|----------------------------------------14--------|
|--------------------------------------------------|
|--------------------------------------------------|
|--------------------------------------------------|

|---------------------------------------------------|
|-15\19-0-15-0-17-0-14h15-0-15h17-0-14h15-14~~~~~---|
|---------------------------------------------------|
|---------------------------------------------------|
|---------------------------------------------------|
|---------------------------------------------------|

               ----------END----------
=============================================================================
=============================================================================
comments
We did not receive enough feedback on this tab! Please rate:
print report bad tab
1 2 3 4 5
I want to post or [tab]
guest
You may want to rate the tab now too:
select rating
Please do not post tabs as comments. Select "correction" instead!