Oops, an error
Loading. Please wait.

Fighting Instinct - The Call Tab

652 views 1 this week
no commentswrite comment
1 2 3 4 5
please rate
Autoscroll
+/-
esc
set tempo
stop
Contributor
Difficulty
novice
Hey! There's an official Ultimate Guitar app which is ideal
for learning songs when you're away from computer. Get the app
WARNING: You are trying to view
                                    content from Ultimate-Guitar.com
                                    in an unauthorized application,
                                    which is prohibited.

                                    Please use an official Ultimate
                                    Guitar Tabs application for iPhone,
                                    iPad or Android to access legitimate
                                    chords, guitar, bass, and drum tabs
                                    from Ultimate-Guitar.com database.

                                    Type "ultimate guitar tabs" in Apple
                                    App Store's or Android Market's
                                    search to find the application.
Fighting Instinct - The Call
Standard Tuning

CHORDS
    Em: 079980
 Cmaj7: 035500
    G6: 355400
D6add9: 057700
 Aadd9: 577600


    Intro: Em Cmaj7 G6 D6add9 x2
    Verse: Em Cmaj7 G6 D6add9 x4
Prechorus: Cmaj7 D6add9 x2
   Chorus: Em Cmaj7 D6add9 Cmaj7
	   Em Cmaj7 D6add9 Aadd9
	   Em Cmaj7 D6add9 Cmaj7
	   Em Cmaj7 D6add9 G6

If you listen to the song, it is pretty easy to here how the chords are played. No 
struming pattern.

There are two guitars. The second is picking the chords and harmonics while the rhythm 
strums. No certain picking pattern.

Solo:
e|---------------------------------------------------------------------------|
B|---------------------------------------------------------------------------|
G|-----------12--14/16--16p14---------------12--14b14--12-----12--14---------|
D|---12--14--------------------14--12b--14-----------------14---------12-----|
A|---------------------------------------------------------------------------|
E|---------------------------------------------------------------------------|

e|---------------------------------------------------------------------------|
B|---------------------------------------------------------------------------|
G|-----------12--12--12------17--15--17--20--20------------------------------|
D|---12--14-------------14---------------------------------------------------|
A|---------------------------------------------------------------------------|
E|---------------------------------------------------------------------------|
I'm still working on the rest. I hope to have it soon!


VERSE 1:
A dark shadow is arising on a dry and thirsty soul
And in the darkness it is hiding so no one could ever know
Of the emptiness inside him or the rate at which it grows
He tries hard to fight the battle
He tries so hard not to let it show
And God hears his people calling, praying on their knees
And in the midst of all this darkness he here's his Father's plea

CHORUS:
It's the call of the great I Am
And like a bright and shining light
In the darkness He is there to guide you
Oh yes He is

VERSE2:
Through the worst of my times
The Lord is there to guide me through the trials of my life
And everything that comes my way
Through all the bad and all the good I will find the light of day
And when I've done all I can do and I feel I can't go on
I hear the voice of my God above and His love makes me strong

It's the call of the great I Am
And like a bright and shining light
In the darkness He is there to guide you
To guide me
It's the call of the great I Am
And like a bright and shining light
In the darkness He is there to guide you
Oh yes He is
comments
We did not receive enough feedback on this tab! Please rate:
print report bad tab
1 2 3 4 5
I want to post or [tab]
guest
You may want to rate the tab now too:
select rating
Please do not post tabs as comments. Select "correction" instead!