Oops, an error
Loading. Please wait.

Flat Dark Earth - Memoirs Of Pain And Anguish Tab

176 views 3 this week
no commentswrite comment
1 2 3 4 5
please rate
Autoscroll
+/-
esc
set tempo
stop
Difficulty
Tuning
intermediate
C F A# D# G C
Hey! There's an official Ultimate Guitar app which is ideal
for learning songs when you're away from computer. Get the app
WARNING: You are trying to view
                                    content from Ultimate-Guitar.com
                                    in an unauthorized application,
                                    which is prohibited.

                                    Please use an official Ultimate
                                    Guitar Tabs application for iPhone,
                                    iPad or Android to access legitimate
                                    chords, guitar, bass, and drum tabs
                                    from Ultimate-Guitar.com database.

                                    Type "ultimate guitar tabs" in Apple
                                    App Store's or Android Market's
                                    search to find the application.
Hello, Im Justin, guitarist from Flat Dark Earth. Here is the whole full-length album
tabbed out of everything I play in the band.  Buy our full-length, and support local
music. The tuning for all songs is CGCFAD. I only all rights to these songs and there 
are copyrighted, I tabbed them myself as a learning tool for those that want to play our songs.
Thank you for the endless support. If any questions email me and Flatdarkearthband@yahoo.com

Memoirs of Pain and Anguish
1.      Intro
2.      Trapped
3.      Bleed my pain
4.      Toast of a fallen soldier
5.      Bringing back the dead for us to love
6.      Confidence vs. Arrogance
7.      Asylum
8.      The past is just that…history
9.      No more
10.     Soldier/ Civilian
11.     Heed
12.     Familiar feelings


Intro- this song has an effect where its all backwards so I’m not going to tab it out.

Trapped-
        Ill let you guys figure out timing and give the simple version of the song

Intro riff treble picked
D------------------------------------------------------------------------|
A------------------------------------------------------------------------|
F------------------------------------------------------------------------|
C------------------------------------------------------------------------|
G----5--8--7--4----------------------------------------------------------|
C----------------------5--8--7--4----------------------------------------|







1st half of Verse
D----------------------------------------------------------------------------------|
A----------------------------------------------------------------------------------|
F----------------------------------------------------------------------------------|
C----12p8p----------------------------------------------3h6p-----------------------|
G---------------12p8p-------------------------3h6p---------------------------------|
C--------------------------12p8p-----3h6p------------------------------------------|

2nd half of verse
        Have to listen to song to get chugging the chord shown is what I strum live and the
end of the song as well
D------------------------------------------------------------------------------------|
A-----------------------------7---7--------------------------------------------------|
F----------------------------10-10---------------------------------------------------|
C-----0-0-0--0-0---------------------------------------------------------------------|
G-----0-0-0--0-0---------------------------------------------------------------------|
C-----0-0-0--0-0---------------------------------------------------------------------|

Chorus
D-----------------------------------------------------------------------------------|
A-----------------------------------------------------------------------------------|
F-----------------------------------------------------------------------------------|
C-----00-0-0—5-5-5------------------------------------------------------------------|
G-----00-0-0—x-x-x------------------------------------------------------------------|
C-----00-0-0—3-3-3------------------------------------------------------------------|



Ending/outro
Listen for the chugging and when the throw the chord in
D------------------------------------------------------------------------------------|
A----------------------------7---7---------------------------------------------------|
F---------------------------10-10----------------------------------------------------|
C----0--00----0000-------------------------------------------------------------------|
G----0--00----0000-------------------------------------------------------------------|
C----0--00----0000-------------------------------------------------------------------|


Bleed my pain-

Intro/Outro
D------------------------------------------------------------------------------------|
A------------------------------------------------------------------------------------|
F------------------------------------------------------------------------------------|
C---0-0-0-0--------------------------------------------------------------------------|
G---0-0-0-0------10----10-------10------8-----8--------8------7------7-----7---------|
C---0-0-0-0---77-----77----77-------77----77------77-----88-----88-----88------------|


D------------------------------------------------------------------------------------|
A------------------------------------------------------------------------------------|
F------------------------------------------------------------------------------------|
C------------------------------------------------------------------------------------|
G--------3--------3--------3/5-------------------------------------------------------|
C----33-----33------33---------------------------------------------------------------|
        Verse- it is the same riff as the intro just with a phase shifter and no distortion,
Ill let you figure out timing

D------------------------------------------------------------------------------------|
A------------------------------------------------------------------------------------|
F------------------------------------------------------------------------------------|
C------------------------------------------------------------------------------------|
G-------10------8--------7------3/5--------------------------------------------------|
C----7------7-------8-------3--------------------------------------------------------|

Chorus
        Here are the chords, Listen to song for strumming
D------------------------------------------------------------------------------------|
A------------------------------------------------------------------------------------|
F------------------------------------------------------------------------------------|
C-----8/7/3----0---------------------------------------------------------------------|
G-----8/7/3----0---------------------------------------------------------------------|
C-----8/7/3----0---------------------------------------------------------------------|


Toast of a fallen soldier-

Verse 1st half, listen to the song to find strumming pattern
D------------------------------------------------------------------------------------|
A------------------------------------------------------------------------------------|
F-----77-7~--------------------------------------------------------------------------|
C-----55-x~--------------------------------------------------------------------------|
G-----77-5~--------------------------------------------------------------------------|
C------------------------------------------------------------------------------------|
Verse 2nd half

D------------------------------------------------------------------------------------|
A------------------------------------------------------------------------------------|
F-------7/10/14----------------------------------------------------------------------|
C-------x/x-/x-----------------------------------------------------------------------|
G-------5/8-/12----------------------------------------------------------------------|
C------------------------------------------------------------------------------------|

Pre-chorus

D------------------------------------------------------------------------------------|
A------------------------------------------------------------------------------------|
F------------------------------------------------------------------------------------|
C------------------8p5p--------------------------------------------------------------|
G-------8p5p-------------------------------------------------------------------------|
C------------------------------------------------------------------------------------|

Chorus
In the cd we have multiple guitars but one is driving with an effect the other is palm
muting the same riff
D------------------------------------------------------------------------------------|
A------------------------------------------------------------------------------------|
F------------------------------------------------------------------------------------|
C----7--8--5--0----------------------------------------------------------------------|
G----7--8--5--0----------------------------------------------------------------------|
C----7--8--5--0----------------------------------------------------------------------|

Post chorus is drums just throw an open and let ring out till the verse is repeated. The
bridge is the riff from the second part of the verse strummed out.
Bringing back the dead for us to love
One of my favorite songs on the cd, the chorus is covered up by the third guitar effect
but live you hear me more.
Verse
D------------------------------------------------------------------------------------|
A------------------------------------------------------------------------------------|
F------------------------------------------------------------------------------------|
C------------8-7-----5--------8-7-----5---------8-7-------5---------8-7-------5------|
G------55--------8--------55-------8--------55-------8----------55---------8---------|
C--00------------------88---------------33------------------22-----------------------|

Chorus
You have to listen for the strumming
D------------------------------------------------------------------------------------|
A------------------------------------------------------------------------------------|
F------7------6------10----9---------------------------------------------------------|
C------x------x-------x-----x--------------------------------------------------------|
G------5------4------8-----7---------------------------------------------------------|
C------------------------------------------------------------------------------------|

Bridge
Treble picking
D-------------------------------------------------------------------------------------|
A-------------------------------------------------------------------------------------|
F-------------------------------------------------------------------------------------|
C------------8--7---------5*(pinch harmonic)------------------------------------------|
G------5------------8-----------------------------------------------------------------|
C-------------------------------------------------------------------------------------|

Confidence vs arrogance-

Intro/chorus,  I’m using a delay pedal to get that echo effect on intro.
D------------------------------------------------------------------------------------|
A------------------------------------------------------------------------------------|
F----------------14 /15--------------------------------------------------------------|
C-----12/14/15-----------------------------------------------------------------------|
G------------------------11----------------------------------------------------------|
C------------------------------------------------------------------------------------|

Verse

D------------------------------------------------------------------------------------|
A------------------------------------------------------------------------------------|
F------------------------------------------------------------------------------------|
C------12----11----15----11----------------------------------------------------------|
G------12----11----15----11----------------------------------------------------------|
C------12----11----15----11----------------------------------------------------------|

Chorus

        Treble picking intro riff, please note that the second chorus is the intro 
riff with delay.

Bridge
        Is verse riff but choppy listen to cd for feel.







Asylum-

Verse


D----12p12p12------------------------------------------------------------------------|
A----------------------12p12p12------------------------------------------------------|
F---------------------------------------12p12p12--------------------8----------------|
C-------------------------------------------------------------1-----x----------------|
G-------------------------------------------------------------1-----6----------------|
C-------------------------------------------------------------1----------------------|

Pre -Chorus
Strum
D------------------------------------------------------------------------------------|
A------------------------------------------------------------------------------------|
F--------6---------------------------------------------------------------------------|
C--------x---------------------------------------------------------------------------|
G--------4---------------------------------------------------------------------------|
C------------------------------------------------------------------------------------|

Chorus

D------------------------------------------------------------------------------------|
A------------------------------------------------------------------------------------|
F-----5---4---8----------------------------------------------------------------------|
C-----x---x---x----------------------------------------------------------------------|
G-----3---2---6----------------------------------------------------------------------|
C------------------------------------------------------------------------------------|


The past is just that…history-

Intro/outro, give a listen to figure out the strumming
D------------------------------------------------------------------------------------|
A------------------------------------------------------------------------------------|
F------------------------------------------------------------------------------------|
C--------------8------------7--------------------------------------------------------|
G--------------7------------8--------------------------------------------------------|
C------0-------------0---------------------------------------------------------------|

Pre-Verse, is played by the other guitarist but I believe it the single notes of the
intro without distortion

Verse

D------------------------------------------------------------------------------------|
A------------------------------------------------------------------------------------|
F------------------------------------------------------------------------------------|
C----------8----7------7-----5-------------------------------------------------------|
G----------7----8-----10----8--------------------------------------------------------|
C------------------------------------------------------------------------------------|


Chorus


D-----------------------------------------------------------------------------------|
A-----------------------------------------------------------------------------------|
F-----------------------------------------------------------------------------------|
C-----8----0----5---0---------------------------------------------------------------|
G-----8----0----5---0---------------------------------------------------------------|
C-----8----0----5---0---------------------------------------------------------------|
Pm.      *       *         *     *

No more-

Verse

D------------------------------------------------------------------------------------|
A------------------------------------------------------------------------------------|
F------------------------------------------------------------------------------------|
C----5--8p5----3--5p3-----2--3p2------3---5------------------------------------------|
G ---5----------3----------2------------3---3----------------------------------------|
C----5----------3----------2------------3--------------------------------------------|

Chorus

D------------------------------------------------------------------------------------|
A------------------------------------------------------------------------------------|
F-------------------------5-----8----------------------------------------------------|
C------5----3----2------x-----x------------------------------------------------------|
G------5----3----2------3-----6------------------------------------------------------|
C------5----3----2-------------------------------------------------------------------|

Break down is just palm-muted chugs with a slide up and down


Soldier/civilian-
I tracked every guitar track on this song, it’s a great song.
Main riff

C-------------------10--10-----0-----------------------------------------------------|
G-------8/7p--------8---8------0-----------------------------------------------------|
C -------------------8---8------0----------------------------------------------------|
Pm.                                           *           *


Verse riff
I’m using a delay pedal here
D------------------12-------------------12-----------------12h15p--------------------|
A----------13------------------13------------------13----------------13--------------|
F---14-------------------14-------------------14------------------------------14-----|

Chorus
Listen for strumming
D---------------------------------------------------------|
A---------------------------------------------------------|
F------14-------17-------9--------------------------------|
C------x--------x--------x--------------------------------|
G------12------15--------7--------------------------------|
C---------------------------------------------------------|

Bridge is every riff playing at once, with the drums and vocals

Heed-
Chorus

D------------------------------------------------------------------------------------|
A------------------------------------------------------------------------------------|
F------------------------------------------------------------------------------------|
C-----7-----10------5----------------------------------------------------------------|
G-----5-----8-------3----------------------------------------------------------------|
C-----5-----8-------3----------------------------------------------------------------|

Verse

D------------------------------------------------------------------------------------|
A------------------------------------------------------------------------------------|
F------------------------------------------------------------------------------------|
C---------8p7-------------------8p7--------------------------------------------------|
G--------------------8p7--------------------8p7--------------------------------------|
C----0----------0----------5-----------5---------------------------------------------|

Pre chorus is the chorus riff, just choppy listen to song to get feel.

Breakdown. Are chugs and then goes into a clean strummed part, which again is simply the chorus.

Familiar feelings-

Verse/ post verse

Clean, with muting the same chord

D------------------------------------------------------------------------------------|
A------------------------------------------------------------------------------------|
F------7-----7--------------------------7---------------7------------------7---------|
C------5-----5---------------------5-------------5-----------------5-----------------|
G------6-----6-----------------6-----------6---------------6-------------------------|
C------------------------------------------------------------------------------------|
Pm.                   *

Chorus

Throw on distortion for chorus

D-----------------------------------------|
A-----------------------------------------|
F--------12p9---7-------------------------|
C--------x--x---x-------------------------|
G--------7--7---5-------------------------|
C-----------------------------------------|

Bridge
Listen to song to get the feel
D---------------------------------------------------------|
A---------------------------------------------------------|
F----------------------------------7-----7----------------|
C--------8p0h8p0h8/555------------5-----5-----------------|
G--------8p0h8p0h8/555------------6-----6-----------------|
C--------8p0h8p0h8/555-------00-----0---------------------|
comments
We did not receive enough feedback on this tab! Please rate:
print report bad tab
1 2 3 4 5
I want to post or [tab]
guest
You may want to rate the tab now too:
select rating
Please do not post tabs as comments. Select "correction" instead!