Oops, an error
Loading. Please wait.

Forever Ends Today - Women Jokes Arent Funny Period Tab

75 views 1 this week
no commentswrite comment
1 2 3 4 5
please rate
Autoscroll
+/-
esc
set tempo
stop
Contributor
Difficulty
Tuning
intermediate
B F# B E G# C#
Hey! There's an official Ultimate Guitar app which is ideal
for learning songs when you're away from computer. Get the app
WARNING: You are trying to view
                                    content from Ultimate-Guitar.com
                                    in an unauthorized application,
                                    which is prohibited.

                                    Please use an official Ultimate
                                    Guitar Tabs application for iPhone,
                                    iPad or Android to access legitimate
                                    chords, guitar, bass, and drum tabs
                                    from Ultimate-Guitar.com database.

                                    Type "ultimate guitar tabs" in Apple
                                    App Store's or Android Market's
                                    search to find the application.
Left(Guitar)

Legend
L - tied note
x - dead note
h - hammer on/pull off
b - bend
s - slide
~ - vibrato
g - ghost note
> - accentuated note
t - trill
M - palm mute
. - staccato
P - popping (bass)
S - slapping (bass)
+ - tapping
W - wide vibrato
< - fade in
w - whammy bar
= - tremolo picking
v - brush up
^ - brush down
V - pick stroke up
n - pick stroke down


C#|----|----|----|----|----|----|----|----|
G#|----|----|----|----|----|----|----|----|
E |----|----|----|----|----|----|----|----|
B |----|----|----|----|----|----|----|----|
F#|----|----|----|----|----|----|----|----|
B |----|----|----|----|----|----|----|----|


--------------------------------------------------------------------------------|
--------------------------------------------------------------------------------|
--------------------------------------------------------------------------------|
--------------------------------------------------------------------------------|
--------------17----------12----------7-----------8-----------10----------12-10-|
--0M----0M----------0M----------0M----------0M----------0M----------0M----------|


--------------------|
--------------------|
--------------------|
--------------------|
8--7----------------|
------12-10-8--7----|


--------------------------------------------------------------------------------|
--------------------------------------------------------------------------------|
--------------------------------------------------------------------------------|
--------------------------------------------------------------------------------|
--------------------8-----------------12----------------8--12-8--12-8--12-------|
--0M-------0M----------------0M----------------0M-------------------------0M----|


--------------------------------------------------------------------|
--------------------------------------------------------------------|
--------------------------------------------------------------------|
--------------------------------------------------------------------|
------------5-----------------8-----------------5--8--5--8--5--8----|
---0M----------------0M----------------0M---------------------------|


--------------------------------------------------------------------------------|
--------------------------------------------------------------------------------|
--------------------------------------------------------------------------------|
--------------------------------------------------------------------------------|
--------------17----------12----------7-----------8-----------10----------12-10-|
--0M----0M----------0M----------0M----------0M----------0M----------0M----------|


--------------------|
--------------------|
--------------------|
--------------------|
8--7----------------|
------12-10-8--7----|


--------------------------------------------------------------------------------|
--------------------------------------------------------------------------------|
--------------------------------------------------------------------------------|
--------------------------------------------------------------------------------|
--------------------8-----------------12----------------8--12-8--12-8--12-------|
--0M-------0M----------------0M----------------0M-------------------------0M----|


--------------------------------------------------------------------|
--------------------------------------------------------------------|
--------------------------------------------------------------------|
--------------------------------------------------------------------|
------------5-----------------8-----------------5--8--5--8--5--8----|
---0M----------------0M----------------0M---------------------------|


--------------------------------------------------------------------------------|
--------------------------------------------------------------------------------|
--------------------------------------------------------------------------------|
--------------12----------------------------------------------------------------|
--------------------------12----------7-----------8-----------10----------12-10-|
--0M----0M----------0M----------0M----------0M----------0M----------0M----------|


--------------------|----------------------------------------------------|
--------------------|----------------------------------------------------|
--------------------|----------------------------------------------------|
--------------------|--------------5-------------------------------------|
8--7----------------|-----5M-7M-8M----8--7--5-----4M-5M-7M-8--7--5--4----|
------12-10-8--7----|--8M----------------------7M------------------------|


--------------------------------------------------------------------------------|
--------------------------------------------------------------------------------|
--------------------------------------------------------------------------------|
--------------12----------------------------------------------------------------|
--------------------------12----------7-----------8-----------10----------12-10-|
--0M----0M----------0M----------0M----------0M----------0M----------0M----------|


--------------------|
--------------------|
--------------------|
--------------------|
8--7----------------|
------12-10-8--7----|


-----------------1--5--1-----------------------------0--3--0----------------|
--------------3-----------3-----------------------2-----------2-------------|
-----------2-----------------2-----------------2-----------------2----------|
--------3-----------------------3-----------2-----------------------2-------|
--1--5-----------------------------5--0--4-----------------------------4----|
----------------------------------------------------------------------------|


----------------------------------------------------|
----------------------------------------------------|
----------------------------------------------------|
----------------------------------------------------|
--0M-0M-0M----------------0M-0M-0M------------------|
--0M-0M-0M----------------0M-0M-0M------------------|


----------------------------------------------------|
----------------------------------------------------|
----------------------------------------------------|
----------------------------------------------------|
--0M-0M-0M----------------0M-0M-0M------------------|
--0M-0M-0M----------------0M-0M-0M------------------|


----------------------------------------------------|
----------------------------------------------------|
----------------------------------------------------|
-----7--5-----5--------------7--5-----5--7--8-------|
--5--------8-----8--7--4--5--------8--------7g-8----|
----------------------------------------------------|


----------------------------------------------------|
----------------------------------------------------|
----------------------------------------------------|
--------------5-------------------------------------|
-----5M-7M-8M----8--7--5-----4M-5M-7M-8--7--5--4----|
--8M----------------------7M------------------------|


--------------------------------------------------------------------------------|
--------------------------------------------------------------------------------|
--------------------------------------------------------------------------------|
--------------------------------------7h----5-----------------------------------|
--------------5-----------8-----------------------------------8-----------7--8--|
--0M-0M-0M----------0M----------0M----------------0M----0M----------0M----------|


--------------------|
--------------------|
--------------------|
--------------------|
7--5----------------|
------7--8--7--5----|


--------------------------------------------------------------------------------|
--------------------------------------------------------------------------------|
--------------------------------------------------------------------------------|
--------------------------------------------5-----------------------------------|
--------------5-----------7-----------8-----------------------8-----------7-----|
--8M-8M-8M----------8M----------8M----------------10M---10M---------10M---------|


--------------------|
--------------------|
--------------------|
--------------------|
--------------------|
10M---10h---12------|


--------------------------------------------------------------------------------|
--------------------------------------------------------------------------------|
--------------------------------------------------------------------------------|
--------------------------------------------------------------------------------|
--------------5-----------5-----------8-----7-----------------5-----------3--5--|
--0M----0M----------0M----------0M----------------0M----0M----------0M----------|


--------------------|
--------------------|
--------------------|
--------------------|
3--0----------------|
------3--5--3--0----|


--------------------------------------------------------------------------------|
--------------------------------------------------------------------------------|
--------------------------------------------------------------------------------|
--------------------------------------------------10-10-10-10-8--8--8--8--7--7--|
--------------5--5--5--5--7--7--7--7--8--8--8--8--------------------------------|
--8--8--8--8--------------------------------------------------------------------|


--------------------|
--------------------|
--------------------|
7--7----------------|
------10-10-10-10---|
--------------------|


--------------------------------------------------------------------------------|
--------------------------------------------------------------------------------|
--------------------------------------------------------------------------------|
--------------------------------------------------------------------------------|
--------------5-----------5-----------8-----7-----------------5-----------3--5--|
--0M----0M----------0M----------0M----------------0M----0M----------0M----------|


--------------------|
--------------------|
--------------------|
--------------------|
3--0----------------|
------3--5--3--0----|


--------------------------------------------------------------------------------|
--------------------------------------------------------------------------------|
--------------------------------------------------------------------------------|
--------------------------------------------------7--7--7--7--5--5--5--5--8--8--|
--------------7--7--7--7--8--8--8--8--7--7--7--7--------------------------------|
--8--8--8--8--------------------------------------------------------------------|


--------------------|
--------------------|
--------------------|
8--8--7--7--7--7----|
--------------------|
--------------------|


--------------------------------------------------------------------------------|
--------------------------------------------------------------------------------|
--------------------------------------------------------------------------------|
--------------------------------------------------------------------------------|
--------------5-----------5-----------8-----7-----------------5-----------3--5--|
--0M----0M----------0M----------0M----------------0M----0M----------0M----------|


--------------------|
--------------------|
--------------------|
--------------------|
3--0----------------|
------3--5--3--0----|


--------------------------------------------------------------------------------|
--------------------------------------------------------------------------------|
--------------------------------------------------------------------------------|
--------------------------------------------------------------------------5~----|
--8~----------------------------------7--8--7-----5-----------------------------|
--------------------------------------------------------------------------------|


--------------------|
--------------------|
--------------------|
--------------------|
--------------------|
--------------------|


--------------------------------------------------------------------------------|
--------------------------------------------------------------------------------|
--------------------------------------------------------------------------------|
--------------------------------------------------------------------------------|
--0M-------0M-------0M----------------------------------------------------0M----|
--0M-------0M-------0M----------------------------------------------------0M----|


--------------------------------------------------------------------|
--------------------------------------------------------------------|
--------------------------------------------------------------------|
--------------------------------------------------------------------|
------------------0M----------------------0M------------------------|
------------------0M----------------------0M------------------------|


----------------|
----------------|
----------------|
----------------|
--8-----7~-7----|
----------------|


--------------------------------------------------------------------------------|
--------------------------------------------------------------------------------|
--------------------------------------------------------------------------------|
--------------------------------------------------------------------------------|
--0M-------0M-------0M----------------------------------------------------0M----|
--0M-------0M-------0M----------------------------------------------------0M----|


--------------------------------------------------------------------|
--------------------------------------------------------------------|
--------------------------------------------------------------------|
--------------------------------------------------------------------|
------------------0M----------------------0M------------------------|
------------------0M----------------------0M------------------------|


----------------------------------------------------------------------------|
----------------------------------------------------------------------------|
----------------------------------------------------------------------------|
----------------------------------------------------------------------------|
--10----------------------------------8~----------------7--------7--8--10---|
----------------------------------------------------------------------------|


----------------------------------------------------------------------------|
----------------------------------------------------------------------------|
----------------------------------------------------------------------------|
--7L----------------------------------7~-------------------------5--7--8----|
----------------------------------------------------------------------------|
----------------------------------------------------------------------------|


----------------------------------------------------------------------------|
----------------------------------------------------------------------------|
----------------------------------------------------------------------------|
--7s-8--------7-----------5-----------7-----------5-------------------------|
--------------------------------------------------------------8-------------|
----------------------------------------------------------------------------|


-----------------------------------5--8--6--5--6--5-----5-------------------|
--------------------------5--6--8--------------------8-----8--6--8--6--5----|
--------------------5--7----------------------------------------------------|
-----------5--7--8----------------------------------------------------------|
--5--7--8-------------------------------------------------------------------|
----------------------------------------------------------------------------|


-------|----------------------------------------------------|
--6~---|----------------------------------------------------|
-------|-----------5-----5--7--5-----5----------------------|
-------|--7-----7-----7-----------8-----8--7--8--7--5--7----|
-------|-----5----------------------------------------------|
-------|----------------------------------------------------|


--------------------------------------------------------------------------------|
--------------------------------------------------------------------------------|
--------------------------------------------------------------------------------|
--5-----------------------------------------------------------5-----7-----7s----|
--------------------------------------------------------8-----------------------|
--------------------------------------------------------------------------------|


--------------------------------------------------------------------|
--------------------------------------------------------------------|
--------------------------------------------------------------------|
---8-----------------7--------------------------5h----7h----5-------|
--------------------------------------------------------------------|
--------------------------------------------------------------------|


----------------------------------------------------------------------------|
-----------------------------------------------------------------8--10-11---|
--------------------------------------------------------7--9--10------------|
-----------------------------------------------7--8--10---------------------|
--8-----------------------------------7--8--10------------------------------|
----------------------------------------------------------------------------|


----------------------------------------------------|-------|
--11b------11-------10------------------------------|-------|
--------------------------12-------10-------9-------|--10~--|
----------------------------------------------------|-------|
----------------------------------------------------|-------|
----------------------------------------------------|-------|


--------------------------------------------------------------------------------|
--------------------------------------------------------------------------------|
--------------------------------------------------------------------------------|
--------------------------------------------------------------------------------|
--0M----0M----------------------------0M-0M-0M-0M-0M-0M-0M-0M-0M----------------|
--0M----0M----------------------------0M-0M-0M-0M-0M-0M-0M-0M-0M----------------|


--------------------|
--------------------|
--------------------|
--------------------|
--------------------|
--------------------|


--------------------------------------------------------------------------------|
--------------------------------------------------------------------------------|
--------------------------------------------------------------------------------|
--------------------------------------------------------------------------------|
--0M----0M----------------------------0M-0M-0M-0M-0M-0M-0M-0M-0M----------0M----|
--0M----0M----------------------------0M-0M-0M-0M-0M-0M-0M-0M-0M----------0M----|


--------------------|
--------------------|
--------------------|
--------------------|
0M----------0M------|
0M----------0M------|


--------------------------------------------------------------------------------|
--------------------------------------------------------------------------------|
--------------------------------------------------------------------------------|
--------------------------------------------------------------------------------|
--0M----0M----------------------------0M-0M-0M-0M-0M-0M-0M-0M-0M----------------|
--0M----0M----------------------------0M-0M-0M-0M-0M-0M-0M-0M-0M----------------|


--------------------|----------------------------|
--------------------|----------------------------|
--------------------|----------------------------|
--------------------|--------1--------7-----7----|
--------------------|--0M-0M-1--0M----4--0M-4----|
--------------------|--0M-0M-0--0M-0M-0--0M-0----|


--------------------------------------------------------------------------------|
--------------------------------------------------------------------------------|
--------------------------------------------------------------------------------|
--------------------------------------------------------------------------------|
--0M----0M----------------------------0M-0M-0M-0M-0M-0M-0M-0M-0M----------------|
--0M----0M----------------------------0M-0M-0M-0M-0M-0M-0M-0M-0M----------------|


--------------------|
--------------------|
--------------------|
--------------------|
--------------------|
--------------------|


--------------------------------------------------------------------------------|
--------------------------------------------------------------------------------|
--------------------------------------------------------------------------------|
--------------------------------------------------------------------------------|
--0M----0M----------------------------0M-0M-0M-0M-0M-0M-0M-0M-0M----------0M----|
--0M----0M----------------------------0M-0M-0M-0M-0M-0M-0M-0M-0M----------0M----|


--------------------|
--------------------|
--------------------|
--------------------|
0M----------0M------|
0M----------0M------|


--------------------------------------------------------------------------------|
--------------------------------------------------------------------------------|
--------------------------------------------------------------------------------|
--------------1-----------------4-----------3-----------------------------------|
--0M----0M----1-----0M----0M----4-----0M----3-----0M----0M----1M-1M-1M-1M-0M----|
--0M----0M----0-----0M----0M----0-----0M----0-----0M----0M----0M-0M-0M-0M-0M----|


--------------------|
--------------------|
--------------------|
--------------------|
0M----1M-1M-1M-1M---|
0M----0M-0M-0M-0M---|


--------------------------------------------------------------------------------|
--------------------------------------------------------------------------------|
--------------------------------------------------------------------------------|
--------------1-----------------4-----------3-----------------1-----------------|
--0M----0M----1-----0M----0M----4-----0M----3-----0M-0M-0M-0M-1M----------0M-0M-|
--0M----0M----0-----0M----0M----0-----0M----0-----0M-0M-0M-0M-0M----------0M-0M-|


--------------------|
--------------------|
--------------------|
------7-------------|
0M-0M-4-------------|
0M-0M-0-------------|


--------------------------------------------------------------------------------|
--------------------------------------------------------------------------------|
--------------------------------------------------------------------------------|
--------------1-----------------4-----------3-----------------------------------|
--0M----0M----1-----0M----0M----4-----0M----3-----0M----0M----1M-1M-1M-1M-0M----|
--0M----0M----0-----0M----0M----0-----0M----0-----0M----0M----0M-0M-0M-0M-0M----|


--------------------|
--------------------|
--------------------|
--------------------|
0M----1M-1M-1M-1M---|
0M----0M-0M-0M-0M---|


--------------------------------------------------------------------------------|
--------------------------------------------------------------------------------|
--------------------------------------------------------------------------------|
--------------1-----------------4-----------3-----------------1-----------------|
--0M----0M----1-----0M----0M----4-----0M----3-----0M-0M-0M-0M-1M----------0M-0M-|
--0M----0M----0-----0M----0M----0-----0M----0-----0M-0M-0M-0M-0M----------0M-0M-|


--------------------|
--------------------|
--------------------|
------7-------------|
0M-0M-4-------------|
0M-0M-0-------------|


--0--3--2--3--0--3--2--0--2--5--3--2-----2--0-----0--3--2--3--0--3--2--0--2--5--|
--------------------------------------4--------4--------------------------------|
--------------------------------------------------------------------------------|
--------------------------------------------------------------------------------|
--------------------------------------------------------------------------------|
--------------------------------------------------------------------------------|


3--2-----2--0-------|
------4--------4----|
--------------------|
--------------------|
--------------------|
--------------------|


--0--3--2--3--0--3--2--0--2--5--3--2-----2--0-----0--3--2--3--0--3--2--0--2--5--|
--------------------------------------4--------4--------------------------------|
--------------------------------------------------------------------------------|
--------------------------------------------------------------------------------|
--------------------------------------------------------------------------------|
--------------------------------------------------------------------------------|


3--2-----2--0-------|
------4--------4----|
--------------------|
--------------------|
--------------------|
--------------------|


--4--7--5--7-----7--5--4--5--8--7--5--7--10-8--7--4--7--5--7-----7--5--4--5--8--|
--------------9-----------------------------------------------9-----------------|
--------------------------------------------------------------------------------|
--------------------------------------------------------------------------------|
--------------------------------------------------------------------------------|
--------------------------------------------------------------------------------|


7--5--7--10-8--7----|
--------------------|
--------------------|
--------------------|
--------------------|
--------------------|


--4--7--5--7-----7--5--4--5--8--7--5--7--10-8--7--4--7--5--7-----7--5--4--5--8--|
--------------9-----------------------------------------------9-----------------|
--------------------------------------------------------------------------------|
--------------------------------------------------------------------------------|
--------------------------------------------------------------------------------|
--------------------------------------------------------------------------------|


7--5--7--10-8--7----|
--------------------|
--------------------|
--------------------|
--------------------|
--------------------|


--------------------------------------------------------------------------------|
--------------------------------------------------------------------------------|
--------------------------------------------------------------------------------|
--0M----0M-0M----0M-0M----------0M-0M-0M-0M-0M-0M-0M----0M-0M----0M-0M----------|
--0M----0M-0M----0M-0M----------0M-0M-0M-0M-0M-0M-0M----0M-0M----0M-0M----------|
--0M----0M-0M----0M-0M----------0M-0M-0M-0M-0M-0M-0M----0M-0M----0M-0M----------|


--------------------|
--------------------|
--------------------|
0M-0M-0M-0M-0M-0M---|
0M-0M-0M-0M-0M-0M---|
0M-0M-0M-0M-0M-0M---|


--------------------------------------------------------------------------------|
--------------------------------------------------------------------------------|
--------------------------------------------------------------------------------|
--8M----8M-8M----8M-8M----------8M-8M-8M-8M-8M-8M-5M----5M-5M----5M-5M----------|
--8M----8M-8M----8M-8M----------8M-8M-8M-8M-8M-8M-7M----7M-7M----7M-7M----------|
--8M----8M-8M----8M-8M----------8M-8M-8M-8M-8M-8M-8M----8M-8M----8M-8M----------|


--------------------|
--------------------|
--------------------|
5M-5M-5M-5M-5M-5M---|
7M-7M-7M-7M-7M-7M---|
8M-8M-8M-8M-8M-8M---|


--------------------------------------------------------------------------------|
--------------------------------------------------------------------------------|
--------------------------------------------------------------------------------|
--0M----0M-0M----0M-0M----------0M-0M-0M-0M-0M-0M-0M----0M-0M----0M-0M----------|
--0M----0M-0M----0M-0M----------0M-0M-0M-0M-0M-0M-0M----0M-0M----0M-0M----------|
--0M----0M-0M----0M-0M----------0M-0M-0M-0M-0M-0M-0M----0M-0M----0M-0M----------|


--------------------|
--------------------|
--------------------|
0M-0M-0M-0M-0M-0M---|
0M-0M-0M-0M-0M-0M---|
0M-0M-0M-0M-0M-0M---|


--------------------------------------------------------------------------------|
--------------------------------------------------------------------------------|
--------------------------------------------------------------------------------|
--8M----8M-8M----8M-8M----------8M-8M-8M-8M-8M-8M-10M---10M10M---10M10M---------|
--8M----8M-8M----8M-8M----------8M-8M-8M-8M-8M-8M-8M----8M-8M----8M-8M----------|
--8M----8M-8M----8M-8M----------8M-8M-8M-8M-8M-8M-10M---10M10M---10M10M---------|


--------------------|----|----|----|----|----||
--------------------|----|----|----|----|----||
--------------------|----|----|----|----|----||
10M10M10M10M10M10M--|----|----|----|----|----||
8M-8M-8M-8M-8M-8M---|----|----|----|----|----||
10M10M10M10M10M10M--|----|----|----|----|----||
comments
We did not receive enough feedback on this tab! Please rate:
print report bad tab
1 2 3 4 5
I want to post or [tab]
guest
You may want to rate the tab now too:
select rating
Please do not post tabs as comments. Select "correction" instead!