Oops, an error
Loading. Please wait.

Fresh Off The Boat - Journey Into The Music Industry And Out Of It Tab

288 views 1 this week
2 commentsread comments
1 2 3 4 5
not so good
x 3
Autoscroll
+/-
esc
set tempo
stop
Contributor
Difficulty
intermediate
WARNING: You are trying to view
                                    content from Ultimate-Guitar.com
                                    in an unauthorized application,
                                    which is prohibited.

                                    Please use an official Ultimate
                                    Guitar Tabs application for iPhone,
                                    iPad or Android to access legitimate
                                    chords, guitar, bass, and drum tabs
                                    from Ultimate-Guitar.com database.

                                    Type "ultimate guitar tabs" in Apple
                                    App Store's or Android Market's
                                    search to find the application.
Here is Fresh Off the Boat "Journey Into the Music Industry (And Out Of It)", the first 
and unfortunately the last. I have decided to break up this band and go solo. I'll post 
own songs soon.

Tabbed by Kunal P. (freedoggy77@gmail.com)

JOURNEY INTO THE MUSIC INDUSTRY (AND OUT OF IT)

1. Perfect Oppurtunity
2. Fobolous
3. Insanity
4. Godly Wonders
5. Hey
6. Hate Is A Strong Word
7. Winning Streak
8. Life Goes On

---------------------------------------------------------------

1. Perfect Oppurtunity

Tuning: Standard

Intro (Disortion)-

e-------------------|
B-------------------|
G-------------------|
D-------------------|
A-5/7-5-------------|
E-------7---7-3-3-0-| x 2

e-------------------|
B-------------------|
G-7/9-7-------------|
D-7/9-7-9---9-5-5-2-|
A-5/7-5-9---9-5-5-2-|
E-------7---7-3-3-0-| x 2


Verse 1 (Disortion)-

e------------------------------------|
B------------------------------------|
G-7-7-7-7-9-9-9----------------------|
D-7-7-7-7-9-9-9--9-9-9-5-5-5-5-0-----|
A-5-5-5-5-7-7-7--9-9-9-5-5-5-5-0-----|
E----------------7-7-7-3-3-3-3-0 x 2-|

e----------------------------|
B----------------------------|
G-7-7-7-7-9-9-9--------------|
D-7-7-7-7-9-9-9--9-9-9-9-5-5-|
A-5-5-5-5-7-7-7--9-9-9-9-5-5-|
E----------------7-7-7-7-3-3-| let ring

"I was walking down the street one day, when I saw my worst enemy... He had made my childhood miserable,
and I wasn't gonna waste this PERFECT OPPURTUNITY!"

Bridge (Clean)-

e---------|
B----1----|
G---2-2-9-|
D--2----9-|
A-0-----7-| let ring
E---------|

"So I pulled out my gun.." (after playing the bridge, no instruments)

e---------|
B----1----|
G---2-2-9-|
D--2----9-|
A-0-----7-| let ring
E---------|

"And I shot him in the face!" (no instruments, yell it)

Instrumental (Disortion)-


e--------------------------|
B--------------------------|
G-7-7-7-9-9-9--------------|
D-7-7-7-9-9-9--9-9-9-5-5-5-|
A-5-5-5-7-7-7--9-9-9-5-5-5-|
E--------------7-7-7-7-3-3-| x 6

Solo (Clean)

e-20-18-15-15-15------20-18-15-15-15--------------------------|
B---------------18-15---------------18-15--15-13--------------|
G-----------------------------------------------14-14-14-12---|
D----------------------------------------------------------14-|
A-------------------------------------------------------------|
E-------------------------------------------------------------|  let ring, do vibrato

Verse 2 (Disortion)-

e------------------------------------|
B------------------------------------|
G-7-7-7-7-9-9-9----------------------|
D-7-7-7-7-9-9-9--9-9-9-5-5-5-5-0-----|
A-5-5-5-5-7-7-7--9-9-9-5-5-5-5-0-----|
E----------------7-7-7-3-3-3-3-0 x 2-|

e----------------------------|
B----------------------------|
G-7-7-7-7-9-9-9--------------|
D-7-7-7-7-9-9-9--9-9-9-9-5-5-|
A-5-5-5-5-7-7-7--9-9-9-9-5-5-|
E----------------7-7-7-7-3-3-| let ring

"Once my worst enemy was dead, I had to flee the country...I made it to Mexico, but later I came back...
I managed to escape prison, cuz it turns out my worst enemy..." (no instruments as
"Was wanted in
20 different states"

Outro (Disortion):

e-------------------|
B-------------------|
G-------------------|
D-------------------|
A-5/7-5-------------|
E-------7---7-3-3-0-| x 2

e-------------------|
B-------------------|
G-7/9-7-------------|
D-7/9-7-9---9-5-5-2-|
A-5/7-5-9---9-5-5-2-|
E-------7---7-3-3-0-| x 2

------------------------------------------------------------

2. Fobulous
DROP D TUNING

Intro

e---------------------------------------------------------------------|
B---------------------------------------------------------------------|
G---------------------------------------------------------------------|
D-0-0-0-0-0-0-0-0--5-5-5-5-5-5-5-5--2-2-2-2-2-2-2-2--5-5-5-5-5-5-5-5--|
A-0-0-0-0-0-0-0-0--5-5-5-5-5-5-5-5--2-2-2-2-2-2-2-2--5-5-5-5-5-5-5-5--|
D-0-0-0-0-0-0-0-0--5-5-5-5-5-5-5-5--2-2-2-2-2-2-2-2--5-5-5-5-5-5-5-5--| x2

Verse 1

e------------------------------------------------|
B------------------------------------------------|
G------------------------------------------------|
D-0-0-0-0-0--5-5-5-5-5--2-2-2-2-2--5-5-5-5-5-----|
A-0-0-0-0-0--5-5-5-5-5--2-2-2-2-2--5-5-5-5-5-----|
D-0-0-0-0-0--5-5-5-5-5--2-2-2-2-2--5-5-5-5-5 x 2-|

e--------------------------------------------|
B--------------------------------------------|
G--------------------------------------------|
D-7-7-7-7-7--9-9-9-9-9--7-7-7-7-7--5-5-5-5-5-|
A-7-7-7-7-7--9-9-9-9-9--7-7-7-7-7--5-5-5-5-5-|
D-7-7-7-7-7--9-9-9-9-9--7-7-7-7-7--5-5-5-5-5-|

e------------------------------------|
B------------------------------------|
G------------------------------------|
D-7-7-7-7-7--9-9-9-9-9--7-7-7-7-7--5-|
A-7-7-7-7-7--9-9-9-9-9--7-7-7-7-7--5-|
D-7-7-7-7-7--9-9-9-9-9--7-7-7-7-7--5-|

Bridge

Guitar 1-

e--------------------------------------------------------------------------------------------|
B--------------------------------------------------------------------------------------------|
G--------------------------------------------------------------------------------------------|
D--------------------------------------------------------------------------------------------|
A--------------------------------------------------------------------------------------------|
D-0-0-0-0-0-5-5-5-5-5-2-2-2-2-2-5-5-5-5-5-0-0-0-0-0-5-5-5-5-5-7-7-7-7-7-9-9-9-9-9-5-5-5-5-5--|

Solo

e-14-12-15-12-14-12-14-12-15-12-14-12-14-12-15-12-14-12-14-| (hold and let ring)
B----------------------------------------------------------|
G----------------------------------------------------------|
D----------------------------------------------------------|
A----------------------------------------------------------|
D----------------------------------------------------------|

Guitar 2 (meanwhile)-

e------------------------------------------|
B------------------------------------------|
G------------------------------------------|
D-0-0-0-0-0-5-5-5-5-5-9-9-9-9-9-5-5-5-5-5--|
A-0-0-0-0-0-5-5-5-5-5-9-9-9-9-9-5-5-5-5-5--|
D-0-0-0-0-0-5-5-5-5-5-9-9-9-9-9-5-5-5-5-5--|
(continue with the last note (keep playing) until guitar 1 finishes)

Verse 2

e------------------------------------------------|
B------------------------------------------------|
G------------------------------------------------|
D-0-0-0-0-0--5-5-5-5-5--2-2-2-2-2--5-5-5-5-5-----|
A-0-0-0-0-0--5-5-5-5-5--2-2-2-2-2--5-5-5-5-5-----|
D-0-0-0-0-0--5-5-5-5-5--2-2-2-2-2--5-5-5-5-5 x 2-|

e--------------------------------------------|
B--------------------------------------------|
G--------------------------------------------|
D-7-7-7-7-7--9-9-9-9-9--7-7-7-7-7--5-5-5-5-5-|
A-7-7-7-7-7--9-9-9-9-9--7-7-7-7-7--5-5-5-5-5-|
D-7-7-7-7-7--9-9-9-9-9--7-7-7-7-7--5-5-5-5-5-|

e------------------------------------|
B------------------------------------|
G------------------------------------|
D-7-7-7-7-7--9-9-9-9-9--7-7-7-7-7--5-|
A-7-7-7-7-7--9-9-9-9-9--7-7-7-7-7--5-|
D-7-7-7-7-7--9-9-9-9-9--7-7-7-7-7--5-|

Outro

e--------------------------------------------------------------------|
B--------------------------------------------------------------------|
G--------------------------------------------------------------------|
D-0-0-0-0-0-0-0-0--5-5-5-5-5-5-5-5--2-2-2-2-2-2-2-2--5-5-5-5-5-5-5-5-|
A-0-0-0-0-0-0-0-0--5-5-5-5-5-5-5-5--2-2-2-2-2-2-2-2--5-5-5-5-5-5-5-5-|
D-0-0-0-0-0-0-0-0--5-5-5-5-5-5-5-5--2-2-2-2-2-2-2-2--5-5-5-5-5-5-5-5-|

-------------------------------------------------------------

3. Insanity

DROP D TUNING

Intro-

e---------------------------------|
B---------------------------------|
G---------------------------------|
D-0-0-0-0-2-2-2-2-5-5-5-5-7-7-7-7-|
A-0-0-0-0-2-2-2-2-5-5-5-5-7-7-7-7-|
D-0-0-0-0-2-2-2-2-5-5-5-5-7-7-7-7-| x 3 (let ring)

Verse-

e-----------------------|
B-----------------------|
G-----------------------|
D-0-0-3-3-3-5-5-5-7-----|
A-0-0-3-3-3-5-5-5-7-----|
D-0-0-3-3-3-5-5-5-7 x 2-|

e------------------------------------------------------|
B------------------------------------------------------|
G------------------------------------------------------|
D-7-7-7-7-5-5-5-5-2-2-2-2-3-3-3-3----------------------|
A-7-7-7-7-5-5-5-5-2-2-2-2-3-3-3-3----------------------|
D-7-7-7-7-5-5-5-5-2-2-2-2-3-3-3-3 x 2 (only play 3-3-3-| once)

Bridge/Solo-

e-------------------------------------|
B-------------------------------------|
G-------------------------------------|
D-------------------------------------|
A-------------------------------------|
D-0-0-0-0-3-3-3-3-5-5-5-5-7-7-7-7 x 2-|

e-10-10-10-10-8-8-8-5-5-5-5-3-3-1---|
B---------------------------------3-|
G-----------------------------------|
D-----------------------------------|
A-----------------------------------|
D-----------------------------------|

Verse-

e-----------------------|
B-----------------------|
G-----------------------|
D-0-0-3-3-3-5-5-5-7-----|
A-0-0-3-3-3-5-5-5-7-----|
D-0-0-3-3-3-5-5-5-7 x 2-|

e------------------------------------------------------|
B------------------------------------------------------|
G------------------------------------------------------|
D-7-7-7-7-5-5-5-5-2-2-2-2-3-3-3-3----------------------|
A-7-7-7-7-5-5-5-5-2-2-2-2-3-3-3-3----------------------|
D-7-7-7-7-5-5-5-5-2-2-2-2-3-3-3-3 x 2 (only play 3-3-3-| once)

Outro-

e---------------------------------|
B---------------------------------|
G---------------------------------|
D-0-0-0-0-2-2-2-2-5-5-5-5-7-7-7-7-|
A-0-0-0-0-2-2-2-2-5-5-5-5-7-7-7-7-|
D-0-0-0-0-2-2-2-2-5-5-5-5-7-7-7-7-| x 3 (let ring)

---------------------------------------------------------------------

4. Godly Wonders

Standard tuning

Intro-

e|----------------------------------------------------------------------|
B|----------------------------------------------------------------------|
G|----------------------------------------------------------------------|
D|-------8-------8----8-----7-----7---7-----7-----7---7-----8-----8---8-|
A|-10-10---10-10---10---8-8---8-8---8---5-5---5-5---5---6-6---6-6---6---|
E|----------------------------------------------------------------------|

e|---------------------------------------------------------------------|
B|---------------------------------------------------------------------|
G|------------10-------------------------------------------------------|
D|-------8-------8----8-----7-----7---7---5-7-8-7-5--7-----8-----8---8-|
A|-10-10---10------10---8-8---8-8---8---5----------5---6-6---6-6---6---|
E|---------------------------------------------------------------------|

Verse 1-

e|-------------------------------------------------------------------------|
B|-------------------------------------------------------------------------|
G|-------------------------------------------------------------------------|
D|--8--8--8--8--8--8--8--8-7-7-7-7-7-7-7-7-7-7-7-7-7-7-7-7-8-8-8-8-8-8-8-8-|
A|-10-10-10-10-10-10-10-10-8-8-8-8-8-8-8-8-5-5-5-5-5-5-5-5-6-6-6-6-6-6-6-6-|
E|-------------------------------------------------------------------------|


e|---------------------------------------------------------------------|
B|---------------------------------------------------------------------|
G|-----------------------------------------7-7-7-7-7-7-7-7-8-8-8-8-8-8-|
D|--8--8--8--8--8--8--8--8-7-7-7-7-7-7-7-7-7-7-7-7-7-7-7-7-8-8-8-8-8-8-|
A|-10-10-10-10-10-10-10-10-8-8-8-8-8-8-8-8-5-5-5-5-5-5-5-5-6-6-6-6-6-6-|
E|---------------------------------------------------------------------|

Chorus-

e|------------------------------------------------|
B|------------------------------------------------|
G|------------------------------------------------|
D|-8-8-8--8-8-10-10-10-10-10-5-5-5--5-5-3-3-3-----|
A|-8-8-8--8-8-10-10-10-10-10-5-5-5--5-5-3-3-3-----|
E|-6-6-6--6-6-8--8--8--8--8--3-3-3--3-3-1-1-1 x 2-|


e|-----------------------------|
B|-----------------------------|
G|-----------------------------|
D|-8-8-8--8-8-10-10-10-10-10-5-|
A|-8-8-8--8-8-10-10-10-10-10-5-|
E|-6-6-6--6-6-8--8--8--8--8--3-| (let ring)

Verse 2-

e|----------------------------------------------------------------------|
B|----------------------------------------------------------------------|
G|----------------------------------------------------------------------|
D|-------8-------8----8-----7-----7---7-----7-----7---7-----8-----8---8-|
A|-10-10---10-10---10---8-8---8-8---8---5-5---5-5---5---6-6---6-6---6---|
E|----------------------------------------------------------------------|

e|---------------------------------------------------------------------|
B|---------------------------------------------------------------------|
G|------------10-------------------------------------------------------|
D|-------8-------8----8-----7-----7---7---5-7-8-7-5--7-----8-----8---8-|
A|-10-10---10------10---8-8---8-8---8---5----------5---6-6---6-6---6---|
E|---------------------------------------------------------------------|

e|-------------------------------------------------------------------------|
B|-------------------------------------------------------------------------|
G|-------------------------------------------------------------------------|
D|--8--8--8--8--8--8--8--8-7-7-7-7-7-7-7-7-7-7-7-7-7-7-7-7-8-8-8-8-8-8-8-8-|
A|-10-10-10-10-10-10-10-10-8-8-8-8-8-8-8-8-5-5-5-5-5-5-5-5-6-6-6-6-6-6-6-6-|
E|-------------------------------------------------------------------------|


e|---------------------------------------------------------------------|
B|---------------------------------------------------------------------|
G|-----------------------------------------7-7-7-7-7-7-7-7-8-8-8-8-8-8-|
D|--8--8--8--8--8--8--8--8-7-7-7-7-7-7-7-7-7-7-7-7-7-7-7-7-8-8-8-8-8-8-|
A|-10-10-10-10-10-10-10-10-8-8-8-8-8-8-8-8-5-5-5-5-5-5-5-5-6-6-6-6-6-6-|
E|---------------------------------------------------------------------|

Chorus-

e|------------------------------------------------|
B|------------------------------------------------|
G|------------------------------------------------|
D|-8-8-8--8-8-10-10-10-10-10-5-5-5--5-5-3-3-3-----|
A|-8-8-8--8-8-10-10-10-10-10-5-5-5--5-5-3-3-3-----|
E|-6-6-6--6-6-8--8--8--8--8--3-3-3--3-3-1-1-1 x 2-|


e|-----------------------------|
B|-----------------------------|
G|-----------------------------|
D|-8-8-8--8-8-10-10-10-10-10-5-|
A|-8-8-8--8-8-10-10-10-10-10-5-|
E|-6-6-6--6-6-8--8--8--8--8--3-| (let ring)

Bridge-

e|----------------------------------------------------------------------|
B|----------------------------------------------------------------------|
G|----------------------------------------------------------------------|
D|----------------------------------------------------------------------|
A|-------8-------8----8-----7-----7---7-----7-----7---7-----8-----8---8-|
E|-10-10---10-10---10---8-8---8-8---8---5-5---5-5---5---6-6---6-6---6---|


e|---------------------------------------------------------------------|
B|---------------------------------------------------------------------|
G|---------------------------------------------------------------------|
D|------------10-------------------------------------------------------|
A|-------8-------8----8-----7-----7---7---5-7-8-7-5--7-----8-----8---8-|
E|-10-10---10------10---8-8---8-8---8---5----------5---6-6---6-6---6---|

e|-------------------------------------------------------------------------|
B|-------------------------------------------------------------------------|
G|-------------------------------------------------------------------------|
D|-------------------------------------------------------------------------|
A|--8--8--8--8--8--8--8--8-7-7-7-7-7-7-7-7-7-7-7-7-7-7-7-7-8-8-8-8-8-8-8-8-|
E|-10-10-10-10-10-10-10-10-8-8-8-8-8-8-8-8-5-5-5-5-5-5-5-5-6-6-6-6-6-6-6-6-|


e|---------------------------------------------------------------------|
B|---------------------------------------------------------------------|
G|---------------------------------------------------------------------|
D|-----------------------------------------7-7-7-7-7-7-7-7-8-8-8-8-8-8-|
A|--8--8--8--8--8--8--8--8-7-7-7-7-7-7-7-7-7-7-7-7-7-7-7-7-8-8-8-8-8-8-|
E|-10-10-10-10-10-10-10-10-8-8-8-8-8-8-8-8-5-5-5-5-5-5-5-5-6-6-6-6-6-6-|


e------------------------------------------------------|
B------------------------------------------------------|
G------------------------------------------------------|
D-12-12-12--12-12-10-10-10--10-10-7-7-7--7-7-8-8-8-----|
A-12-12-12--12-12-10-10-10--10-10-7-7-7--7-7-8-8-8-----|
E-10-10-10--10-10-8--8--8---8--8--5-5-5--5-5-6-6-6 x 2-|

Outro-

e-------------------------------------------------------------------------|
B-------------------------------------------------------------------------|
G-------------------------------------------------------------------------|
D-3-3-5--5-5-5-5-5-3-3-8--8-8-8-8-8-3-3-5--5-5-5-5-5--8-8-8-8-8-3-3-3-3-5-|
A-3-3-5--5-5-5-5-5-3-3-8--8-8-8-8-8-3-3-5--5-5-5-5-5--8-8-8-8-8-3-3-3-3-5-|
E-1-1-3--3-3-3-3-3-1-1-6--6-6-6-6-6-1-1-3--3-3-3-3-3--6-6-6-6-6-1-1-1-1-3-|

------------------------------------------------------------------

5. Hey

DROP D TUNING

Intro-

e------------------------|
B------------------------|
G------------------------|
D--0--0--0--0--0--0--0-0-|
A----------------------0-|
D-0--0--0--0--0--0--0--0-|

e------------------------------|
B------------------------------|
G------------------------------|
D----------------------------0-|
A----------------------------0-|
D-0-4-5-7-5-4-0--0-4-5-7-5-4-0-|

Verse 1-

e-------------------------------|
B-------------------------------|
G-------------------------------|
D-0-0-0-4-4-4-5-5-5-7-7-7-7-----|
A-0-0-0-4-4-4-5-5-5-7-7-7-7-----|
D-0-0-0-4-4-4-5-5-5-7-7-7-7 x 3-|

e-----------------------|
B-----------------------|
G-7-7-7-5-5-5-4-4-2-----|
D-7-7-7-5-5-5-4-4-2-----|
A-7-7-7-5-5-5-4-4-2 x 2-|

Pre-Chorus-

e-----------------------------------------------------------------|
B-----------------------------------------------------------------|
G-----------------------------------------------------------------|
D-0-0-0-0-0-0-0-0-5-5-5-5-5-5-5-5-9-9-9-9-9-9-9-9-5-5-5-5-5-5-5-5-|
A-0-0-0-0-0-0-0-0-5-5-5-5-5-5-5-5-9-9-9-9-9-9-9-9-5-5-5-5-5-5-5-5-|
D-0-0-0-0-0-0-0-0-5-5-5-5-5-5-5-5-9-9-9-9-9-9-9-9-5-5-5-5-5-5-5-5-|

Chorus-

e----------------------------------------|
B----------------------------------------|
G----------------------------------------|
D-77777777-99999999-55555555-5555555-----|
A-77777777-99999999-55555555-5555555-----|
D-77777777-99999999-55555555-5555555 x 2-|

Bridge/Solo
e------------------------------------|
B------------------------------------|
G------------------------------------|
D----------------------------4-4-----|
A----------------------------4-4-----|
D-0-4-5-7-5-4-0--0-4-5-7-5-4-4-4 x 3-|

Verse 2-


e-------------------------------|
B-------------------------------|
G-------------------------------|
D-0-0-0-4-4-4-5-5-5-7-7-7-7-----|
A-0-0-0-4-4-4-5-5-5-7-7-7-7-----|
D-0-0-0-4-4-4-5-5-5-7-7-7-7 x 3-|

e-----------------------|
B-----------------------|
G-7-7-7-5-5-5-4-4-2-----|
D-7-7-7-5-5-5-4-4-2-----|
A-7-7-7-5-5-5-4-4-2 x 2-|

Chorus-

e----------------------------------------|
B----------------------------------------|
G----------------------------------------|
D-77777777-99999999-55555555-5555555-----|
A-77777777-99999999-55555555-5555555-----|
D-77777777-99999999-55555555-5555555 x 2-|

Outro-

e------------------------|
B------------------------|
G------------------------|
D--0--0--0--0--0--0--0-0-|
A----------------------0-|
D-0--0--0--0--0--0--0--0-|

--------------------------------------------------------------

6. Hate Is A Strong Word

Standard Tuning

Intro-

e--------------------------------------------------------------------|
B--------------------------------------------------------------------|
G------------666-------------444-------------222-------------444-----|
D-7-7-7-7-7--777--5-5-5-5-5--555--3-3-3-3-3--333--5-5-5-5-5--555-----|
A-7-7-7-7-7--777--5-5-5-5-5--555--3-3-3-3-3--333--5-5-5-5-5--555-----|
E-5-5-5-5-5--555--3-3-3-3-3--333--1-1-1-1-1--111--3-3-3-3-3--333 x 2-|

Verse 1-

e--------------------------------------------|
B--------------------------------------------|
G-------6-6--------4-4--------2-2--------4-4-|
D-7-7-7-7-7--5-5-5-5-5--3-3-3-3-3--5-5-5-5-5-|
A-7-7-7-7-7--5-5-5-5-5--3-3-3-3-3--5-5-5-5-5-|
E-5-5-5-5-5--3-3-3-3-3--1-1-1-1-1--3-3-3-3-3-|

e--------------------------------------------------------------------|
B--------------------------------------------------------------------|
G---------6-6-6-6----------4-4-4-4----------2-2-2-2----------4-4-4-4-|
D-7-7-7-7-7-7-7-7--5-5-5-5-5-5-5-5--3-3-3-3-3-3-3-3--5-5-5-5-5-5-5-5-|
A-7-7-7-7-7-7-7-7--5-5-5-5-5-5-5-5--3-3-3-3-3-3-3-3--5-5-5-5-5-5-5-5-|
E-5-5-5-5-5-5-5-5--3-3-3-3-3-3-3-3--1-1-1-1-1-1-1-1--3-3-3-3-3-3-3-3-|

Pre-Chorus

e-----------|
B-----------|
G-----------|
D-7-7-5-5-3-|
A-7-7-5-5-3-|
E-5-5-3-3-1-| (let ring)

Chorus-

e-------------------------------------|
B-------------------------------------|
G-----------------7-7-7-7-9-9-9-9-----|
D-7-7-7-7-9-9-9-9-7-7-7-7-9-9-9-9-----|
A-7-7-7-7-9-9-9-9-5-5-5-5-7-7-7-7-----|
E-5-5-5-5-7-7-7-7---------------- x 3-|

e-----------------------|
B-----------------------|
G-9-9-9-7-7-7-----------|
D-9-9-9-7-7-7-9-9-9-9-9-|
A-7-7-7-5-5-5-9-9-9-9-9-|
E-------------7-7-7-7-7-|

Verse 2

e-----------------------------------------------------|
B-----------------------------------------------------|
G-------------5-5-5-5-5-5-7-7-7-7-7-7-----------------|
D-5-5-5-5-5-5-5-5-5-5-5-5-7-7-7-7-7-7-7-7-7-7-7-7-----|
A-5-5-5-5-5-5-3-3-3-3-3-3-5-5-5-5-5-5-7-7-7-7-7-7-----|
E-3-3-3-3-3-3-------------------------5-5-5-5-5-5 x 2-|
pm***********************************************

e-------------------------------------------------|
B-------------------------------------------------|
G-------------5-5-5-5-5-5-7-7-7-7-7-7-------------|
D-5-5-5-5-5-5-5-5-5-5-5-5-7-7-7-7-7-7-7-7-7-7-7-7-|
A-5-5-5-5-5-5-3-3-3-3-3-3-5-5-5-5-5-5-7-7-7-7-7-7-|
E-3-3-3-3-3-3-------------------------5-5-5-5-5-5-|

e---------------------------------------|
B---------------------------------------|
G-------------5-5-5-5-5-5-7-7-7-7-7-7---|
D-5-5-5-5-5-5-5-5-5-5-5-5-7-7-7-7-7-7-7-|
A-5-5-5-5-5-5-3-3-3-3-3-3-5-5-5-5-5-5-7-|
E-3-3-3-3-3-3-------------------------5-| (let ring)

Solo-

e-----------------------------------------------------------------------------------|
B-10-10-10-10-10-8-8-8--------------------------------------------------------------|
G----------------------9-9-9-9-9-10-10-10----------------------------10-10-10-10-10-|
D-----------------------------------------10-10-12-10-10-15-10-10-12-10-10-10-10-10-|
A--------------------------------------------------------------------8--8--8--8--8--|
E-----------------------------------------------------------------------------------|

Chorus-

e-------------------------------------|
B-------------------------------------|
G-----------------7-7-7-7-9-9-9-9-----|
D-7-7-7-7-9-9-9-9-7-7-7-7-9-9-9-9-----|
A-7-7-7-7-9-9-9-9-5-5-5-5-7-7-7-7-----|
E-5-5-5-5-7-7-7-7---------------- x 3-|

e-----------------------|
B-----------------------|
G-9-9-9-7-7-7-----------|
D-9-9-9-7-7-7-9-9-9-9-9-|
A-7-7-7-5-5-5-9-9-9-9-9-|
E-------------7-7-7-7-7-|

Outro-

e---------------------------------------------------|
B---------------------------------------------------|
G---------6-6---------4-4---------2-2---------4-4-8-|
D-7-7-7-7-7-7-5-5-5-5-5-5-3-3-3-3-3-3-5-5-5-5-5-5-7-|
A-7-7-7-7-7-7-5-5-5-5-5-5-3-3-3-3-3-3-5-5-5-5-5-5-7-|
E-5-5-5-5-5-5-3-3-3-3-3-3-1-1-1-1-1-1-3-3-3-3-3-3-5-| (cut short a little)

----------------------------------------------------------------

7. Winning Streak

Standard Tuning

Intro-

e--------------------------------------------------------------------------------------------------|
B-14-14-14-14-14-14-14-14-12-12-12-12-12-12-12-12-10-10-10-10-10-10-10-10-12-12-12-12-12-12-12-12--|
G-14-14-14-14-14-14-14-14-13-13-13-13-13-13-13-13-11-11-11-11-11-11-11-11-13-13-13-13-13-13-13-13--|
D--------------------------------------------------------------------------------------------------|
A--------------------------------------------------------------------------------------------------|
E--------------------------------------------------------------------------------------------------|

Verse 1-

e--------------------|-----------------------------------------|
B--------------------|-----------------------------------------|
G--------------------|------------------555555555--------------|
D-7-7-5-5-3----------|77777777-33333333-555555555-55555555-----|
A-7-7-5-5-3(let ring)|77777777-33333333-333333333-55555555-----|
E-5-5-3-3-1----------|55555555-11111111-----------33333333 x 2-|

Pre-Chorus-

e-----------|
B-----------|
G-----------|
D-7-7-5-5-3-|
A-7-7-5-5-3-|
E-5-5-3-3-1-| (let ring)

Chorus-

e-----------------------------------------|
B-----------------------------------------|
G-------------------44444444-77777777-----|
D-77777777-44444444-44444444-77777777-----|
A-77777777-44444444-22222222-55555555-----|
E-55555555-22222222------------------ x 2-|

e-------------------|
B-------------------|
G---------444-777---|
D-777-444-444-777-7-|
A-777-444-222-555-7-|
E-555-222---------5-| (let ring)

Bridge/Solo-

e--------------------------------------------------------------------------------------------------|
B-14-14-14-14-14-14-14-14-12-12-12-12-12-12-12-12-10-10-10-10-10-10-10-10-12-12-12-12-12-12-12-12--|
G-14-14-14-14-14-14-14-14-13-13-13-13-13-13-13-13-11-11-11-11-11-11-11-11-13-13-13-13-13-13-13-13--|
D--------------------------------------------------------------------------------------------------|
A--------------------------------------------------------------------------------------------------|
E--------------------------------------------------------------------------------------------------|

e-----------|
B-----------|
G-----------|
D-7-7-5-5-3-|
A-7-7-5-5-3-|
E-5-5-3-3-1-| (let ring)

Verse 2-

e------------------------------------------|
B------------------------------------------|
G-------------------555555555--------------|
D-77777777-33333333-555555555-55555555-----|
A-77777777-33333333-333333333-55555555-----|
E-55555555-11111111-----------33333333 x 2-|

e-----------|
B-----------|
G-----------|
D-7-7-5-5-3-|
A-7-7-5-5-3-|
E-5-5-3-3-1-| (let ring)

Chorus-

e-----------------------------------------|
B-----------------------------------------|
G-------------------44444444-77777777-----|
D-77777777-44444444-44444444-77777777-----|
A-77777777-44444444-22222222-55555555-----|
E-55555555-22222222------------------ x 2-|

e-------------------|
B-------------------|
G---------444-777---|
D-777-444-444-777-7-|
A-777-444-222-555-7-|
E-555-222---------5-| (let ring)

Outro-

e------------|
B------------|
G------------|
D-7-7-5-5-3--|
A-7-7-5-5-3--|
E-5-5-3-3-1--| (keep strumming this last note up and down until the other instruments
down, then end with a slide down the fretboard)

------------------------------------------------------------

8. Life Goes On

Standard Tuning

Intro-

e-----------------------|
B-----------------------|
G--5--5-3-3-2-3-2-------|
D----------------3------|
A-3--3------------------|
E-----------------  x 2-|

e-----------------------------------|
B-----------------------------------|
G-5-5-5-5-3-3-2-3-2---5-3-2-3-2-----|
D-5---5------------3b------------3b-| (let ring)
A-3---3-----------------------------|
E-----------------------------------|

Verse 1-

e-------------------------------------|
B-------------------------------------|
G-55555555-33333333-------------------|
D-55555555-33333333-33333333-55555555-|
A-33333333-11111111-33333333-55555555-|
E-------------------11111111-33333333-|
pm***********************************

e-------------------------------------|
B-------------------------------------|
G-55555555-33333333-------------------|
D-55555555-33333333-33333333-55555555-|
A-33333333-11111111-33333333-55555555-|
E-------------------11111111-33333333-|
pm************************** (dont pm the G# chord)

Pre-Chorus

e-----------|
B-----------|
G-5-5-3-3---|
D-5-5-3-3-3-|
A-3-3-1-1-3-| (let ring)
E---------1-|

Chorus-

e------------------------|
B------------------------|
G-5555-7777--------------|
D-5555-7777-7777-555-----|
A-3333-5555-7777-555-----|
E-----------5555-333 x 2-|

e------------------|
B------------------|
G-5555-7777--------|
D-5555-7777-7777-5-|
A-3333-5555-7777-5-|
E-----------5555-3-| (let ring)

Bridge-

e--------------------------------------|
B--------------------------------------|
G-------------------66666666-333333333-|
D-33333333-66666666-66666666-333333333-|
A-33333333-66666666-44444444-111111111-|
E-11111111-44444444--------------------|

Interlude (played by either bass or guitar)

e---------------------------------------|
B---------------------------------------|
G---------------------------------------|
D---------------------------------------|
A--------------------44444444-111111111-|
E-111111111-44444444--------------------|

Solo-

e----------------------------------------12-10-12----|
B------------------------------------------------10-b|
G----------------------------------------------------|
D----------------------------------------------------|
A----1-4-88888888-44444444---------------------------|
E-1-4----------------------44444444-66666------------|

Verse 2-

e-------------------------------------|
B-------------------------------------|
G-55555555-33333333-------------------|
D-55555555-33333333-33333333-55555555-|
A-33333333-11111111-33333333-55555555-|
E-------------------11111111-33333333-|
pm***********************************

e-------------------------------------|
B-------------------------------------|
G-55555555-33333333-------------------|
D-55555555-33333333-33333333-55555555-|
A-33333333-11111111-33333333-55555555-|
E-------------------11111111-33333333-|
pm************************** (dont pm the G# chord)

Pre-Chorus

e-----------|
B-----------|
G-5-5-3-3---|
D-5-5-3-3-3-|
A-3-3-1-1-3-| (let ring)
E---------1-|

Chorus-

e------------------------|
B------------------------|
G-5555-7777--------------|
D-5555-7777-7777-555-----|
A-3333-5555-7777-555-----|
E-----------5555-333 x 2-|

e------------------|
B------------------|
G-5555-7777--------|
D-5555-7777-7777-5-|
A-3333-5555-7777-5-|
E-----------5555-3-| (let ring)

Outro-

e-------------------|
B-------------------|
G--5--5-3-3-2-3-2---|
D----------------3b-| (let ring)
A-3--3--------------|
E-------------------|


well, this was fun, but we're going our seperate ways, so cya!
comments
We did not receive enough feedback on this tab! Please rate:
print report bad tab
1 2 3 4 5
2 comments total.
0 reply
d_man_dude wrote on July 16 2006, 06:17 pm

nice

0 reply
Guitar Guy 93 wrote on June 3 2008, 04:04 am

dont plagerize shit mate, and if you do dont make it an obvious song that every1 nos, like dirty little secret riff in the last bar ^
|

I want to post or [tab]
guest
You may want to rate the tab now too:
select rating
Please do not post tabs as comments. Select "correction" instead!