Oops, an error
Loading. Please wait.

Hellfire - Annihilate Tab

71 views 1 this week
no commentswrite comment
1 2 3 4 5
please rate
Autoscroll
+/-
esc
set tempo
stop
Contributor
Difficulty
Tuning
advanced
D# G# C# F# A# D#
Hey! There's an official Ultimate Guitar app which is ideal
for learning songs when you're away from computer. Get the app
WARNING: You are trying to view
                                    content from Ultimate-Guitar.com
                                    in an unauthorized application,
                                    which is prohibited.

                                    Please use an official Ultimate
                                    Guitar Tabs application for iPhone,
                                    iPad or Android to access legitimate
                                    chords, guitar, bass, and drum tabs
                                    from Ultimate-Guitar.com database.

                                    Type "ultimate guitar tabs" in Apple
                                    App Store's or Android Market's
                                    search to find the application.
-------------------------------------------------------------------------------
                             Annihilate - Hellfire
-------------------------------------------------------------------------------

So this is a song by my band called Hellfire, and I just though I'd
put it on here for the hell of it.


Tuning: Half-Step Down


Intro

eb|----------------|
Bb|----------------|
Gb|----------------|
Db|----------------|
Ab|5~----4~---3~---|
Eb|3~----2~---1~---|

eb|----------------------------------------------------|
Bb|----------------------------------------------------|
Gb|----------------------------------------------------|
Db|----------------------------------------------------|
Ab|22-222-222-2-22222-22222-33-333-333-3-33333-33333---|
Eb|00-000-000-0-00000-00000-11-111-111-1-11111-11111---|
   .. ... ... . ..... ..... .. ... ... . ..... .....
       t.  t.                   t.  t.

eb|------------------------------------------------------|
Bb|------------------------------------------------------|
Gb|------------------------------------------------------|
Db|------------------------------------------------------|
Ab|22-222-222-2-22222-22222-33-333-333-3-33333-3333-3~---|
Eb|00-000-000-0-00000-00000-11-111-111-1-11111-1111-1~---|
   .. ... ... . ..... ..... .. ... ... . ..... ....
       t.  t.                   t.  t.


Pre-Verse  (Really fast strumming here, and those ///////, means a pickslide)


eb|-----------------------------------------------------------------------|
Bb|-----------------------------------------------------------------------|
Gb|-----------------------------------------------------------------------|
Db|////////---------------------------------------------------------------| x2
Ab|-----------------------------------------------------------------------|
Eb|---------------------0---3---0---1--3---0---3---0---1--3-0-1-3-0-1-3---|
                        .   .   .   .  .   .   .   .   .  . . . . . . .

Solo  (Really fast strumming here too, and rhythm just plays pre-verse)

eb|--------------------------------------------------------------------------------------|
Bb|141414141414141414141414141414-15-1414-17-141414141414141414141414141414-15-1414-17---|
Gb|--------------------------------------------------------------------------------------|
Db|--------------------------------------------------------------------------------------|
Ab|--------------------------------------------------------------------------------------|
Eb|--------------------------------------------------------------------------------------|

eb|-----------------------------------------------------------------------------------|
Bb|1414141414141414-15-1414-17-14141414141414-5-1414-17-1414141414141414-15-1414-17---|
Gb|-----------------------------------------------------------------------------------|
Db|-----------------------------------------------------------------------------------|
Ab|-----------------------------------------------------------------------------------|
Eb|-----------------------------------------------------------------------------------|

eb|-----------------------------------------------------------------------------------|
Bb|14141517141415171414151714141517141415171414151714141517141415171414151714141517---|
Gb|-----------------------------------------------------------------------------------|
Db|-----------------------------------------------------------------------------------|
Ab|-----------------------------------------------------------------------------------|
Eb|-----------------------------------------------------------------------------------|

eb|--------------------------------------------------------------|
Bb|t1714h15p14-x6-t1814h15p14-x6-t1714h15p14-x4-t1814h15p14-x4---|
Gb|--------------------------------------------------------------|
Db|--------------------------------------------------------------|
Ab|--------------------------------------------------------------|
Eb|--------------------------------------------------------------|

eb|--------------------------------------------------|
Bb|t1714h15p14-t1814h15p14-t1714h15p14-t1814h15p14---|
Gb|--------------------------------------------------| x2
Db|--------------------------------------------------|
Ab|--------------------------------------------------|
Eb|--------------------------------------------------|


Verse (Fast strumming here as well)

eb|-----------------------------------------------------------|
Bb|-----------------------------------------------------------|
Gb|-----------------------------------------------------------|
Db|--------------------66-5-4--------------------11-11-10-9---| x2
Ab|--------------------44-3-2--------------------9--9--8--7---|
Eb|3--4--2--3--2--4--1-------5--6--9--8--7--5--6--------------|
   .  .  .  .  .  .  .       .  .  .  .  .  .  .

eb|---------------------------------------------------------------------------|
Bb|---------------------------------------------------------------------------|
Gb|---------------------------------------------------------------------------|
Db|---------------------------------------------------------------------------|
Ab|2-222-222-222-222-5-555-555-555-555-222-222-3-333-333-333-333-----44-------|
Eb|0-000-000-000-000-3-333-333-333-333-000-000-1-111-111-111-111-3355--4433---|
   . ... ... ... ... . ... ... ... ... ... ... . ... ... ... ...
      t.  t.  t.  t.    t.  t.  t.  t.  t.  t.    t.  t.  t.  t.

eb|--------------------------------------------------------|
Bb|--------------------------------------------------------|
Gb|--------------------------------------------------------|
Db|--------------------------------------------------------| x3
Ab|33-3-333-33-33-3-333-3-333-22-2-222-22-22-2-222-2-222---|
Eb|11-1-111-11-11-1-111-1-111-00-0-000-00-00-0-000-0-000---|
   ..   ...    ..   ...   ... ..   ...    ..   ...   ...
         t.          t.    t.       t.          t.    t.

Pre-Chorus riff  (Fast strumming once again)

eb|----------------------------|
Bb|----------------------------|
Gb|----------------------------|
Db|----------------------------| x2
Ab|7---8--10-12----10--8---7---|
Eb|----------------------------|


Chorus riff x2

eb|------------------------------------------------------------------------|
Bb|------------------------------------------------------------------------|
Gb|------------------------------------------------------------------------|
Db|------------------------------------------------------------------------|
Ab|22-2-22-2-222-22-2-222-222-222-222-33-3-33-3-333-33-3-333-333-333-333---|
Eb|00-0-00-0-000-00-0-000-000-000-000-11-1-11-1-111-11-1-111-111-111-111---|
   ..   ..   ... ..   ... ... ... ... ..   ..   ... ..   ... ... ... ...
              t.       t.  t.  t.  t.            t.       t.  t.  t.  t.

eb|------------------------------------------------------------------------|
Bb|------------------------------------------------------------------------|
Gb|------------------------------------------------------------------------|
Db|------------------------------------------------------------------------|
Ab|44-4-44-4-444-44-4-444-444-444-444-22-2-22-2-222-22-2-222-222-222-222---|
Eb|22-2-22-2-222-22-2-222-222-222-222-00-0-00-0-000-00-0-000-000-000-000---|
   ..   ..   ... ..   ... ... ... ... ..   ..   ... ..   ... ... ... ... 
              t.       t.  t.  t.  t.            t.       t.  t.  t.  t.

eb|------------------------------------------------------------------------|
Bb|------------------------------------------------------------------------|
Gb|------------------------------------------------------------------------|
Db|------------------------------------------------------------------------|
Ab|55-5-55-5-555-55-5-555-555-555-555-44-4-44-4-444-44-4-444-444-444-444---|
Eb|33-3-33-3-333-33-3-333-333-333-333-22-2-22-2-222-22-2-222-222-222-222---|
   ..   ..   ... ..   ... ... ... ... ..   ..   ... ..   ... ... ... ...
              t.       t.  t.  t.  t.            t.       t.  t.  t.  t.

Interlude

eb|----------------------------------------------------|
Bb|----------------------------------------------------|
Gb|----------------------------------------------------|
Db|----------------------------------------------------| x2
Ab|66666666-55-22222222--7---8--10-12------10--8---7---|
Eb|44444444-33-00000000--------------------------------|

eb|--------------------------------|
Bb|--------------------------------|
Gb|--------------------------------|
Db|--------------------------------| x2
Ab|--------------------------------|
Eb|0---2---3---5---8---9---7---6---|
   .   .   .   .   .   .   .   .

Verse x2


Pre-Solo x1

eb|---------------------------------------------------------------------|
Bb|---------------------------------------------------------------------|
Gb|---------------------------------------------------------------------|
Db|---------------------------------------------------------------------|
Ab|2222222222222222-33-3333333333333333-22-22222222-3-33333333-2-2222---|
Eb|0000000000000000-11-1111111111111111-00-00000000-1-11111111-0-0000---|
   ................    ................    ........   ........   ....

eb|------------------------------------------------------|
Bb|------------------------------------------------------|
Gb|------------------------------------------------------|
Db|------------------------------------------------------
Ab|3-333-3-333-3-333-3-333-2-222-2-222-2-222-2-222--3~---|
Eb|1-111-1-111-1-111-1-111-0-000-0-000-0-000-0-000--1~---|
   . ... . ... . ... . ... . ... . ... . ... . ...

eb|-----------------------------------------------------|
Bb|-----------------------------------------------------|
Gb|-----------------------------------------------------|
Db|-----------------------------------------------------|
Ab|3-333-3-333-3-333-3-333-2-222-2-222-2-222-2-222-3~---|
Eb|1-111-1-111-1-111-1-111-0-000-0-000-0-000-0-000-1~---|


Solo (bv means bend vigorously, and rhythm guitar plays chorus)

eb|-------------------------------------------|
Bb|-------------------------------------------|
Gb|-------------------------------------------|
Db|-------------------------------------------|
Ab|12bv--14bv--15bv--17bv--18bv--20bv--21bv---|
Eb|-------------------------------------------|

eb|--------------------------------------------------------------------------------------|
Bb|141414141414141414141414141414-15-1414-17-141414141414141414141414141414-15-1414-17---|
Gb|--------------------------------------------------------------------------------------|
Db|--------------------------------------------------------------------------------------|
Ab|--------------------------------------------------------------------------------------|
Eb|--------------------------------------------------------------------------------------|

eb|-----------------------------------------------------------------------------------|
Bb|1414141414141414-15-1414-17-14141414141414-5-1414-17-1414141414141414-15-1414-17---|
Gb|-----------------------------------------------------------------------------------|
Db|-----------------------------------------------------------------------------------|
Ab|-----------------------------------------------------------------------------------|
Eb|-----------------------------------------------------------------------------------|

eb|-----------------------------------------------------------------------------------|
Bb|14141517141415171414151714141517141415171414151714141517141415171414151714141517---|
Gb|-----------------------------------------------------------------------------------|
Db|-----------------------------------------------------------------------------------|
Ab|-----------------------------------------------------------------------------------|
Eb|-----------------------------------------------------------------------------------|

eb|--------------------------------------------------------------|
Bb|t1714h15p14-x6-t1814h15p14-x6-t1714h15p14-x4-t1814h15p14-x4---|
Gb|--------------------------------------------------------------|
Db|--------------------------------------------------------------|
Ab|--------------------------------------------------------------|
Eb|--------------------------------------------------------------|

eb|--------------------------------------------------|
Bb|t1714h15p14-t1814h15p14-t1714h15p14-t1814h15p14---|
Gb|--------------------------------------------------| x2
Db|--------------------------------------------------|
Ab|--------------------------------------------------|
Eb|--------------------------------------------------|

eb|--------------191817-------------------------------------------------------|
Bb|15171816171518------16151820--------------------------------171418161920---|
Gb|----------------------------191816151716--------192019171619---------------|
Db|----------------------------------------15171819---------------------------|
Ab|---------------------------------------------------------------------------|
Eb|---------------------------------------------------------------------------|

eb|--------14171518192022------------------------------------20h22h24---|
Bb|19181615--------------20212419171619171618--------16h18h20-----------|
Gb|------------------------------------------12h14h16-------------------|
Db|---------------------------------------------------------------------|
Ab|---------------------------------------------------------------------|
Eb|---------------------------------------------------------------------|

eb|-----------------------------|
Bb|22--19--18--16--17--15--14---|
Gb|-----------------------------|
Db|-----------------------------| (Tremlo picking)
Ab|-----------------------------|
Eb|-----------------------------|

Verse x1
Pre-Chorus x1
Chorus x2


Outro x1

eb|-----------------------------------------------------------------|
Bb|-----------------------------------------------------------------|
Gb|-----------------------------------------------------------------|
Db|-------------------66-5-4-------------------11-11-10-9-----------|
Ab|-------------------44-3-2-------------------9--9--8--7-33333-2---|
Eb|3--4--2--3--2--4--1------5--6--9--8--7--5--6-----------11111-0---|
   .  .  .  .  .  .  .      .  .  .  .  .  .  .

the solo isn't that great, but we're working on a better one.


| /  slide up
| \  slide down
| h  hammer-on
| p  pull-off
| ~  vibrato
| +  harmonic
| x  Mute note
===============================================================================
comments
We did not receive enough feedback on this tab! Please rate:
print report bad tab
1 2 3 4 5
I want to post or [tab]
guest
You may want to rate the tab now too:
select rating
Please do not post tabs as comments. Select "correction" instead!